  0
SECTION
  2
HEADER
  9
$ACADVER
  1
AC1006
  9
$EXTMIN
 10
2.558160
 20
1.921480
  9
$EXTMAX
 10
6.078600
 20
8.880520
  9
$LTSCALE
 40
0.044000
  9
$PDMODE
 70
    35
  9
$PDSIZE
 40
0.035200
  0
ENDSEC
  0
SECTION
  2
TABLES
  0
TABLE
  2
LTYPE
 70
     9
  0
LTYPE
  2
CONTINUOUS
 70
    64
  3
Solid line
 72
    65
 73
     0
 40
0.000000
  0
LTYPE
  2
DASHED
 70
    64
  3
__ __ __ __ __ __ __ __ __ __ __ __ __ __ __
 72
    65
 73
     2
 40
0.000330
 49
0.000220
 49
-0.000110
  0
LTYPE
  2
HIDDEN
 70
    64
  3
 _ _ _ _ _ _ _ _ _ _ _ _ _ _ _ _ _ _ _ _ _ _
 72
    65
 73
     2
 40
0.000165
 49
0.000110
 49
-0.000055
  0
LTYPE
  2
CENTER
 70
    64
  3
____ _ ____ _ ____ _ ____ _ ____ _ ____ _ ____
 72
    65
 73
     4
 40
0.000880
 49
0.000550
 49
-0.000110
 49
0.000110
 49
-0.000110
  0
LTYPE
  2
PHANTOM
 70
    64
  3
_____ _ _ _____ _ _ _____ _ _ _____ _ _ ____
 72
    65
 73
     6
 40
0.001100
 49
0.000550
 49
-0.000110
 49
0.000110
 49
-0.000110
 49
0.000110
 49
-0.000110
  0
LTYPE
  2
DOT
 70
    64
  3
...............................................
 72
    65
 73
     2
 40
0.000110
 49
0.000000
 49
-0.000110
  0
LTYPE
  2
DASHDOT
 70
    64
  3
__ . __ . __ . __ . __ . __ . __ . __ . __ . __
 72
    65
 73
     4
 40
0.000440
 49
0.000220
 49
-0.000110
 49
0.000000
 49
-0.000110
  0
LTYPE
  2
BORDER
 70
    64
  3
__ __ . __ __ . __ __ . __ __ . __ __ . __ __
 72
    65
 73
     6
 40
0.000770
 49
0.000220
 49
-0.000110
 49
0.000220
 49
-0.000110
 49
0.000000
 49
-0.000110
  0
LTYPE
  2
DIVIDE
 70
    64
  3
__ . . __ . . __ . . __ . . __ . . __ . . __
 72
    65
 73
     6
 40
0.000550
 49
0.000220
 49
-0.000110
 49
0.000000
 49
-0.000110
 49
0.000000
 49
-0.000110
  0
LTYPE
  2
DOTDOT
 70
    64
  3
 . .  . .  . .  . .  . .  . . 
 72
    65
 73
     5
 40
0.000242
 49
-0.000110
 49
0.000000
 49
-0.000110
 49
0.000000
 49
-0.000110
  0
ENDTAB
  0
TABLE
  2
STYLE
 70
     2
  0
STYLE
 70
     0
  2
SN0
 40
0.000000
 41
0.000440
 50
0.000000
 71
     0
 42
0.000000
  3
ROMAND
  0
STYLE
 70
    68
  2
SV0
 40
0.000000
 41
0.000440
 50
0.000000
 71
     0
 42
0.000000
  3
ROMAND
  0
ENDTAB
  0
TABLE
  2
LAYER
 70
     3
  0
LAYER
  2
FOREGROUND
 70
    64
 62
     7
  6
CONTINUOUS
  0
LAYER
  2
BACKGROUND
 70
    65
 62
    -7
  6
CONTINUOUS
  0
LAYER
  2
0
 70
    64
 62
     7
  6
CONTINUOUS
  0
ENDTAB
  0
ENDSEC
  0
SECTION
  2
ENTITIES
  0
POLYLINE
  8
FOREGROUND
  6
CONTINUOUS
 66
     1
 40
0.000000
 41
0.000000
  0
VERTEX
  8
FOREGROUND
  6
CONTINUOUS
 10
0.000000
 20
10.802000
  0
VERTEX
  8
FOREGROUND
  6
CONTINUOUS
 10
8.499920
 20
10.802000
  0
VERTEX
  8
FOREGROUND
  6
CONTINUOUS
 10
8.499920
 20
-0.198000
  0
VERTEX
  8
FOREGROUND
  6
CONTINUOUS
 10
0.000000
 20
-0.198000
  0
VERTEX
  8
FOREGROUND
  6
CONTINUOUS
 10
0.000000
 20
10.802000
  0
SEQEND
  8
0
  0
POLYLINE
  8
FOREGROUND
  6
CONTINUOUS
 66
     1
 40
0.000000
 41
0.000000
  0
VERTEX
  8
FOREGROUND
  6
CONTINUOUS
 10
0.000000
 20
10.802000
  0
VERTEX
  8
FOREGROUND
  6
CONTINUOUS
 10
8.499920
 20
10.802000
  0
VERTEX
  8
FOREGROUND
  6
CONTINUOUS
 10
8.499920
 20
-0.198000
  0
VERTEX
  8
FOREGROUND
  6
CONTINUOUS
 10
0.000000
 20
-0.198000
  0
VERTEX
  8
FOREGROUND
  6
CONTINUOUS
 10
0.000000
 20
10.802000
  0
SEQEND
  8
0
  0
POLYLINE
  8
0
  6
CONTINUOUS
 66
     1
 40
0.000000
 41
0.000000
  0
VERTEX
  8
0
  6
CONTINUOUS
 10
6.058800
 20
6.946720
  0
VERTEX
  8
0
  6
CONTINUOUS
 10
6.058800
 20
6.769840
  0
VERTEX
  8
0
  6
CONTINUOUS
 10
2.559040
 20
6.769840
  0
VERTEX
  8
0
  6
CONTINUOUS
 10
2.559040
 20
7.230960
  0
VERTEX
  8
0
  6
CONTINUOUS
 10
2.646160
 20
7.206760
  0
VERTEX
  8
0
  6
CONTINUOUS
 10
2.729320
 20
7.187840
  0
VERTEX
  8
0
  6
CONTINUOUS
 10
2.809400
 20
7.174200
  0
VERTEX
  8
0
  6
CONTINUOUS
 10
2.885960
 20
7.165840
  0
VERTEX
  8
0
  6
CONTINUOUS
 10
2.959440
 20
7.162760
  0
VERTEX
  8
0
  6
CONTINUOUS
 10
3.029400
 20
7.164520
  0
VERTEX
  8
0
  6
CONTINUOUS
 10
3.096720
 20
7.170680
  0
VERTEX
  8
0
  6
CONTINUOUS
 10
3.161400
 20
7.181680
  0
VERTEX
  8
0
  6
CONTINUOUS
 10
3.223440
 20
7.197080
  0
VERTEX
  8
0
  6
CONTINUOUS
 10
3.282840
 20
7.216440
  0
VERTEX
  8
0
  6
CONTINUOUS
 10
3.339600
 20
7.240200
  0
VERTEX
  8
0
  6
CONTINUOUS
 10
3.394160
 20
7.267920
  0
VERTEX
  8
0
  6
CONTINUOUS
 10
3.446960
 20
7.299160
  0
VERTEX
  8
0
  6
CONTINUOUS
 10
3.497560
 20
7.334360
  0
VERTEX
  8
0
  6
CONTINUOUS
 10
3.545960
 20
7.372640
  0
VERTEX
  8
0
  6
CONTINUOUS
 10
3.615920
 20
7.436440
  0
VERTEX
  8
0
  6
CONTINUOUS
 10
3.682360
 20
7.507280
  0
VERTEX
  8
0
  6
CONTINUOUS
 10
3.745280
 20
7.584280
  0
VERTEX
  8
0
  6
CONTINUOUS
 10
3.806000
 20
7.667440
  0
VERTEX
  8
0
  6
CONTINUOUS
 10
3.845600
 20
7.725520
  0
VERTEX
  8
0
  6
CONTINUOUS
 10
3.921720
 20
7.848720
  0
VERTEX
  8
0
  6
CONTINUOUS
 10
3.995640
 20
7.979400
  0
VERTEX
  8
0
  6
CONTINUOUS
 10
4.068680
 20
8.116240
  0
VERTEX
  8
0
  6
CONTINUOUS
 10
4.234560
 20
8.439640
  0
VERTEX
  8
0
  6
CONTINUOUS
 10
4.277680
 20
8.508720
  0
VERTEX
  8
0
  6
CONTINUOUS
 10
4.301440
 20
8.541280
  0
VERTEX
  8
0
  6
CONTINUOUS
 10
4.326520
 20
8.572520
  0
VERTEX
  8
0
  6
CONTINUOUS
 10
4.380200
 20
8.631040
  0
VERTEX
  8
0
  6
CONTINUOUS
 10
4.438280
 20
8.684280
  0
VERTEX
  8
0
  6
CONTINUOUS
 10
4.469080
 20
8.708920
  0
VERTEX
  8
0
  6
CONTINUOUS
 10
4.500760
 20
8.731800
  0
VERTEX
  8
0
  6
CONTINUOUS
 10
4.566760
 20
8.772720
  0
VERTEX
  8
0
  6
CONTINUOUS
 10
4.635840
 20
8.807920
  0
VERTEX
  8
0
  6
CONTINUOUS
 10
4.671480
 20
8.822880
  0
VERTEX
  8
0
  6
CONTINUOUS
 10
4.744520
 20
8.847960
  0
VERTEX
  8
0
  6
CONTINUOUS
 10
4.819760
 20
8.866000
  0
VERTEX
  8
0
  6
CONTINUOUS
 10
4.857600
 20
8.872160
  0
VERTEX
  8
0
  6
CONTINUOUS
 10
4.896320
 20
8.876560
  0
VERTEX
  8
0
  6
CONTINUOUS
 10
4.935040
 20
8.879200
  0
VERTEX
  8
0
  6
CONTINUOUS
 10
4.974200
 20
8.879640
  0
VERTEX
  8
0
  6
CONTINUOUS
 10
5.013360
 20
8.878320
  0
VERTEX
  8
0
  6
CONTINUOUS
 10
5.052520
 20
8.875240
  0
VERTEX
  8
0
  6
CONTINUOUS
 10
5.091680
 20
8.869960
  0
VERTEX
  8
0
  6
CONTINUOUS
 10
5.131280
 20
8.862480
  0
VERTEX
  8
0
  6
CONTINUOUS
 10
5.170440
 20
8.852800
  0
VERTEX
  8
0
  6
CONTINUOUS
 10
5.209600
 20
8.841360
  0
VERTEX
  8
0
  6
CONTINUOUS
 10
5.248320
 20
8.827720
  0
VERTEX
  8
0
  6
CONTINUOUS
 10
5.325760
 20
8.793400
  0
VERTEX
  8
0
  6
CONTINUOUS
 10
5.363600
 20
8.773160
  0
VERTEX
  8
0
  6
CONTINUOUS
 10
5.401440
 20
8.750280
  0
VERTEX
  8
0
  6
CONTINUOUS
 10
5.438400
 20
8.725640
  0
VERTEX
  8
0
  6
CONTINUOUS
 10
5.511000
 20
8.668440
  0
VERTEX
  8
0
  6
CONTINUOUS
 10
5.564240
 20
8.619160
  0
VERTEX
  8
0
  6
CONTINUOUS
 10
5.615280
 20
8.564600
  0
VERTEX
  8
0
  6
CONTINUOUS
 10
5.665000
 20
8.503880
  0
VERTEX
  8
0
  6
CONTINUOUS
 10
5.712080
 20
8.437880
  0
VERTEX
  8
0
  6
CONTINUOUS
 10
5.757400
 20
8.365720
  0
VERTEX
  8
0
  6
CONTINUOUS
 10
5.800520
 20
8.287840
  0
VERTEX
  8
0
  6
CONTINUOUS
 10
5.853320
 20
8.173880
  0
VERTEX
  8
0
  6
CONTINUOUS
 10
5.889840
 20
8.081480
  0
VERTEX
  8
0
  6
CONTINUOUS
 10
5.923280
 20
7.982480
  0
VERTEX
  8
0
  6
CONTINUOUS
 10
5.953200
 20
7.876880
  0
VERTEX
  8
0
  6
CONTINUOUS
 10
5.980040
 20
7.764680
  0
VERTEX
  8
0
  6
CONTINUOUS
 10
6.003360
 20
7.645880
  0
VERTEX
  8
0
  6
CONTINUOUS
 10
6.022280
 20
7.520040
  0
VERTEX
  8
0
  6
CONTINUOUS
 10
6.033280
 20
7.432480
  0
VERTEX
  8
0
  6
CONTINUOUS
 10
6.045600
 20
7.295200
  0
VERTEX
  8
0
  6
CONTINUOUS
 10
6.053520
 20
7.150880
  0
VERTEX
  8
0
  6
CONTINUOUS
 10
6.057480
 20
6.999080
  0
VERTEX
  8
0
  6
CONTINUOUS
 10
6.057480
 20
6.946720
  0
SEQEND
  8
0
  0
SOLID
  8
0
 62
    15
 10
4.955720
 20
4.306720
 11
5.602520
 21
4.682920
 12
5.093440
 22
4.220480
 13
5.739800
 23
4.596680
  0
POLYLINE
  8
0
  6
CONTINUOUS
 66
     1
 40
0.000000
 41
0.000000
  0
VERTEX
  8
0
  6
CONTINUOUS
 10
4.955720
 20
4.306720
  0
VERTEX
  8
0
  6
CONTINUOUS
 10
5.602520
 20
4.682920
  0
VERTEX
  8
0
  6
CONTINUOUS
 10
5.739800
 20
4.596680
  0
VERTEX
  8
0
  6
CONTINUOUS
 10
5.093440
 20
4.220480
  0
VERTEX
  8
0
  6
CONTINUOUS
 10
4.955720
 20
4.306720
  0
SEQEND
  8
0
  0
SOLID
  8
0
 62
    15
 10
3.783120
 20
5.962880
 11
4.429480
 21
6.339080
 12
3.739560
 22
5.792600
 13
4.386360
 23
6.168360
  0
POLYLINE
  8
0
  6
CONTINUOUS
 66
     1
 40
0.000000
 41
0.000000
  0
VERTEX
  8
0
  6
CONTINUOUS
 10
3.783120
 20
5.962880
  0
VERTEX
  8
0
  6
CONTINUOUS
 10
4.429480
 20
6.339080
  0
VERTEX
  8
0
  6
CONTINUOUS
 10
4.386360
 20
6.168360
  0
VERTEX
  8
0
  6
CONTINUOUS
 10
3.739560
 20
5.792600
  0
VERTEX
  8
0
  6
CONTINUOUS
 10
3.783120
 20
5.962880
  0
SEQEND
  8
0
  0
SOLID
  8
0
 62
    15
 10
3.739560
 20
5.792600
 11
4.386360
 21
6.168360
 12
3.718000
 22
5.635960
 13
4.364360
 23
6.012160
  0
POLYLINE
  8
0
  6
CONTINUOUS
 66
     1
 40
0.000000
 41
0.000000
  0
VERTEX
  8
0
  6
CONTINUOUS
 10
3.739560
 20
5.792600
  0
VERTEX
  8
0
  6
CONTINUOUS
 10
4.386360
 20
6.168360
  0
VERTEX
  8
0
  6
CONTINUOUS
 10
4.364360
 20
6.012160
  0
VERTEX
  8
0
  6
CONTINUOUS
 10
3.718000
 20
5.635960
  0
VERTEX
  8
0
  6
CONTINUOUS
 10
3.739560
 20
5.792600
  0
SEQEND
  8
0
  0
SOLID
  8
0
 62
    15
 10
3.718000
 20
5.635960
 11
4.364360
 21
6.012160
 12
3.716240
 22
5.492520
 13
4.363040
 23
5.868280
  0
POLYLINE
  8
0
  6
CONTINUOUS
 66
     1
 40
0.000000
 41
0.000000
  0
VERTEX
  8
0
  6
CONTINUOUS
 10
3.718000
 20
5.635960
  0
VERTEX
  8
0
  6
CONTINUOUS
 10
4.364360
 20
6.012160
  0
VERTEX
  8
0
  6
CONTINUOUS
 10
4.363040
 20
5.868280
  0
VERTEX
  8
0
  6
CONTINUOUS
 10
3.716240
 20
5.492520
  0
VERTEX
  8
0
  6
CONTINUOUS
 10
3.718000
 20
5.635960
  0
SEQEND
  8
0
  0
SOLID
  8
0
 62
    15
 10
3.716240
 20
5.492520
 11
4.363040
 21
5.868280
 12
3.733840
 22
5.360520
 13
4.380200
 23
5.736280
  0
POLYLINE
  8
0
  6
CONTINUOUS
 66
     1
 40
0.000000
 41
0.000000
  0
VERTEX
  8
0
  6
CONTINUOUS
 10
3.716240
 20
5.492520
  0
VERTEX
  8
0
  6
CONTINUOUS
 10
4.363040
 20
5.868280
  0
VERTEX
  8
0
  6
CONTINUOUS
 10
4.380200
 20
5.736280
  0
VERTEX
  8
0
  6
CONTINUOUS
 10
3.733840
 20
5.360520
  0
VERTEX
  8
0
  6
CONTINUOUS
 10
3.716240
 20
5.492520
  0
SEQEND
  8
0
  0
SOLID
  8
0
 62
    15
 10
3.733840
 20
5.360520
 11
4.380200
 21
5.736280
 12
3.768600
 22
5.239080
 13
4.414960
 23
5.615280
  0
POLYLINE
  8
0
  6
CONTINUOUS
 66
     1
 40
0.000000
 41
0.000000
  0
VERTEX
  8
0
  6
CONTINUOUS
 10
3.733840
 20
5.360520
  0
VERTEX
  8
0
  6
CONTINUOUS
 10
4.380200
 20
5.736280
  0
VERTEX
  8
0
  6
CONTINUOUS
 10
4.414960
 20
5.615280
  0
VERTEX
  8
0
  6
CONTINUOUS
 10
3.768600
 20
5.239080
  0
VERTEX
  8
0
  6
CONTINUOUS
 10
3.733840
 20
5.360520
  0
SEQEND
  8
0
  0
SOLID
  8
0
 62
    15
 10
3.768600
 20
5.239080
 11
4.414960
 21
5.615280
 12
3.820080
 22
5.127320
 13
4.466440
 23
5.503520
  0
POLYLINE
  8
0
  6
CONTINUOUS
 66
     1
 40
0.000000
 41
0.000000
  0
VERTEX
  8
0
  6
CONTINUOUS
 10
3.768600
 20
5.239080
  0
VERTEX
  8
0
  6
CONTINUOUS
 10
4.414960
 20
5.615280
  0
VERTEX
  8
0
  6
CONTINUOUS
 10
4.466440
 20
5.503520
  0
VERTEX
  8
0
  6
CONTINUOUS
 10
3.820080
 20
5.127320
  0
VERTEX
  8
0
  6
CONTINUOUS
 10
3.768600
 20
5.239080
  0
SEQEND
  8
0
  0
SOLID
  8
0
 62
    15
 10
3.820080
 20
5.127320
 11
4.466440
 21
5.503520
 12
3.886080
 22
5.024360
 13
4.532880
 23
5.400560
  0
POLYLINE
  8
0
  6
CONTINUOUS
 66
     1
 40
0.000000
 41
0.000000
  0
VERTEX
  8
0
  6
CONTINUOUS
 10
3.820080
 20
5.127320
  0
VERTEX
  8
0
  6
CONTINUOUS
 10
4.466440
 20
5.503520
  0
VERTEX
  8
0
  6
CONTINUOUS
 10
4.532880
 20
5.400560
  0
VERTEX
  8
0
  6
CONTINUOUS
 10
3.886080
 20
5.024360
  0
VERTEX
  8
0
  6
CONTINUOUS
 10
3.820080
 20
5.127320
  0
SEQEND
  8
0
  0
SOLID
  8
0
 62
    15
 10
3.886080
 20
5.024360
 11
4.532880
 21
5.400560
 12
3.966600
 22
4.928880
 13
4.612960
 23
5.304640
  0
POLYLINE
  8
0
  6
CONTINUOUS
 66
     1
 40
0.000000
 41
0.000000
  0
VERTEX
  8
0
  6
CONTINUOUS
 10
3.886080
 20
5.024360
  0
VERTEX
  8
0
  6
CONTINUOUS
 10
4.532880
 20
5.400560
  0
VERTEX
  8
0
  6
CONTINUOUS
 10
4.612960
 20
5.304640
  0
VERTEX
  8
0
  6
CONTINUOUS
 10
3.966600
 20
4.928880
  0
VERTEX
  8
0
  6
CONTINUOUS
 10
3.886080
 20
5.024360
  0
SEQEND
  8
0
  0
SOLID
  8
0
 62
    15
 10
3.966600
 20
4.928880
 11
4.612960
 21
5.304640
 12
4.059440
 22
4.839560
 13
4.705800
 23
5.215760
  0
POLYLINE
  8
0
  6
CONTINUOUS
 66
     1
 40
0.000000
 41
0.000000
  0
VERTEX
  8
0
  6
CONTINUOUS
 10
3.966600
 20
4.928880
  0
VERTEX
  8
0
  6
CONTINUOUS
 10
4.612960
 20
5.304640
  0
VERTEX
  8
0
  6
CONTINUOUS
 10
4.705800
 20
5.215760
  0
VERTEX
  8
0
  6
CONTINUOUS
 10
4.059440
 20
4.839560
  0
VERTEX
  8
0
  6
CONTINUOUS
 10
3.966600
 20
4.928880
  0
SEQEND
  8
0
  0
SOLID
  8
0
 62
    15
 10
4.059440
 20
4.839560
 11
4.705800
 21
5.215760
 12
4.163720
 22
4.755960
 13
4.810080
 23
5.131720
  0
POLYLINE
  8
0
  6
CONTINUOUS
 66
     1
 40
0.000000
 41
0.000000
  0
VERTEX
  8
0
  6
CONTINUOUS
 10
4.059440
 20
4.839560
  0
VERTEX
  8
0
  6
CONTINUOUS
 10
4.705800
 20
5.215760
  0
VERTEX
  8
0
  6
CONTINUOUS
 10
4.810080
 20
5.131720
  0
VERTEX
  8
0
  6
CONTINUOUS
 10
4.163720
 20
4.755960
  0
VERTEX
  8
0
  6
CONTINUOUS
 10
4.059440
 20
4.839560
  0
SEQEND
  8
0
  0
SOLID
  8
0
 62
    15
 10
4.163720
 20
4.755960
 11
4.810080
 21
5.131720
 12
4.400880
 22
4.600200
 13
5.047240
 23
4.976400
  0
POLYLINE
  8
0
  6
CONTINUOUS
 66
     1
 40
0.000000
 41
0.000000
  0
VERTEX
  8
0
  6
CONTINUOUS
 10
4.163720
 20
4.755960
  0
VERTEX
  8
0
  6
CONTINUOUS
 10
4.810080
 20
5.131720
  0
VERTEX
  8
0
  6
CONTINUOUS
 10
5.047240
 20
4.976400
  0
VERTEX
  8
0
  6
CONTINUOUS
 10
4.400880
 20
4.600200
  0
VERTEX
  8
0
  6
CONTINUOUS
 10
4.163720
 20
4.755960
  0
SEQEND
  8
0
  0
SOLID
  8
0
 62
    15
 10
4.400880
 20
4.600200
 11
5.047240
 21
4.976400
 12
4.668400
 22
4.453240
 13
5.314760
 23
4.829440
  0
POLYLINE
  8
0
  6
CONTINUOUS
 66
     1
 40
0.000000
 41
0.000000
  0
VERTEX
  8
0
  6
CONTINUOUS
 10
4.400880
 20
4.600200
  0
VERTEX
  8
0
  6
CONTINUOUS
 10
5.047240
 20
4.976400
  0
VERTEX
  8
0
  6
CONTINUOUS
 10
5.314760
 20
4.829440
  0
VERTEX
  8
0
  6
CONTINUOUS
 10
4.668400
 20
4.453240
  0
VERTEX
  8
0
  6
CONTINUOUS
 10
4.400880
 20
4.600200
  0
SEQEND
  8
0
  0
SOLID
  8
0
 62
    15
 10
4.668400
 20
4.453240
 11
5.314760
 21
4.829440
 12
4.955720
 22
4.306720
 13
5.602520
 23
4.682920
  0
POLYLINE
  8
0
  6
CONTINUOUS
 66
     1
 40
0.000000
 41
0.000000
  0
VERTEX
  8
0
  6
CONTINUOUS
 10
4.668400
 20
4.453240
  0
VERTEX
  8
0
  6
CONTINUOUS
 10
5.314760
 20
4.829440
  0
VERTEX
  8
0
  6
CONTINUOUS
 10
5.602520
 20
4.682920
  0
VERTEX
  8
0
  6
CONTINUOUS
 10
4.955720
 20
4.306720
  0
VERTEX
  8
0
  6
CONTINUOUS
 10
4.668400
 20
4.453240
  0
SEQEND
  8
0
  0
SOLID
  8
0
 62
    15
 10
3.322000
 20
5.962880
 11
3.968360
 21
6.339080
 12
3.783120
 22
5.962880
 13
4.429480
 23
6.339080
  0
POLYLINE
  8
0
  6
CONTINUOUS
 66
     1
 40
0.000000
 41
0.000000
  0
VERTEX
  8
0
  6
CONTINUOUS
 10
3.322000
 20
5.962880
  0
VERTEX
  8
0
  6
CONTINUOUS
 10
3.968360
 20
6.339080
  0
VERTEX
  8
0
  6
CONTINUOUS
 10
4.429480
 20
6.339080
  0
VERTEX
  8
0
  6
CONTINUOUS
 10
3.783120
 20
5.962880
  0
VERTEX
  8
0
  6
CONTINUOUS
 10
3.322000
 20
5.962880
  0
SEQEND
  8
0
  0
SOLID
  8
0
 62
    15
 10
5.093440
 20
4.220480
 11
5.739800
 21
4.596680
 12
5.210480
 22
4.113120
 13
5.857280
 23
4.489320
  0
POLYLINE
  8
0
  6
CONTINUOUS
 66
     1
 40
0.000000
 41
0.000000
  0
VERTEX
  8
0
  6
CONTINUOUS
 10
5.093440
 20
4.220480
  0
VERTEX
  8
0
  6
CONTINUOUS
 10
5.739800
 20
4.596680
  0
VERTEX
  8
0
  6
CONTINUOUS
 10
5.857280
 20
4.489320
  0
VERTEX
  8
0
  6
CONTINUOUS
 10
5.210480
 20
4.113120
  0
VERTEX
  8
0
  6
CONTINUOUS
 10
5.093440
 20
4.220480
  0
SEQEND
  8
0
  0
SOLID
  8
0
 62
    15
 10
5.210480
 20
4.113120
 11
5.857280
 21
4.489320
 12
5.305080
 22
3.988600
 13
5.951880
 23
4.364800
  0
POLYLINE
  8
0
  6
CONTINUOUS
 66
     1
 40
0.000000
 41
0.000000
  0
VERTEX
  8
0
  6
CONTINUOUS
 10
5.210480
 20
4.113120
  0
VERTEX
  8
0
  6
CONTINUOUS
 10
5.857280
 20
4.489320
  0
VERTEX
  8
0
  6
CONTINUOUS
 10
5.951880
 20
4.364800
  0
VERTEX
  8
0
  6
CONTINUOUS
 10
5.305080
 20
3.988600
  0
VERTEX
  8
0
  6
CONTINUOUS
 10
5.210480
 20
4.113120
  0
SEQEND
  8
0
  0
SOLID
  8
0
 62
    15
 10
5.305080
 20
3.988600
 11
5.951880
 21
4.364800
 12
5.375040
 22
3.850440
 13
6.021400
 23
4.226640
  0
POLYLINE
  8
0
  6
CONTINUOUS
 66
     1
 40
0.000000
 41
0.000000
  0
VERTEX
  8
0
  6
CONTINUOUS
 10
5.305080
 20
3.988600
  0
VERTEX
  8
0
  6
CONTINUOUS
 10
5.951880
 20
4.364800
  0
VERTEX
  8
0
  6
CONTINUOUS
 10
6.021400
 20
4.226640
  0
VERTEX
  8
0
  6
CONTINUOUS
 10
5.375040
 20
3.850440
  0
VERTEX
  8
0
  6
CONTINUOUS
 10
5.305080
 20
3.988600
  0
SEQEND
  8
0
  0
SOLID
  8
0
 62
    15
 10
5.375040
 20
3.850440
 11
6.021400
 21
4.226640
 12
5.417720
 22
3.702600
 13
6.064520
 23
4.078360
  0
POLYLINE
  8
0
  6
CONTINUOUS
 66
     1
 40
0.000000
 41
0.000000
  0
VERTEX
  8
0
  6
CONTINUOUS
 10
5.375040
 20
3.850440
  0
VERTEX
  8
0
  6
CONTINUOUS
 10
6.021400
 20
4.226640
  0
VERTEX
  8
0
  6
CONTINUOUS
 10
6.064520
 20
4.078360
  0
VERTEX
  8
0
  6
CONTINUOUS
 10
5.417720
 20
3.702600
  0
VERTEX
  8
0
  6
CONTINUOUS
 10
5.375040
 20
3.850440
  0
SEQEND
  8
0
  0
SOLID
  8
0
 62
    15
 10
5.417720
 20
3.702600
 11
6.064520
 21
4.078360
 12
5.431800
 22
3.548160
 13
6.078160
 23
3.923920
  0
POLYLINE
  8
0
  6
CONTINUOUS
 66
     1
 40
0.000000
 41
0.000000
  0
VERTEX
  8
0
  6
CONTINUOUS
 10
5.417720
 20
3.702600
  0
VERTEX
  8
0
  6
CONTINUOUS
 10
6.064520
 20
4.078360
  0
VERTEX
  8
0
  6
CONTINUOUS
 10
6.078160
 20
3.923920
  0
VERTEX
  8
0
  6
CONTINUOUS
 10
5.431800
 20
3.548160
  0
VERTEX
  8
0
  6
CONTINUOUS
 10
5.417720
 20
3.702600
  0
SEQEND
  8
0
  0
SOLID
  8
0
 62
    15
 10
5.431800
 20
3.548160
 11
6.078160
 21
3.923920
 12
5.414200
 22
3.391080
 13
6.061000
 23
3.766840
  0
POLYLINE
  8
0
  6
CONTINUOUS
 66
     1
 40
0.000000
 41
0.000000
  0
VERTEX
  8
0
  6
CONTINUOUS
 10
5.431800
 20
3.548160
  0
VERTEX
  8
0
  6
CONTINUOUS
 10
6.078160
 20
3.923920
  0
VERTEX
  8
0
  6
CONTINUOUS
 10
6.061000
 20
3.766840
  0
VERTEX
  8
0
  6
CONTINUOUS
 10
5.414200
 20
3.391080
  0
VERTEX
  8
0
  6
CONTINUOUS
 10
5.431800
 20
3.548160
  0
SEQEND
  8
0
  0
SOLID
  8
0
 62
    15
 10
5.414200
 20
3.391080
 11
6.061000
 21
3.766840
 12
5.363600
 22
3.234880
 13
6.010400
 23
3.610640
  0
POLYLINE
  8
0
  6
CONTINUOUS
 66
     1
 40
0.000000
 41
0.000000
  0
VERTEX
  8
0
  6
CONTINUOUS
 10
5.414200
 20
3.391080
  0
VERTEX
  8
0
  6
CONTINUOUS
 10
6.061000
 20
3.766840
  0
VERTEX
  8
0
  6
CONTINUOUS
 10
6.010400
 20
3.610640
  0
VERTEX
  8
0
  6
CONTINUOUS
 10
5.363600
 20
3.234880
  0
VERTEX
  8
0
  6
CONTINUOUS
 10
5.414200
 20
3.391080
  0
SEQEND
  8
0
  0
SOLID
  8
0
 62
    15
 10
5.363600
 20
3.234880
 11
6.010400
 21
3.610640
 12
5.277360
 22
3.083520
 13
5.923720
 23
3.459720
  0
POLYLINE
  8
0
  6
CONTINUOUS
 66
     1
 40
0.000000
 41
0.000000
  0
VERTEX
  8
0
  6
CONTINUOUS
 10
5.363600
 20
3.234880
  0
VERTEX
  8
0
  6
CONTINUOUS
 10
6.010400
 20
3.610640
  0
VERTEX
  8
0
  6
CONTINUOUS
 10
5.923720
 20
3.459720
  0
VERTEX
  8
0
  6
CONTINUOUS
 10
5.277360
 20
3.083520
  0
VERTEX
  8
0
  6
CONTINUOUS
 10
5.363600
 20
3.234880
  0
SEQEND
  8
0
  0
SOLID
  8
0
 62
    15
 10
5.277360
 20
3.083520
 11
5.923720
 21
3.459720
 12
5.220160
 22
3.010920
 13
5.866960
 23
3.386680
  0
POLYLINE
  8
0
  6
CONTINUOUS
 66
     1
 40
0.000000
 41
0.000000
  0
VERTEX
  8
0
  6
CONTINUOUS
 10
5.277360
 20
3.083520
  0
VERTEX
  8
0
  6
CONTINUOUS
 10
5.923720
 20
3.459720
  0
VERTEX
  8
0
  6
CONTINUOUS
 10
5.866960
 20
3.386680
  0
VERTEX
  8
0
  6
CONTINUOUS
 10
5.220160
 20
3.010920
  0
VERTEX
  8
0
  6
CONTINUOUS
 10
5.277360
 20
3.083520
  0
SEQEND
  8
0
  0
SOLID
  8
0
 62
    15
 10
5.153720
 20
2.940520
 11
5.800080
 21
3.316720
 12
5.076720
 22
2.873640
 13
5.723080
 23
3.249400
  0
POLYLINE
  8
0
  6
CONTINUOUS
 66
     1
 40
0.000000
 41
0.000000
  0
VERTEX
  8
0
  6
CONTINUOUS
 10
5.153720
 20
2.940520
  0
VERTEX
  8
0
  6
CONTINUOUS
 10
5.800080
 20
3.316720
  0
VERTEX
  8
0
  6
CONTINUOUS
 10
5.723080
 20
3.249400
  0
VERTEX
  8
0
  6
CONTINUOUS
 10
5.076720
 20
2.873640
  0
VERTEX
  8
0
  6
CONTINUOUS
 10
5.153720
 20
2.940520
  0
SEQEND
  8
0
  0
SOLID
  8
0
 62
    15
 10
5.220160
 20
3.010920
 11
5.866960
 21
3.386680
 12
5.153720
 22
2.940520
 13
5.800080
 23
3.316720
  0
POLYLINE
  8
0
  6
CONTINUOUS
 66
     1
 40
0.000000
 41
0.000000
  0
VERTEX
  8
0
  6
CONTINUOUS
 10
5.220160
 20
3.010920
  0
VERTEX
  8
0
  6
CONTINUOUS
 10
5.866960
 20
3.386680
  0
VERTEX
  8
0
  6
CONTINUOUS
 10
5.800080
 20
3.316720
  0
VERTEX
  8
0
  6
CONTINUOUS
 10
5.153720
 20
2.940520
  0
VERTEX
  8
0
  6
CONTINUOUS
 10
5.220160
 20
3.010920
  0
SEQEND
  8
0
  0
SOLID
  8
0
 62
    15
 10
5.076720
 20
2.873640
 11
5.723080
 21
3.249400
 12
4.990040
 22
2.809840
 13
5.636400
 23
3.185600
  0
POLYLINE
  8
0
  6
CONTINUOUS
 66
     1
 40
0.000000
 41
0.000000
  0
VERTEX
  8
0
  6
CONTINUOUS
 10
5.076720
 20
2.873640
  0
VERTEX
  8
0
  6
CONTINUOUS
 10
5.723080
 20
3.249400
  0
VERTEX
  8
0
  6
CONTINUOUS
 10
5.636400
 20
3.185600
  0
VERTEX
  8
0
  6
CONTINUOUS
 10
4.990040
 20
2.809840
  0
VERTEX
  8
0
  6
CONTINUOUS
 10
5.076720
 20
2.873640
  0
SEQEND
  8
0
  0
SOLID
  8
0
 62
    15
 10
4.990040
 20
2.809840
 11
5.636400
 21
3.185600
 12
4.892360
 22
2.750000
 13
5.538720
 23
3.126200
  0
POLYLINE
  8
0
  6
CONTINUOUS
 66
     1
 40
0.000000
 41
0.000000
  0
VERTEX
  8
0
  6
CONTINUOUS
 10
4.990040
 20
2.809840
  0
VERTEX
  8
0
  6
CONTINUOUS
 10
5.636400
 20
3.185600
  0
VERTEX
  8
0
  6
CONTINUOUS
 10
5.538720
 20
3.126200
  0
VERTEX
  8
0
  6
CONTINUOUS
 10
4.892360
 20
2.750000
  0
VERTEX
  8
0
  6
CONTINUOUS
 10
4.990040
 20
2.809840
  0
SEQEND
  8
0
  0
SOLID
  8
0
 62
    15
 10
3.498880
 20
2.464440
 11
4.145240
 21
2.840640
 12
3.498880
 22
2.463120
 13
4.145240
 23
2.838880
  0
POLYLINE
  8
0
  6
CONTINUOUS
 66
     1
 40
0.000000
 41
0.000000
  0
VERTEX
  8
0
  6
CONTINUOUS
 10
3.498880
 20
2.464440
  0
VERTEX
  8
0
  6
CONTINUOUS
 10
4.145240
 20
2.840640
  0
VERTEX
  8
0
  6
CONTINUOUS
 10
4.145240
 20
2.838880
  0
VERTEX
  8
0
  6
CONTINUOUS
 10
3.498880
 20
2.463120
  0
VERTEX
  8
0
  6
CONTINUOUS
 10
3.498880
 20
2.464440
  0
SEQEND
  8
0
  0
POLYLINE
  8
0
  6
CONTINUOUS
 66
     1
 40
0.000000
 41
0.000000
  0
VERTEX
  8
0
  6
CONTINUOUS
 10
3.498880
 20
2.463120
  0
VERTEX
  8
0
  6
CONTINUOUS
 10
3.322000
 20
2.463120
  0
VERTEX
  8
0
  6
CONTINUOUS
 10
3.322000
 20
5.962880
  0
VERTEX
  8
0
  6
CONTINUOUS
 10
3.783120
 20
5.962880
  0
VERTEX
  8
0
  6
CONTINUOUS
 10
3.739560
 20
5.792600
  0
VERTEX
  8
0
  6
CONTINUOUS
 10
3.718000
 20
5.635960
  0
VERTEX
  8
0
  6
CONTINUOUS
 10
3.716240
 20
5.492520
  0
VERTEX
  8
0
  6
CONTINUOUS
 10
3.733840
 20
5.360520
  0
VERTEX
  8
0
  6
CONTINUOUS
 10
3.768600
 20
5.239080
  0
VERTEX
  8
0
  6
CONTINUOUS
 10
3.820080
 20
5.127320
  0
VERTEX
  8
0
  6
CONTINUOUS
 10
3.886080
 20
5.024360
  0
VERTEX
  8
0
  6
CONTINUOUS
 10
3.966600
 20
4.928880
  0
VERTEX
  8
0
  6
CONTINUOUS
 10
4.059440
 20
4.839560
  0
VERTEX
  8
0
  6
CONTINUOUS
 10
4.163720
 20
4.755960
  0
VERTEX
  8
0
  6
CONTINUOUS
 10
4.400880
 20
4.600200
  0
VERTEX
  8
0
  6
CONTINUOUS
 10
4.668400
 20
4.453240
  0
VERTEX
  8
0
  6
CONTINUOUS
 10
4.955720
 20
4.306720
  0
VERTEX
  8
0
  6
CONTINUOUS
 10
5.093440
 20
4.220480
  0
VERTEX
  8
0
  6
CONTINUOUS
 10
5.210480
 20
4.113120
  0
VERTEX
  8
0
  6
CONTINUOUS
 10
5.305080
 20
3.988600
  0
VERTEX
  8
0
  6
CONTINUOUS
 10
5.375040
 20
3.850440
  0
VERTEX
  8
0
  6
CONTINUOUS
 10
5.417720
 20
3.702600
  0
VERTEX
  8
0
  6
CONTINUOUS
 10
5.431800
 20
3.548160
  0
VERTEX
  8
0
  6
CONTINUOUS
 10
5.414200
 20
3.391080
  0
VERTEX
  8
0
  6
CONTINUOUS
 10
5.363600
 20
3.234880
  0
VERTEX
  8
0
  6
CONTINUOUS
 10
5.277360
 20
3.083520
  0
VERTEX
  8
0
  6
CONTINUOUS
 10
5.220160
 20
3.010920
  0
VERTEX
  8
0
  6
CONTINUOUS
 10
5.153720
 20
2.940520
  0
VERTEX
  8
0
  6
CONTINUOUS
 10
5.076720
 20
2.873640
  0
VERTEX
  8
0
  6
CONTINUOUS
 10
4.990040
 20
2.809840
  0
VERTEX
  8
0
  6
CONTINUOUS
 10
4.892360
 20
2.750000
  0
VERTEX
  8
0
  6
CONTINUOUS
 10
4.784120
 20
2.694560
  0
VERTEX
  8
0
  6
CONTINUOUS
 10
4.664880
 20
2.643960
  0
VERTEX
  8
0
  6
CONTINUOUS
 10
4.534200
 20
2.599080
  0
VERTEX
  8
0
  6
CONTINUOUS
 10
4.392080
 20
2.559480
  0
VERTEX
  8
0
  6
CONTINUOUS
 10
4.238080
 20
2.526040
  0
VERTEX
  8
0
  6
CONTINUOUS
 10
4.072200
 20
2.499640
  0
VERTEX
  8
0
  6
CONTINUOUS
 10
3.893560
 20
2.480280
  0
VERTEX
  8
0
  6
CONTINUOUS
 10
3.702600
 20
2.468400
  0
VERTEX
  8
0
  6
CONTINUOUS
 10
3.498880
 20
2.464440
  0
VERTEX
  8
0
  6
CONTINUOUS
 10
3.498880
 20
2.463120
  0
SEQEND
  8
0
  0
TEXT
  8
0
 10
4.357760
 20
2.158640
 40
0.138113
  1
BA  1299
 41
1.000000
  7
SN0
 71
     0
 72
     5
 11
5.040094
 21
2.158640
  0
TEXT
  8
0
 10
4.174280
 20
1.967240
 40
0.138113
  1
2-1/8" x 3-1/2"
 41
1.000000
  7
SN0
 71
     0
 72
     5
 11
5.221963
 21
1.967240
  0
TEXT
  8
0
 10
4.193640
 20
7.119200
 40
0.138113
  1
BA  1299
 41
1.000000
  7
SN0
 71
     0
 72
     5
 11
4.875974
 21
7.119200
  0
TEXT
  8
0
 10
4.010160
 20
6.927800
 40
0.138113
  1
2-1/8" x 3-1/2"
 41
1.000000
  7
SN0
 71
     0
 72
     5
 11
5.057843
 21
6.927800
  0
ENDSEC
  0
EOF
