  0
SECTION
  2
HEADER
  9
$ACADVER
  1
AC1006
  9
$EXTMIN
 10
2.661560
 20
1.001880
  9
$EXTMAX
 10
6.248000
 20
9.845880
  9
$LTSCALE
 40
0.044000
  9
$PDMODE
 70
    35
  9
$PDSIZE
 40
0.035200
  0
ENDSEC
  0
SECTION
  2
TABLES
  0
TABLE
  2
LTYPE
 70
     9
  0
LTYPE
  2
CONTINUOUS
 70
    64
  3
Solid line
 72
    65
 73
     0
 40
0.000000
  0
LTYPE
  2
DASHED
 70
    64
  3
__ __ __ __ __ __ __ __ __ __ __ __ __ __ __
 72
    65
 73
     2
 40
0.000330
 49
0.000220
 49
-0.000110
  0
LTYPE
  2
HIDDEN
 70
    64
  3
 _ _ _ _ _ _ _ _ _ _ _ _ _ _ _ _ _ _ _ _ _ _
 72
    65
 73
     2
 40
0.000165
 49
0.000110
 49
-0.000055
  0
LTYPE
  2
CENTER
 70
    64
  3
____ _ ____ _ ____ _ ____ _ ____ _ ____ _ ____
 72
    65
 73
     4
 40
0.000880
 49
0.000550
 49
-0.000110
 49
0.000110
 49
-0.000110
  0
LTYPE
  2
PHANTOM
 70
    64
  3
_____ _ _ _____ _ _ _____ _ _ _____ _ _ ____
 72
    65
 73
     6
 40
0.001100
 49
0.000550
 49
-0.000110
 49
0.000110
 49
-0.000110
 49
0.000110
 49
-0.000110
  0
LTYPE
  2
DOT
 70
    64
  3
...............................................
 72
    65
 73
     2
 40
0.000110
 49
0.000000
 49
-0.000110
  0
LTYPE
  2
DASHDOT
 70
    64
  3
__ . __ . __ . __ . __ . __ . __ . __ . __ . __
 72
    65
 73
     4
 40
0.000440
 49
0.000220
 49
-0.000110
 49
0.000000
 49
-0.000110
  0
LTYPE
  2
BORDER
 70
    64
  3
__ __ . __ __ . __ __ . __ __ . __ __ . __ __
 72
    65
 73
     6
 40
0.000770
 49
0.000220
 49
-0.000110
 49
0.000220
 49
-0.000110
 49
0.000000
 49
-0.000110
  0
LTYPE
  2
DIVIDE
 70
    64
  3
__ . . __ . . __ . . __ . . __ . . __ . . __
 72
    65
 73
     6
 40
0.000550
 49
0.000220
 49
-0.000110
 49
0.000000
 49
-0.000110
 49
0.000000
 49
-0.000110
  0
LTYPE
  2
DOTDOT
 70
    64
  3
 . .  . .  . .  . .  . .  . . 
 72
    65
 73
     5
 40
0.000242
 49
-0.000110
 49
0.000000
 49
-0.000110
 49
0.000000
 49
-0.000110
  0
ENDTAB
  0
TABLE
  2
STYLE
 70
     2
  0
STYLE
 70
     0
  2
SN0
 40
0.000000
 41
0.000440
 50
0.000000
 71
     0
 42
0.000000
  3
ROMAND
  0
STYLE
 70
    68
  2
SV0
 40
0.000000
 41
0.000440
 50
0.000000
 71
     0
 42
0.000000
  3
ROMAND
  0
ENDTAB
  0
TABLE
  2
LAYER
 70
     3
  0
LAYER
  2
FOREGROUND
 70
    64
 62
     7
  6
CONTINUOUS
  0
LAYER
  2
BACKGROUND
 70
    65
 62
    -7
  6
CONTINUOUS
  0
LAYER
  2
0
 70
    64
 62
     7
  6
CONTINUOUS
  0
ENDTAB
  0
ENDSEC
  0
SECTION
  2
ENTITIES
  0
POLYLINE
  8
FOREGROUND
  6
CONTINUOUS
 66
     1
 40
0.000000
 41
0.000000
  0
VERTEX
  8
FOREGROUND
  6
CONTINUOUS
 10
0.000000
 20
10.847760
  0
VERTEX
  8
FOREGROUND
  6
CONTINUOUS
 10
8.499920
 20
10.847760
  0
VERTEX
  8
FOREGROUND
  6
CONTINUOUS
 10
8.499920
 20
-0.152240
  0
VERTEX
  8
FOREGROUND
  6
CONTINUOUS
 10
0.000000
 20
-0.152240
  0
VERTEX
  8
FOREGROUND
  6
CONTINUOUS
 10
0.000000
 20
10.847760
  0
SEQEND
  8
0
  0
POLYLINE
  8
FOREGROUND
  6
CONTINUOUS
 66
     1
 40
0.000000
 41
0.000000
  0
VERTEX
  8
FOREGROUND
  6
CONTINUOUS
 10
0.000000
 20
10.847760
  0
VERTEX
  8
FOREGROUND
  6
CONTINUOUS
 10
8.499920
 20
10.847760
  0
VERTEX
  8
FOREGROUND
  6
CONTINUOUS
 10
8.499920
 20
-0.152240
  0
VERTEX
  8
FOREGROUND
  6
CONTINUOUS
 10
0.000000
 20
-0.152240
  0
VERTEX
  8
FOREGROUND
  6
CONTINUOUS
 10
0.000000
 20
10.847760
  0
SEQEND
  8
0
  0
POLYLINE
  8
0
  6
CONTINUOUS
 66
     1
 40
0.000000
 41
0.000000
  0
VERTEX
  8
0
  6
CONTINUOUS
 10
6.161760
 20
3.109480
  0
VERTEX
  8
0
  6
CONTINUOUS
 10
2.662000
 20
3.109480
  0
VERTEX
  8
0
  6
CONTINUOUS
 10
2.662000
 20
4.220480
  0
VERTEX
  8
0
  6
CONTINUOUS
 10
2.691480
 20
4.297920
  0
VERTEX
  8
0
  6
CONTINUOUS
 10
2.724920
 20
4.370080
  0
VERTEX
  8
0
  6
CONTINUOUS
 10
2.762320
 20
4.436960
  0
VERTEX
  8
0
  6
CONTINUOUS
 10
2.803680
 20
4.498560
  0
VERTEX
  8
0
  6
CONTINUOUS
 10
2.825240
 20
4.527600
  0
VERTEX
  8
0
  6
CONTINUOUS
 10
2.871440
 20
4.581720
  0
VERTEX
  8
0
  6
CONTINUOUS
 10
2.920720
 20
4.631000
  0
VERTEX
  8
0
  6
CONTINUOUS
 10
2.973080
 20
4.675000
  0
VERTEX
  8
0
  6
CONTINUOUS
 10
3.028080
 20
4.714160
  0
VERTEX
  8
0
  6
CONTINUOUS
 10
3.056240
 20
4.732200
  0
VERTEX
  8
0
  6
CONTINUOUS
 10
3.114760
 20
4.763880
  0
VERTEX
  8
0
  6
CONTINUOUS
 10
3.175480
 20
4.791160
  0
VERTEX
  8
0
  6
CONTINUOUS
 10
3.238400
 20
4.813160
  0
VERTEX
  8
0
  6
CONTINUOUS
 10
3.302640
 20
4.830320
  0
VERTEX
  8
0
  6
CONTINUOUS
 10
3.368200
 20
4.843080
  0
VERTEX
  8
0
  6
CONTINUOUS
 10
3.435520
 20
4.851000
  0
VERTEX
  8
0
  6
CONTINUOUS
 10
3.503720
 20
4.854080
  0
VERTEX
  8
0
  6
CONTINUOUS
 10
3.538480
 20
4.854080
  0
VERTEX
  8
0
  6
CONTINUOUS
 10
3.607560
 20
4.850560
  0
VERTEX
  8
0
  6
CONTINUOUS
 10
3.677960
 20
4.842200
  0
VERTEX
  8
0
  6
CONTINUOUS
 10
3.748360
 20
4.829440
  0
VERTEX
  8
0
  6
CONTINUOUS
 10
3.818760
 20
4.811840
  0
VERTEX
  8
0
  6
CONTINUOUS
 10
3.889160
 20
4.790280
  0
VERTEX
  8
0
  6
CONTINUOUS
 10
3.959120
 20
4.763880
  0
VERTEX
  8
0
  6
CONTINUOUS
 10
4.028640
 20
4.733080
  0
VERTEX
  8
0
  6
CONTINUOUS
 10
4.097280
 20
4.698320
  0
VERTEX
  8
0
  6
CONTINUOUS
 10
4.165040
 20
4.658720
  0
VERTEX
  8
0
  6
CONTINUOUS
 10
4.231920
 20
4.615160
  0
VERTEX
  8
0
  6
CONTINUOUS
 10
4.297040
 20
4.567200
  0
VERTEX
  8
0
  6
CONTINUOUS
 10
4.360840
 20
4.515280
  0
VERTEX
  8
0
  6
CONTINUOUS
 10
4.422880
 20
4.458960
  0
VERTEX
  8
0
  6
CONTINUOUS
 10
4.482720
 20
4.398240
  0
VERTEX
  8
0
  6
CONTINUOUS
 10
4.540360
 20
4.334000
  0
VERTEX
  8
0
  6
CONTINUOUS
 10
4.601960
 20
4.258760
  0
VERTEX
  8
0
  6
CONTINUOUS
 10
4.670600
 20
4.181320
  0
VERTEX
  8
0
  6
CONTINUOUS
 10
4.739680
 20
4.110920
  0
VERTEX
  8
0
  6
CONTINUOUS
 10
4.774000
 20
4.077920
  0
VERTEX
  8
0
  6
CONTINUOUS
 10
4.843080
 20
4.017200
  0
VERTEX
  8
0
  6
CONTINUOUS
 10
4.912600
 20
3.963080
  0
VERTEX
  8
0
  6
CONTINUOUS
 10
4.981240
 20
3.914240
  0
VERTEX
  8
0
  6
CONTINUOUS
 10
5.049880
 20
3.871560
  0
VERTEX
  8
0
  6
CONTINUOUS
 10
5.118080
 20
3.834160
  0
VERTEX
  8
0
  6
CONTINUOUS
 10
5.185400
 20
3.801600
  0
VERTEX
  8
0
  6
CONTINUOUS
 10
5.251840
 20
3.774320
  0
VERTEX
  8
0
  6
CONTINUOUS
 10
5.317400
 20
3.751440
  0
VERTEX
  8
0
  6
CONTINUOUS
 10
5.382080
 20
3.732520
  0
VERTEX
  8
0
  6
CONTINUOUS
 10
5.445000
 20
3.718000
  0
VERTEX
  8
0
  6
CONTINUOUS
 10
5.506160
 20
3.707440
  0
VERTEX
  8
0
  6
CONTINUOUS
 10
5.566000
 20
3.700400
  0
VERTEX
  8
0
  6
CONTINUOUS
 10
5.624080
 20
3.696440
  0
VERTEX
  8
0
  6
CONTINUOUS
 10
5.679960
 20
3.695560
  0
VERTEX
  8
0
  6
CONTINUOUS
 10
5.733640
 20
3.697320
  0
VERTEX
  8
0
  6
CONTINUOUS
 10
5.809760
 20
3.704360
  0
VERTEX
  8
0
  6
CONTINUOUS
 10
5.879720
 20
3.716240
  0
VERTEX
  8
0
  6
CONTINUOUS
 10
5.943520
 20
3.732080
  0
VERTEX
  8
0
  6
CONTINUOUS
 10
6.000280
 20
3.750120
  0
VERTEX
  8
0
  6
CONTINUOUS
 10
6.064080
 20
3.777400
  0
VERTEX
  8
0
  6
CONTINUOUS
 10
6.113360
 20
3.806000
  0
VERTEX
  8
0
  6
CONTINUOUS
 10
6.139760
 20
3.827120
  0
VERTEX
  8
0
  6
CONTINUOUS
 10
6.156480
 20
3.846480
  0
VERTEX
  8
0
  6
CONTINUOUS
 10
6.161760
 20
3.858360
  0
VERTEX
  8
0
  6
CONTINUOUS
 10
6.161760
 20
3.108160
  0
VERTEX
  8
0
  6
CONTINUOUS
 10
6.161760
 20
3.109480
  0
SEQEND
  8
0
  0
SOLID
  8
0
 62
    15
 10
4.535080
 20
8.136480
 11
5.155920
 21
7.763360
 12
4.647720
 22
8.012840
 13
5.268560
 23
7.639280
  0
POLYLINE
  8
0
  6
CONTINUOUS
 66
     1
 40
0.000000
 41
0.000000
  0
VERTEX
  8
0
  6
CONTINUOUS
 10
4.535080
 20
8.136480
  0
VERTEX
  8
0
  6
CONTINUOUS
 10
5.155920
 20
7.763360
  0
VERTEX
  8
0
  6
CONTINUOUS
 10
5.268560
 20
7.639280
  0
VERTEX
  8
0
  6
CONTINUOUS
 10
4.647720
 20
8.012840
  0
VERTEX
  8
0
  6
CONTINUOUS
 10
4.535080
 20
8.136480
  0
SEQEND
  8
0
  0
SOLID
  8
0
 62
    15
 10
3.940200
 20
9.829600
 11
4.560600
 21
9.456480
 12
3.912480
 22
9.796600
 13
4.532880
 23
9.423480
  0
POLYLINE
  8
0
  6
CONTINUOUS
 66
     1
 40
0.000000
 41
0.000000
  0
VERTEX
  8
0
  6
CONTINUOUS
 10
3.940200
 20
9.829600
  0
VERTEX
  8
0
  6
CONTINUOUS
 10
4.560600
 20
9.456480
  0
VERTEX
  8
0
  6
CONTINUOUS
 10
4.532880
 20
9.423480
  0
VERTEX
  8
0
  6
CONTINUOUS
 10
3.912480
 20
9.796600
  0
VERTEX
  8
0
  6
CONTINUOUS
 10
3.940200
 20
9.829600
  0
SEQEND
  8
0
  0
SOLID
  8
0
 62
    15
 10
3.912480
 20
9.796600
 11
4.532880
 21
9.423480
 12
3.883880
 22
9.747760
 13
4.504280
 23
9.374640
  0
POLYLINE
  8
0
  6
CONTINUOUS
 66
     1
 40
0.000000
 41
0.000000
  0
VERTEX
  8
0
  6
CONTINUOUS
 10
3.912480
 20
9.796600
  0
VERTEX
  8
0
  6
CONTINUOUS
 10
4.532880
 20
9.423480
  0
VERTEX
  8
0
  6
CONTINUOUS
 10
4.504280
 20
9.374640
  0
VERTEX
  8
0
  6
CONTINUOUS
 10
3.883880
 20
9.747760
  0
VERTEX
  8
0
  6
CONTINUOUS
 10
3.912480
 20
9.796600
  0
SEQEND
  8
0
  0
SOLID
  8
0
 62
    15
 10
3.883880
 20
9.747760
 11
4.504280
 21
9.374640
 12
3.856600
 22
9.683520
 13
4.477000
 23
9.310400
  0
POLYLINE
  8
0
  6
CONTINUOUS
 66
     1
 40
0.000000
 41
0.000000
  0
VERTEX
  8
0
  6
CONTINUOUS
 10
3.883880
 20
9.747760
  0
VERTEX
  8
0
  6
CONTINUOUS
 10
4.504280
 20
9.374640
  0
VERTEX
  8
0
  6
CONTINUOUS
 10
4.477000
 20
9.310400
  0
VERTEX
  8
0
  6
CONTINUOUS
 10
3.856600
 20
9.683520
  0
VERTEX
  8
0
  6
CONTINUOUS
 10
3.883880
 20
9.747760
  0
SEQEND
  8
0
  0
SOLID
  8
0
 62
    15
 10
3.856600
 20
9.683520
 11
4.477000
 21
9.310400
 12
3.832400
 22
9.606520
 13
4.453240
 23
9.233400
  0
POLYLINE
  8
0
  6
CONTINUOUS
 66
     1
 40
0.000000
 41
0.000000
  0
VERTEX
  8
0
  6
CONTINUOUS
 10
3.856600
 20
9.683520
  0
VERTEX
  8
0
  6
CONTINUOUS
 10
4.477000
 20
9.310400
  0
VERTEX
  8
0
  6
CONTINUOUS
 10
4.453240
 20
9.233400
  0
VERTEX
  8
0
  6
CONTINUOUS
 10
3.832400
 20
9.606520
  0
VERTEX
  8
0
  6
CONTINUOUS
 10
3.856600
 20
9.683520
  0
SEQEND
  8
0
  0
SOLID
  8
0
 62
    15
 10
3.832400
 20
9.606520
 11
4.453240
 21
9.233400
 12
3.813920
 22
9.517200
 13
4.434760
 23
9.144080
  0
POLYLINE
  8
0
  6
CONTINUOUS
 66
     1
 40
0.000000
 41
0.000000
  0
VERTEX
  8
0
  6
CONTINUOUS
 10
3.832400
 20
9.606520
  0
VERTEX
  8
0
  6
CONTINUOUS
 10
4.453240
 20
9.233400
  0
VERTEX
  8
0
  6
CONTINUOUS
 10
4.434760
 20
9.144080
  0
VERTEX
  8
0
  6
CONTINUOUS
 10
3.813920
 20
9.517200
  0
VERTEX
  8
0
  6
CONTINUOUS
 10
3.832400
 20
9.606520
  0
SEQEND
  8
0
  0
SOLID
  8
0
 62
    15
 10
3.215960
 20
9.845000
 11
3.836360
 21
9.471880
 12
3.214200
 22
9.845000
 13
3.835040
 23
9.471880
  0
POLYLINE
  8
0
  6
CONTINUOUS
 66
     1
 40
0.000000
 41
0.000000
  0
VERTEX
  8
0
  6
CONTINUOUS
 10
3.215960
 20
9.845000
  0
VERTEX
  8
0
  6
CONTINUOUS
 10
3.836360
 20
9.471880
  0
VERTEX
  8
0
  6
CONTINUOUS
 10
3.835040
 20
9.471880
  0
VERTEX
  8
0
  6
CONTINUOUS
 10
3.214200
 20
9.845000
  0
VERTEX
  8
0
  6
CONTINUOUS
 10
3.215960
 20
9.845000
  0
SEQEND
  8
0
  0
SOLID
  8
0
 62
    15
 10
3.803360
 20
9.416880
 11
4.424200
 21
9.043760
 12
3.802480
 22
9.307320
 13
4.423320
 23
8.934200
  0
POLYLINE
  8
0
  6
CONTINUOUS
 66
     1
 40
0.000000
 41
0.000000
  0
VERTEX
  8
0
  6
CONTINUOUS
 10
3.803360
 20
9.416880
  0
VERTEX
  8
0
  6
CONTINUOUS
 10
4.424200
 20
9.043760
  0
VERTEX
  8
0
  6
CONTINUOUS
 10
4.423320
 20
8.934200
  0
VERTEX
  8
0
  6
CONTINUOUS
 10
3.802480
 20
9.307320
  0
VERTEX
  8
0
  6
CONTINUOUS
 10
3.803360
 20
9.416880
  0
SEQEND
  8
0
  0
SOLID
  8
0
 62
    15
 10
3.802480
 20
9.307320
 11
4.423320
 21
8.934200
 12
3.813480
 22
9.189840
 13
4.434320
 23
8.816720
  0
POLYLINE
  8
0
  6
CONTINUOUS
 66
     1
 40
0.000000
 41
0.000000
  0
VERTEX
  8
0
  6
CONTINUOUS
 10
3.802480
 20
9.307320
  0
VERTEX
  8
0
  6
CONTINUOUS
 10
4.423320
 20
8.934200
  0
VERTEX
  8
0
  6
CONTINUOUS
 10
4.434320
 20
8.816720
  0
VERTEX
  8
0
  6
CONTINUOUS
 10
3.813480
 20
9.189840
  0
VERTEX
  8
0
  6
CONTINUOUS
 10
3.802480
 20
9.307320
  0
SEQEND
  8
0
  0
SOLID
  8
0
 62
    15
 10
3.813480
 20
9.189840
 11
4.434320
 21
8.816720
 12
3.839000
 22
9.065320
 13
4.459400
 23
8.692200
  0
POLYLINE
  8
0
  6
CONTINUOUS
 66
     1
 40
0.000000
 41
0.000000
  0
VERTEX
  8
0
  6
CONTINUOUS
 10
3.813480
 20
9.189840
  0
VERTEX
  8
0
  6
CONTINUOUS
 10
4.434320
 20
8.816720
  0
VERTEX
  8
0
  6
CONTINUOUS
 10
4.459400
 20
8.692200
  0
VERTEX
  8
0
  6
CONTINUOUS
 10
3.839000
 20
9.065320
  0
VERTEX
  8
0
  6
CONTINUOUS
 10
3.813480
 20
9.189840
  0
SEQEND
  8
0
  0
SOLID
  8
0
 62
    15
 10
3.839000
 20
9.065320
 11
4.459400
 21
8.692200
 12
3.880360
 22
8.935520
 13
4.500760
 23
8.562400
  0
POLYLINE
  8
0
  6
CONTINUOUS
 66
     1
 40
0.000000
 41
0.000000
  0
VERTEX
  8
0
  6
CONTINUOUS
 10
3.839000
 20
9.065320
  0
VERTEX
  8
0
  6
CONTINUOUS
 10
4.459400
 20
8.692200
  0
VERTEX
  8
0
  6
CONTINUOUS
 10
4.500760
 20
8.562400
  0
VERTEX
  8
0
  6
CONTINUOUS
 10
3.880360
 20
8.935520
  0
VERTEX
  8
0
  6
CONTINUOUS
 10
3.839000
 20
9.065320
  0
SEQEND
  8
0
  0
SOLID
  8
0
 62
    15
 10
3.880360
 20
8.935520
 11
4.500760
 21
8.562400
 12
3.940200
 22
8.801320
 13
4.560600
 23
8.428200
  0
POLYLINE
  8
0
  6
CONTINUOUS
 66
     1
 40
0.000000
 41
0.000000
  0
VERTEX
  8
0
  6
CONTINUOUS
 10
3.880360
 20
8.935520
  0
VERTEX
  8
0
  6
CONTINUOUS
 10
4.500760
 20
8.562400
  0
VERTEX
  8
0
  6
CONTINUOUS
 10
4.560600
 20
8.428200
  0
VERTEX
  8
0
  6
CONTINUOUS
 10
3.940200
 20
8.801320
  0
VERTEX
  8
0
  6
CONTINUOUS
 10
3.880360
 20
8.935520
  0
SEQEND
  8
0
  0
SOLID
  8
0
 62
    15
 10
3.940200
 20
8.801320
 11
4.560600
 21
8.428200
 12
4.020280
 22
8.664920
 13
4.641120
 23
8.291360
  0
POLYLINE
  8
0
  6
CONTINUOUS
 66
     1
 40
0.000000
 41
0.000000
  0
VERTEX
  8
0
  6
CONTINUOUS
 10
3.940200
 20
8.801320
  0
VERTEX
  8
0
  6
CONTINUOUS
 10
4.560600
 20
8.428200
  0
VERTEX
  8
0
  6
CONTINUOUS
 10
4.641120
 20
8.291360
  0
VERTEX
  8
0
  6
CONTINUOUS
 10
4.020280
 20
8.664920
  0
VERTEX
  8
0
  6
CONTINUOUS
 10
3.940200
 20
8.801320
  0
SEQEND
  8
0
  0
SOLID
  8
0
 62
    15
 10
4.020280
 20
8.664920
 11
4.641120
 21
8.291360
 12
4.123680
 22
8.526760
 13
4.744080
 23
8.153640
  0
POLYLINE
  8
0
  6
CONTINUOUS
 66
     1
 40
0.000000
 41
0.000000
  0
VERTEX
  8
0
  6
CONTINUOUS
 10
4.020280
 20
8.664920
  0
VERTEX
  8
0
  6
CONTINUOUS
 10
4.641120
 20
8.291360
  0
VERTEX
  8
0
  6
CONTINUOUS
 10
4.744080
 20
8.153640
  0
VERTEX
  8
0
  6
CONTINUOUS
 10
4.123680
 20
8.526760
  0
VERTEX
  8
0
  6
CONTINUOUS
 10
4.020280
 20
8.664920
  0
SEQEND
  8
0
  0
SOLID
  8
0
 62
    15
 10
4.123680
 20
8.526760
 11
4.744080
 21
8.153640
 12
4.251280
 22
8.388600
 13
4.872120
 23
8.015480
  0
POLYLINE
  8
0
  6
CONTINUOUS
 66
     1
 40
0.000000
 41
0.000000
  0
VERTEX
  8
0
  6
CONTINUOUS
 10
4.123680
 20
8.526760
  0
VERTEX
  8
0
  6
CONTINUOUS
 10
4.744080
 20
8.153640
  0
VERTEX
  8
0
  6
CONTINUOUS
 10
4.872120
 20
8.015480
  0
VERTEX
  8
0
  6
CONTINUOUS
 10
4.251280
 20
8.388600
  0
VERTEX
  8
0
  6
CONTINUOUS
 10
4.123680
 20
8.526760
  0
SEQEND
  8
0
  0
SOLID
  8
0
 62
    15
 10
4.251280
 20
8.388600
 11
4.872120
 21
8.015480
 12
4.406160
 22
8.251320
 13
5.027000
 23
7.878200
  0
POLYLINE
  8
0
  6
CONTINUOUS
 66
     1
 40
0.000000
 41
0.000000
  0
VERTEX
  8
0
  6
CONTINUOUS
 10
4.251280
 20
8.388600
  0
VERTEX
  8
0
  6
CONTINUOUS
 10
4.872120
 20
8.015480
  0
VERTEX
  8
0
  6
CONTINUOUS
 10
5.027000
 20
7.878200
  0
VERTEX
  8
0
  6
CONTINUOUS
 10
4.406160
 20
8.251320
  0
VERTEX
  8
0
  6
CONTINUOUS
 10
4.251280
 20
8.388600
  0
SEQEND
  8
0
  0
SOLID
  8
0
 62
    15
 10
4.406160
 20
8.251320
 11
5.027000
 21
7.878200
 12
4.535080
 22
8.136480
 13
5.155920
 23
7.763360
  0
POLYLINE
  8
0
  6
CONTINUOUS
 66
     1
 40
0.000000
 41
0.000000
  0
VERTEX
  8
0
  6
CONTINUOUS
 10
4.406160
 20
8.251320
  0
VERTEX
  8
0
  6
CONTINUOUS
 10
5.027000
 20
7.878200
  0
VERTEX
  8
0
  6
CONTINUOUS
 10
5.155920
 20
7.763360
  0
VERTEX
  8
0
  6
CONTINUOUS
 10
4.535080
 20
8.136480
  0
VERTEX
  8
0
  6
CONTINUOUS
 10
4.406160
 20
8.251320
  0
SEQEND
  8
0
  0
SOLID
  8
0
 62
    15
 10
3.964840
 20
9.845000
 11
4.585240
 21
9.471880
 12
3.940200
 22
9.829600
 13
4.560600
 23
9.456480
  0
POLYLINE
  8
0
  6
CONTINUOUS
 66
     1
 40
0.000000
 41
0.000000
  0
VERTEX
  8
0
  6
CONTINUOUS
 10
3.964840
 20
9.845000
  0
VERTEX
  8
0
  6
CONTINUOUS
 10
4.585240
 20
9.471880
  0
VERTEX
  8
0
  6
CONTINUOUS
 10
4.560600
 20
9.456480
  0
VERTEX
  8
0
  6
CONTINUOUS
 10
3.940200
 20
9.829600
  0
VERTEX
  8
0
  6
CONTINUOUS
 10
3.964840
 20
9.845000
  0
SEQEND
  8
0
  0
SOLID
  8
0
 62
    15
 10
4.647720
 20
8.012840
 11
5.268560
 21
7.639280
 12
4.743640
 22
7.882160
 13
5.364480
 23
7.509040
  0
POLYLINE
  8
0
  6
CONTINUOUS
 66
     1
 40
0.000000
 41
0.000000
  0
VERTEX
  8
0
  6
CONTINUOUS
 10
4.647720
 20
8.012840
  0
VERTEX
  8
0
  6
CONTINUOUS
 10
5.268560
 20
7.639280
  0
VERTEX
  8
0
  6
CONTINUOUS
 10
5.364480
 20
7.509040
  0
VERTEX
  8
0
  6
CONTINUOUS
 10
4.743640
 20
7.882160
  0
VERTEX
  8
0
  6
CONTINUOUS
 10
4.647720
 20
8.012840
  0
SEQEND
  8
0
  0
SOLID
  8
0
 62
    15
 10
4.743640
 20
7.882160
 11
5.364480
 21
7.509040
 12
4.822400
 22
7.746640
 13
5.443240
 23
7.373520
  0
POLYLINE
  8
0
  6
CONTINUOUS
 66
     1
 40
0.000000
 41
0.000000
  0
VERTEX
  8
0
  6
CONTINUOUS
 10
4.743640
 20
7.882160
  0
VERTEX
  8
0
  6
CONTINUOUS
 10
5.364480
 20
7.509040
  0
VERTEX
  8
0
  6
CONTINUOUS
 10
5.443240
 20
7.373520
  0
VERTEX
  8
0
  6
CONTINUOUS
 10
4.822400
 20
7.746640
  0
VERTEX
  8
0
  6
CONTINUOUS
 10
4.743640
 20
7.882160
  0
SEQEND
  8
0
  0
SOLID
  8
0
 62
    15
 10
4.822400
 20
7.746640
 11
5.443240
 21
7.373520
 12
4.883560
 22
7.607600
 13
5.504400
 23
7.234480
  0
POLYLINE
  8
0
  6
CONTINUOUS
 66
     1
 40
0.000000
 41
0.000000
  0
VERTEX
  8
0
  6
CONTINUOUS
 10
4.822400
 20
7.746640
  0
VERTEX
  8
0
  6
CONTINUOUS
 10
5.443240
 20
7.373520
  0
VERTEX
  8
0
  6
CONTINUOUS
 10
5.504400
 20
7.234480
  0
VERTEX
  8
0
  6
CONTINUOUS
 10
4.883560
 20
7.607600
  0
VERTEX
  8
0
  6
CONTINUOUS
 10
4.822400
 20
7.746640
  0
SEQEND
  8
0
  0
SOLID
  8
0
 62
    15
 10
4.883560
 20
7.607600
 11
5.504400
 21
7.234480
 12
4.927560
 22
7.466800
 13
5.547960
 23
7.093680
  0
POLYLINE
  8
0
  6
CONTINUOUS
 66
     1
 40
0.000000
 41
0.000000
  0
VERTEX
  8
0
  6
CONTINUOUS
 10
4.883560
 20
7.607600
  0
VERTEX
  8
0
  6
CONTINUOUS
 10
5.504400
 20
7.234480
  0
VERTEX
  8
0
  6
CONTINUOUS
 10
5.547960
 20
7.093680
  0
VERTEX
  8
0
  6
CONTINUOUS
 10
4.927560
 20
7.466800
  0
VERTEX
  8
0
  6
CONTINUOUS
 10
4.883560
 20
7.607600
  0
SEQEND
  8
0
  0
SOLID
  8
0
 62
    15
 10
4.927560
 20
7.466800
 11
5.547960
 21
7.093680
 12
4.953080
 22
7.326000
 13
5.573920
 23
6.952880
  0
POLYLINE
  8
0
  6
CONTINUOUS
 66
     1
 40
0.000000
 41
0.000000
  0
VERTEX
  8
0
  6
CONTINUOUS
 10
4.927560
 20
7.466800
  0
VERTEX
  8
0
  6
CONTINUOUS
 10
5.547960
 20
7.093680
  0
VERTEX
  8
0
  6
CONTINUOUS
 10
5.573920
 20
6.952880
  0
VERTEX
  8
0
  6
CONTINUOUS
 10
4.953080
 20
7.326000
  0
VERTEX
  8
0
  6
CONTINUOUS
 10
4.927560
 20
7.466800
  0
SEQEND
  8
0
  0
SOLID
  8
0
 62
    15
 10
4.953080
 20
7.326000
 11
5.573920
 21
6.952880
 12
4.960560
 22
7.186960
 13
5.581400
 23
6.813840
  0
POLYLINE
  8
0
  6
CONTINUOUS
 66
     1
 40
0.000000
 41
0.000000
  0
VERTEX
  8
0
  6
CONTINUOUS
 10
4.953080
 20
7.326000
  0
VERTEX
  8
0
  6
CONTINUOUS
 10
5.573920
 20
6.952880
  0
VERTEX
  8
0
  6
CONTINUOUS
 10
5.581400
 20
6.813840
  0
VERTEX
  8
0
  6
CONTINUOUS
 10
4.960560
 20
7.186960
  0
VERTEX
  8
0
  6
CONTINUOUS
 10
4.953080
 20
7.326000
  0
SEQEND
  8
0
  0
SOLID
  8
0
 62
    15
 10
4.960560
 20
7.186960
 11
5.581400
 21
6.813840
 12
4.949560
 22
7.051880
 13
5.569960
 23
6.678760
  0
POLYLINE
  8
0
  6
CONTINUOUS
 66
     1
 40
0.000000
 41
0.000000
  0
VERTEX
  8
0
  6
CONTINUOUS
 10
4.960560
 20
7.186960
  0
VERTEX
  8
0
  6
CONTINUOUS
 10
5.581400
 20
6.813840
  0
VERTEX
  8
0
  6
CONTINUOUS
 10
5.569960
 20
6.678760
  0
VERTEX
  8
0
  6
CONTINUOUS
 10
4.949560
 20
7.051880
  0
VERTEX
  8
0
  6
CONTINUOUS
 10
4.960560
 20
7.186960
  0
SEQEND
  8
0
  0
SOLID
  8
0
 62
    15
 10
4.949560
 20
7.051880
 11
5.569960
 21
6.678760
 12
4.919200
 22
6.921640
 13
5.540040
 23
6.548520
  0
POLYLINE
  8
0
  6
CONTINUOUS
 66
     1
 40
0.000000
 41
0.000000
  0
VERTEX
  8
0
  6
CONTINUOUS
 10
4.949560
 20
7.051880
  0
VERTEX
  8
0
  6
CONTINUOUS
 10
5.569960
 20
6.678760
  0
VERTEX
  8
0
  6
CONTINUOUS
 10
5.540040
 20
6.548520
  0
VERTEX
  8
0
  6
CONTINUOUS
 10
4.919200
 20
6.921640
  0
VERTEX
  8
0
  6
CONTINUOUS
 10
4.949560
 20
7.051880
  0
SEQEND
  8
0
  0
SOLID
  8
0
 62
    15
 10
4.919200
 20
6.921640
 11
5.540040
 21
6.548520
 12
4.870360
 22
6.798440
 13
5.490760
 23
6.424880
  0
POLYLINE
  8
0
  6
CONTINUOUS
 66
     1
 40
0.000000
 41
0.000000
  0
VERTEX
  8
0
  6
CONTINUOUS
 10
4.919200
 20
6.921640
  0
VERTEX
  8
0
  6
CONTINUOUS
 10
5.540040
 20
6.548520
  0
VERTEX
  8
0
  6
CONTINUOUS
 10
5.490760
 20
6.424880
  0
VERTEX
  8
0
  6
CONTINUOUS
 10
4.870360
 20
6.798440
  0
VERTEX
  8
0
  6
CONTINUOUS
 10
4.919200
 20
6.921640
  0
SEQEND
  8
0
  0
SOLID
  8
0
 62
    15
 10
4.870360
 20
6.798440
 11
5.490760
 21
6.424880
 12
4.801720
 22
6.683600
 13
5.422120
 23
6.310480
  0
POLYLINE
  8
0
  6
CONTINUOUS
 66
     1
 40
0.000000
 41
0.000000
  0
VERTEX
  8
0
  6
CONTINUOUS
 10
4.870360
 20
6.798440
  0
VERTEX
  8
0
  6
CONTINUOUS
 10
5.490760
 20
6.424880
  0
VERTEX
  8
0
  6
CONTINUOUS
 10
5.422120
 20
6.310480
  0
VERTEX
  8
0
  6
CONTINUOUS
 10
4.801720
 20
6.683600
  0
VERTEX
  8
0
  6
CONTINUOUS
 10
4.870360
 20
6.798440
  0
SEQEND
  8
0
  0
SOLID
  8
0
 62
    15
 10
4.801720
 20
6.683600
 11
5.422120
 21
6.310480
 12
4.713280
 22
6.579320
 13
5.334120
 23
6.206200
  0
POLYLINE
  8
0
  6
CONTINUOUS
 66
     1
 40
0.000000
 41
0.000000
  0
VERTEX
  8
0
  6
CONTINUOUS
 10
4.801720
 20
6.683600
  0
VERTEX
  8
0
  6
CONTINUOUS
 10
5.422120
 20
6.310480
  0
VERTEX
  8
0
  6
CONTINUOUS
 10
5.334120
 20
6.206200
  0
VERTEX
  8
0
  6
CONTINUOUS
 10
4.713280
 20
6.579320
  0
VERTEX
  8
0
  6
CONTINUOUS
 10
4.801720
 20
6.683600
  0
SEQEND
  8
0
  0
SOLID
  8
0
 62
    15
 10
4.713280
 20
6.579320
 11
5.334120
 21
6.206200
 12
4.605040
 22
6.486920
 13
5.225440
 23
6.113800
  0
POLYLINE
  8
0
  6
CONTINUOUS
 66
     1
 40
0.000000
 41
0.000000
  0
VERTEX
  8
0
  6
CONTINUOUS
 10
4.713280
 20
6.579320
  0
VERTEX
  8
0
  6
CONTINUOUS
 10
5.334120
 20
6.206200
  0
VERTEX
  8
0
  6
CONTINUOUS
 10
5.225440
 20
6.113800
  0
VERTEX
  8
0
  6
CONTINUOUS
 10
4.605040
 20
6.486920
  0
VERTEX
  8
0
  6
CONTINUOUS
 10
4.713280
 20
6.579320
  0
SEQEND
  8
0
  0
SOLID
  8
0
 62
    15
 10
4.605040
 20
6.486920
 11
5.225440
 21
6.113800
 12
4.476120
 22
6.408160
 13
5.096520
 23
6.035040
  0
POLYLINE
  8
0
  6
CONTINUOUS
 66
     1
 40
0.000000
 41
0.000000
  0
VERTEX
  8
0
  6
CONTINUOUS
 10
4.605040
 20
6.486920
  0
VERTEX
  8
0
  6
CONTINUOUS
 10
5.225440
 20
6.113800
  0
VERTEX
  8
0
  6
CONTINUOUS
 10
5.096520
 20
6.035040
  0
VERTEX
  8
0
  6
CONTINUOUS
 10
4.476120
 20
6.408160
  0
VERTEX
  8
0
  6
CONTINUOUS
 10
4.605040
 20
6.486920
  0
SEQEND
  8
0
  0
SOLID
  8
0
 62
    15
 10
4.476120
 20
6.408160
 11
5.096520
 21
6.035040
 12
4.326520
 22
6.345240
 13
4.947360
 23
5.972120
  0
POLYLINE
  8
0
  6
CONTINUOUS
 66
     1
 40
0.000000
 41
0.000000
  0
VERTEX
  8
0
  6
CONTINUOUS
 10
4.476120
 20
6.408160
  0
VERTEX
  8
0
  6
CONTINUOUS
 10
5.096520
 20
6.035040
  0
VERTEX
  8
0
  6
CONTINUOUS
 10
4.947360
 20
5.972120
  0
VERTEX
  8
0
  6
CONTINUOUS
 10
4.326520
 20
6.345240
  0
VERTEX
  8
0
  6
CONTINUOUS
 10
4.476120
 20
6.408160
  0
SEQEND
  8
0
  0
SOLID
  8
0
 62
    15
 10
4.326520
 20
6.345240
 11
4.947360
 21
5.972120
 12
3.215960
 22
6.345240
 13
3.836360
 23
5.972120
  0
POLYLINE
  8
0
  6
CONTINUOUS
 66
     1
 40
0.000000
 41
0.000000
  0
VERTEX
  8
0
  6
CONTINUOUS
 10
4.326520
 20
6.345240
  0
VERTEX
  8
0
  6
CONTINUOUS
 10
4.947360
 20
5.972120
  0
VERTEX
  8
0
  6
CONTINUOUS
 10
3.836360
 20
5.972120
  0
VERTEX
  8
0
  6
CONTINUOUS
 10
3.215960
 20
6.345240
  0
VERTEX
  8
0
  6
CONTINUOUS
 10
4.326520
 20
6.345240
  0
SEQEND
  8
0
  0
SOLID
  8
0
 62
    15
 10
3.813920
 20
9.517200
 11
4.434760
 21
9.144080
 12
3.803360
 22
9.416880
 13
4.424200
 23
9.043760
  0
POLYLINE
  8
0
  6
CONTINUOUS
 66
     1
 40
0.000000
 41
0.000000
  0
VERTEX
  8
0
  6
CONTINUOUS
 10
3.813920
 20
9.517200
  0
VERTEX
  8
0
  6
CONTINUOUS
 10
4.434760
 20
9.144080
  0
VERTEX
  8
0
  6
CONTINUOUS
 10
4.424200
 20
9.043760
  0
VERTEX
  8
0
  6
CONTINUOUS
 10
3.803360
 20
9.416880
  0
VERTEX
  8
0
  6
CONTINUOUS
 10
3.813920
 20
9.517200
  0
SEQEND
  8
0
  0
POLYLINE
  8
0
  6
CONTINUOUS
 66
     1
 40
0.000000
 41
0.000000
  0
VERTEX
  8
0
  6
CONTINUOUS
 10
3.214200
 20
9.845000
  0
VERTEX
  8
0
  6
CONTINUOUS
 10
3.964840
 20
9.845000
  0
VERTEX
  8
0
  6
CONTINUOUS
 10
3.940200
 20
9.829600
  0
VERTEX
  8
0
  6
CONTINUOUS
 10
3.912480
 20
9.796600
  0
VERTEX
  8
0
  6
CONTINUOUS
 10
3.883880
 20
9.747760
  0
VERTEX
  8
0
  6
CONTINUOUS
 10
3.856600
 20
9.683520
  0
VERTEX
  8
0
  6
CONTINUOUS
 10
3.832400
 20
9.606520
  0
VERTEX
  8
0
  6
CONTINUOUS
 10
3.813920
 20
9.517200
  0
VERTEX
  8
0
  6
CONTINUOUS
 10
3.803360
 20
9.416880
  0
VERTEX
  8
0
  6
CONTINUOUS
 10
3.802480
 20
9.307320
  0
VERTEX
  8
0
  6
CONTINUOUS
 10
3.813480
 20
9.189840
  0
VERTEX
  8
0
  6
CONTINUOUS
 10
3.839000
 20
9.065320
  0
VERTEX
  8
0
  6
CONTINUOUS
 10
3.880360
 20
8.935520
  0
VERTEX
  8
0
  6
CONTINUOUS
 10
3.940200
 20
8.801320
  0
VERTEX
  8
0
  6
CONTINUOUS
 10
4.020280
 20
8.664920
  0
VERTEX
  8
0
  6
CONTINUOUS
 10
4.123680
 20
8.526760
  0
VERTEX
  8
0
  6
CONTINUOUS
 10
4.251280
 20
8.388600
  0
VERTEX
  8
0
  6
CONTINUOUS
 10
4.406160
 20
8.251320
  0
VERTEX
  8
0
  6
CONTINUOUS
 10
4.535080
 20
8.136480
  0
VERTEX
  8
0
  6
CONTINUOUS
 10
4.647720
 20
8.012840
  0
VERTEX
  8
0
  6
CONTINUOUS
 10
4.743640
 20
7.882160
  0
VERTEX
  8
0
  6
CONTINUOUS
 10
4.822400
 20
7.746640
  0
VERTEX
  8
0
  6
CONTINUOUS
 10
4.883560
 20
7.607600
  0
VERTEX
  8
0
  6
CONTINUOUS
 10
4.927560
 20
7.466800
  0
VERTEX
  8
0
  6
CONTINUOUS
 10
4.953080
 20
7.326000
  0
VERTEX
  8
0
  6
CONTINUOUS
 10
4.960560
 20
7.186960
  0
VERTEX
  8
0
  6
CONTINUOUS
 10
4.949560
 20
7.051880
  0
VERTEX
  8
0
  6
CONTINUOUS
 10
4.919200
 20
6.921640
  0
VERTEX
  8
0
  6
CONTINUOUS
 10
4.870360
 20
6.798440
  0
VERTEX
  8
0
  6
CONTINUOUS
 10
4.801720
 20
6.683600
  0
VERTEX
  8
0
  6
CONTINUOUS
 10
4.713280
 20
6.579320
  0
VERTEX
  8
0
  6
CONTINUOUS
 10
4.605040
 20
6.486920
  0
VERTEX
  8
0
  6
CONTINUOUS
 10
4.476120
 20
6.408160
  0
VERTEX
  8
0
  6
CONTINUOUS
 10
4.326520
 20
6.345240
  0
VERTEX
  8
0
  6
CONTINUOUS
 10
3.215960
 20
6.345240
  0
VERTEX
  8
0
  6
CONTINUOUS
 10
3.215960
 20
9.845000
  0
VERTEX
  8
0
  6
CONTINUOUS
 10
3.214200
 20
9.845000
  0
SEQEND
  8
0
  0
TEXT
  8
0
 10
4.056800
 20
5.619680
 40
0.137824
  1
BA  1298
 41
1.000000
  7
SN0
 71
     0
 72
     5
 11
4.740441
 21
5.619680
  0
TEXT
  8
0
 10
3.873320
 20
5.428280
 40
0.137824
  1
1-3/4" x 3-1/2"
 41
1.000000
  7
SN0
 71
     0
 72
     5
 11
4.923103
 21
5.428280
  0
TEXT
  8
0
 10
3.890040
 20
3.406480
 40
0.137824
  1
BA  1298
 41
1.000000
  7
SN0
 71
     0
 72
     5
 11
4.573681
 21
3.406480
  0
TEXT
  8
0
 10
3.706560
 20
3.214640
 40
0.137824
  1
1-3/4" x 3-1/2"
 41
1.000000
  7
SN0
 71
     0
 72
     5
 11
4.756343
 21
3.214640
  0
POLYLINE
  8
0
  6
CONTINUOUS
 66
     1
 40
0.000000
 41
0.000000
  0
VERTEX
  8
0
  6
CONTINUOUS
 10
2.748240
 20
1.003640
  0
VERTEX
  8
0
  6
CONTINUOUS
 10
6.248000
 20
1.003640
  0
VERTEX
  8
0
  6
CONTINUOUS
 10
6.248000
 20
2.114640
  0
VERTEX
  8
0
  6
CONTINUOUS
 10
6.218520
 20
2.192080
  0
VERTEX
  8
0
  6
CONTINUOUS
 10
6.185080
 20
2.264240
  0
VERTEX
  8
0
  6
CONTINUOUS
 10
6.147680
 20
2.331120
  0
VERTEX
  8
0
  6
CONTINUOUS
 10
6.106320
 20
2.392720
  0
VERTEX
  8
0
  6
CONTINUOUS
 10
6.061880
 20
2.449480
  0
VERTEX
  8
0
  6
CONTINUOUS
 10
6.014360
 20
2.500960
  0
VERTEX
  8
0
  6
CONTINUOUS
 10
5.963320
 20
2.548040
  0
VERTEX
  8
0
  6
CONTINUOUS
 10
5.909640
 20
2.589400
  0
VERTEX
  8
0
  6
CONTINUOUS
 10
5.853760
 20
2.626360
  0
VERTEX
  8
0
  6
CONTINUOUS
 10
5.795240
 20
2.658040
  0
VERTEX
  8
0
  6
CONTINUOUS
 10
5.734520
 20
2.685320
  0
VERTEX
  8
0
  6
CONTINUOUS
 10
5.672040
 20
2.707320
  0
VERTEX
  8
0
  6
CONTINUOUS
 10
5.607360
 20
2.724480
  0
VERTEX
  8
0
  6
CONTINUOUS
 10
5.541800
 20
2.737240
  0
VERTEX
  8
0
  6
CONTINUOUS
 10
5.474480
 20
2.745160
  0
VERTEX
  8
0
  6
CONTINUOUS
 10
5.406280
 20
2.748240
  0
VERTEX
  8
0
  6
CONTINUOUS
 10
5.371520
 20
2.748240
  0
VERTEX
  8
0
  6
CONTINUOUS
 10
5.302440
 20
2.744720
  0
VERTEX
  8
0
  6
CONTINUOUS
 10
5.232040
 20
2.736360
  0
VERTEX
  8
0
  6
CONTINUOUS
 10
5.161640
 20
2.723160
  0
VERTEX
  8
0
  6
CONTINUOUS
 10
5.091240
 20
2.706000
  0
VERTEX
  8
0
  6
CONTINUOUS
 10
5.020840
 20
2.684000
  0
VERTEX
  8
0
  6
CONTINUOUS
 10
4.950880
 20
2.658040
  0
VERTEX
  8
0
  6
CONTINUOUS
 10
4.881360
 20
2.627240
  0
VERTEX
  8
0
  6
CONTINUOUS
 10
4.778400
 20
2.573120
  0
VERTEX
  8
0
  6
CONTINUOUS
 10
4.711080
 20
2.531320
  0
VERTEX
  8
0
  6
CONTINUOUS
 10
4.645080
 20
2.485560
  0
VERTEX
  8
0
  6
CONTINUOUS
 10
4.580840
 20
2.435400
  0
VERTEX
  8
0
  6
CONTINUOUS
 10
4.517920
 20
2.381280
  0
VERTEX
  8
0
  6
CONTINUOUS
 10
4.457200
 20
2.322760
  0
VERTEX
  8
0
  6
CONTINUOUS
 10
4.398240
 20
2.260280
  0
VERTEX
  8
0
  6
CONTINUOUS
 10
4.273720
 20
2.112880
  0
VERTEX
  8
0
  6
CONTINUOUS
 10
4.205080
 20
2.038960
  0
VERTEX
  8
0
  6
CONTINUOUS
 10
4.136000
 20
1.972080
  0
VERTEX
  8
0
  6
CONTINUOUS
 10
4.066920
 20
1.911360
  0
VERTEX
  8
0
  6
CONTINUOUS
 10
3.997400
 20
1.856800
  0
VERTEX
  8
0
  6
CONTINUOUS
 10
3.928760
 20
1.808400
  0
VERTEX
  8
0
  6
CONTINUOUS
 10
3.860120
 20
1.765280
  0
VERTEX
  8
0
  6
CONTINUOUS
 10
3.791920
 20
1.727880
  0
VERTEX
  8
0
  6
CONTINUOUS
 10
3.724600
 20
1.695760
  0
VERTEX
  8
0
  6
CONTINUOUS
 10
3.658160
 20
1.668040
  0
VERTEX
  8
0
  6
CONTINUOUS
 10
3.592600
 20
1.645160
  0
VERTEX
  8
0
  6
CONTINUOUS
 10
3.496680
 20
1.618760
  0
VERTEX
  8
0
  6
CONTINUOUS
 10
3.403840
 20
1.601600
  0
VERTEX
  8
0
  6
CONTINUOUS
 10
3.344000
 20
1.594120
  0
VERTEX
  8
0
  6
CONTINUOUS
 10
3.285920
 20
1.590160
  0
VERTEX
  8
0
  6
CONTINUOUS
 10
3.230040
 20
1.589280
  0
VERTEX
  8
0
  6
CONTINUOUS
 10
3.150400
 20
1.593240
  0
VERTEX
  8
0
  6
CONTINUOUS
 10
3.100240
 20
1.598520
  0
VERTEX
  8
0
  6
CONTINUOUS
 10
3.030280
 20
1.610400
  0
VERTEX
  8
0
  6
CONTINUOUS
 10
2.966480
 20
1.625800
  0
VERTEX
  8
0
  6
CONTINUOUS
 10
2.909720
 20
1.644280
  0
VERTEX
  8
0
  6
CONTINUOUS
 10
2.860440
 20
1.664520
  0
VERTEX
  8
0
  6
CONTINUOUS
 10
2.819520
 20
1.685640
  0
VERTEX
  8
0
  6
CONTINUOUS
 10
2.786960
 20
1.707200
  0
VERTEX
  8
0
  6
CONTINUOUS
 10
2.763640
 20
1.727880
  0
VERTEX
  8
0
  6
CONTINUOUS
 10
2.753520
 20
1.740640
  0
VERTEX
  8
0
  6
CONTINUOUS
 10
2.748240
 20
1.752520
  0
VERTEX
  8
0
  6
CONTINUOUS
 10
2.748240
 20
1.001880
  0
VERTEX
  8
0
  6
CONTINUOUS
 10
2.748240
 20
1.003640
  0
SEQEND
  8
0
  0
ENDSEC
  0
EOF
