  0
SECTION
  2
HEADER
  9
$ACADVER
  1
AC1006
  9
$EXTMIN
 10
2.632520
 20
2.645280
  9
$EXTMAX
 10
6.207080
 20
6.445560
  9
$LTSCALE
 40
0.044000
  9
$PDMODE
 70
    35
  9
$PDSIZE
 40
0.035200
  0
ENDSEC
  0
SECTION
  2
TABLES
  0
TABLE
  2
LTYPE
 70
     9
  0
LTYPE
  2
CONTINUOUS
 70
    64
  3
Solid line
 72
    65
 73
     0
 40
0.000000
  0
LTYPE
  2
DASHED
 70
    64
  3
__ __ __ __ __ __ __ __ __ __ __ __ __ __ __
 72
    65
 73
     2
 40
0.000330
 49
0.000220
 49
-0.000110
  0
LTYPE
  2
HIDDEN
 70
    64
  3
 _ _ _ _ _ _ _ _ _ _ _ _ _ _ _ _ _ _ _ _ _ _
 72
    65
 73
     2
 40
0.000165
 49
0.000110
 49
-0.000055
  0
LTYPE
  2
CENTER
 70
    64
  3
____ _ ____ _ ____ _ ____ _ ____ _ ____ _ ____
 72
    65
 73
     4
 40
0.000880
 49
0.000550
 49
-0.000110
 49
0.000110
 49
-0.000110
  0
LTYPE
  2
PHANTOM
 70
    64
  3
_____ _ _ _____ _ _ _____ _ _ _____ _ _ ____
 72
    65
 73
     6
 40
0.001100
 49
0.000550
 49
-0.000110
 49
0.000110
 49
-0.000110
 49
0.000110
 49
-0.000110
  0
LTYPE
  2
DOT
 70
    64
  3
...............................................
 72
    65
 73
     2
 40
0.000110
 49
0.000000
 49
-0.000110
  0
LTYPE
  2
DASHDOT
 70
    64
  3
__ . __ . __ . __ . __ . __ . __ . __ . __ . __
 72
    65
 73
     4
 40
0.000440
 49
0.000220
 49
-0.000110
 49
0.000000
 49
-0.000110
  0
LTYPE
  2
BORDER
 70
    64
  3
__ __ . __ __ . __ __ . __ __ . __ __ . __ __
 72
    65
 73
     6
 40
0.000770
 49
0.000220
 49
-0.000110
 49
0.000220
 49
-0.000110
 49
0.000000
 49
-0.000110
  0
LTYPE
  2
DIVIDE
 70
    64
  3
__ . . __ . . __ . . __ . . __ . . __ . . __
 72
    65
 73
     6
 40
0.000550
 49
0.000220
 49
-0.000110
 49
0.000000
 49
-0.000110
 49
0.000000
 49
-0.000110
  0
LTYPE
  2
DOTDOT
 70
    64
  3
 . .  . .  . .  . .  . .  . . 
 72
    65
 73
     5
 40
0.000242
 49
-0.000110
 49
0.000000
 49
-0.000110
 49
0.000000
 49
-0.000110
  0
ENDTAB
  0
TABLE
  2
STYLE
 70
     2
  0
STYLE
 70
     0
  2
SN0
 40
0.000000
 41
0.000440
 50
0.000000
 71
     0
 42
0.000000
  3
ROMAND
  0
STYLE
 70
    68
  2
SV0
 40
0.000000
 41
0.000440
 50
0.000000
 71
     0
 42
0.000000
  3
ROMAND
  0
ENDTAB
  0
TABLE
  2
LAYER
 70
     3
  0
LAYER
  2
FOREGROUND
 70
    64
 62
     7
  6
CONTINUOUS
  0
LAYER
  2
BACKGROUND
 70
    65
 62
    -7
  6
CONTINUOUS
  0
LAYER
  2
0
 70
    64
 62
     7
  6
CONTINUOUS
  0
ENDTAB
  0
ENDSEC
  0
SECTION
  2
ENTITIES
  0
POLYLINE
  8
FOREGROUND
  6
CONTINUOUS
 66
     1
 40
0.000000
 41
0.000000
  0
VERTEX
  8
FOREGROUND
  6
CONTINUOUS
 10
0.000000
 20
9.090840
  0
VERTEX
  8
FOREGROUND
  6
CONTINUOUS
 10
8.499920
 20
9.090840
  0
VERTEX
  8
FOREGROUND
  6
CONTINUOUS
 10
8.499920
 20
-1.909160
  0
VERTEX
  8
FOREGROUND
  6
CONTINUOUS
 10
0.000000
 20
-1.909160
  0
VERTEX
  8
FOREGROUND
  6
CONTINUOUS
 10
0.000000
 20
9.090840
  0
SEQEND
  8
0
  0
POLYLINE
  8
FOREGROUND
  6
CONTINUOUS
 66
     1
 40
0.000000
 41
0.000000
  0
VERTEX
  8
FOREGROUND
  6
CONTINUOUS
 10
0.000000
 20
9.090840
  0
VERTEX
  8
FOREGROUND
  6
CONTINUOUS
 10
8.499920
 20
9.090840
  0
VERTEX
  8
FOREGROUND
  6
CONTINUOUS
 10
8.499920
 20
-1.909160
  0
VERTEX
  8
FOREGROUND
  6
CONTINUOUS
 10
0.000000
 20
-1.909160
  0
VERTEX
  8
FOREGROUND
  6
CONTINUOUS
 10
0.000000
 20
9.090840
  0
SEQEND
  8
0
  0
POLYLINE
  8
0
  6
CONTINUOUS
 66
     1
 40
0.000000
 41
0.000000
  0
VERTEX
  8
0
  6
CONTINUOUS
 10
6.206640
 20
5.368440
  0
VERTEX
  8
0
  6
CONTINUOUS
 10
6.206640
 20
5.588880
  0
VERTEX
  8
0
  6
CONTINUOUS
 10
6.175400
 20
5.592400
  0
VERTEX
  8
0
  6
CONTINUOUS
 10
6.138880
 20
5.600760
  0
VERTEX
  8
0
  6
CONTINUOUS
 10
6.100600
 20
5.614840
  0
VERTEX
  8
0
  6
CONTINUOUS
 10
6.080800
 20
5.624080
  0
VERTEX
  8
0
  6
CONTINUOUS
 10
6.042960
 20
5.648720
  0
VERTEX
  8
0
  6
CONTINUOUS
 10
6.016120
 20
5.672920
  0
VERTEX
  8
0
  6
CONTINUOUS
 10
5.992360
 20
5.702840
  0
VERTEX
  8
0
  6
CONTINUOUS
 10
5.978280
 20
5.725720
  0
VERTEX
  8
0
  6
CONTINUOUS
 10
5.961120
 20
5.765760
  0
VERTEX
  8
0
  6
CONTINUOUS
 10
5.952320
 20
5.796120
  0
VERTEX
  8
0
  6
CONTINUOUS
 10
5.948800
 20
5.812400
  0
VERTEX
  8
0
  6
CONTINUOUS
 10
5.118520
 20
5.812400
  0
VERTEX
  8
0
  6
CONTINUOUS
 10
5.105320
 20
5.910080
  0
VERTEX
  8
0
  6
CONTINUOUS
 10
4.917000
 20
5.910080
  0
VERTEX
  8
0
  6
CONTINUOUS
 10
4.908200
 20
5.935160
  0
VERTEX
  8
0
  6
CONTINUOUS
 10
4.897640
 20
5.958040
  0
VERTEX
  8
0
  6
CONTINUOUS
 10
4.885320
 20
5.979600
  0
VERTEX
  8
0
  6
CONTINUOUS
 10
4.872120
 20
5.998960
  0
VERTEX
  8
0
  6
CONTINUOUS
 10
4.842200
 20
6.032400
  0
VERTEX
  8
0
  6
CONTINUOUS
 10
4.825920
 20
6.046480
  0
VERTEX
  8
0
  6
CONTINUOUS
 10
4.790280
 20
6.069360
  0
VERTEX
  8
0
  6
CONTINUOUS
 10
4.771800
 20
6.078160
  0
VERTEX
  8
0
  6
CONTINUOUS
 10
4.752880
 20
6.085200
  0
VERTEX
  8
0
  6
CONTINUOUS
 10
4.733520
 20
6.090480
  0
VERTEX
  8
0
  6
CONTINUOUS
 10
4.713720
 20
6.094000
  0
VERTEX
  8
0
  6
CONTINUOUS
 10
4.694360
 20
6.095760
  0
VERTEX
  8
0
  6
CONTINUOUS
 10
4.674560
 20
6.095760
  0
VERTEX
  8
0
  6
CONTINUOUS
 10
4.635840
 20
6.090920
  0
VERTEX
  8
0
  6
CONTINUOUS
 10
4.616920
 20
6.085640
  0
VERTEX
  8
0
  6
CONTINUOUS
 10
4.598440
 20
6.078600
  0
VERTEX
  8
0
  6
CONTINUOUS
 10
4.563240
 20
6.059680
  0
VERTEX
  8
0
  6
CONTINUOUS
 10
4.547400
 20
6.047800
  0
VERTEX
  8
0
  6
CONTINUOUS
 10
4.517920
 20
6.018320
  0
VERTEX
  8
0
  6
CONTINUOUS
 10
4.504720
 20
6.001160
  0
VERTEX
  8
0
  6
CONTINUOUS
 10
4.493280
 20
5.982680
  0
VERTEX
  8
0
  6
CONTINUOUS
 10
4.483160
 20
5.962000
  0
VERTEX
  8
0
  6
CONTINUOUS
 10
4.467760
 20
5.915800
  0
VERTEX
  8
0
  6
CONTINUOUS
 10
4.460720
 20
5.877080
  0
VERTEX
  8
0
  6
CONTINUOUS
 10
4.458520
 20
5.834400
  0
VERTEX
  8
0
  6
CONTINUOUS
 10
4.403080
 20
5.862120
  0
VERTEX
  8
0
  6
CONTINUOUS
 10
4.352040
 20
5.892040
  0
VERTEX
  8
0
  6
CONTINUOUS
 10
4.304960
 20
5.924160
  0
VERTEX
  8
0
  6
CONTINUOUS
 10
4.261400
 20
5.958040
  0
VERTEX
  8
0
  6
CONTINUOUS
 10
4.202000
 20
6.012600
  0
VERTEX
  8
0
  6
CONTINUOUS
 10
4.147880
 20
6.071560
  0
VERTEX
  8
0
  6
CONTINUOUS
 10
4.114000
 20
6.112480
  0
VERTEX
  8
0
  6
CONTINUOUS
 10
4.092880
 20
6.143720
  0
VERTEX
  8
0
  6
CONTINUOUS
 10
4.048440
 20
6.195200
  0
VERTEX
  8
0
  6
CONTINUOUS
 10
4.011480
 20
6.230400
  0
VERTEX
  8
0
  6
CONTINUOUS
 10
3.968360
 20
6.265160
  0
VERTEX
  8
0
  6
CONTINUOUS
 10
3.920400
 20
6.297280
  0
VERTEX
  8
0
  6
CONTINUOUS
 10
3.868040
 20
6.325880
  0
VERTEX
  8
0
  6
CONTINUOUS
 10
3.811280
 20
6.349200
  0
VERTEX
  8
0
  6
CONTINUOUS
 10
3.781360
 20
6.358440
  0
VERTEX
  8
0
  6
CONTINUOUS
 10
3.750560
 20
6.365920
  0
VERTEX
  8
0
  6
CONTINUOUS
 10
3.702600
 20
6.372960
  0
VERTEX
  8
0
  6
CONTINUOUS
 10
3.670040
 20
6.374720
  0
VERTEX
  8
0
  6
CONTINUOUS
 10
3.636600
 20
6.374280
  0
VERTEX
  8
0
  6
CONTINUOUS
 10
3.585560
 20
6.368120
  0
VERTEX
  8
0
  6
CONTINUOUS
 10
3.550360
 20
6.360640
  0
VERTEX
  8
0
  6
CONTINUOUS
 10
3.497120
 20
6.343040
  0
VERTEX
  8
0
  6
CONTINUOUS
 10
3.443000
 20
6.317960
  0
VERTEX
  8
0
  6
CONTINUOUS
 10
3.388440
 20
6.284080
  0
VERTEX
  8
0
  6
CONTINUOUS
 10
3.351480
 20
6.256800
  0
VERTEX
  8
0
  6
CONTINUOUS
 10
3.314520
 20
6.225560
  0
VERTEX
  8
0
  6
CONTINUOUS
 10
3.258640
 20
6.170120
  0
VERTEX
  8
0
  6
CONTINUOUS
 10
3.221680
 20
6.127440
  0
VERTEX
  8
0
  6
CONTINUOUS
 10
3.095400
 20
6.127440
  0
VERTEX
  8
0
  6
CONTINUOUS
 10
3.078680
 20
6.445120
  0
VERTEX
  8
0
  6
CONTINUOUS
 10
2.696320
 20
6.445120
  0
VERTEX
  8
0
  6
CONTINUOUS
 10
2.696320
 20
5.368440
  0
VERTEX
  8
0
  6
CONTINUOUS
 10
6.207080
 20
5.368440
  0
VERTEX
  8
0
  6
CONTINUOUS
 10
6.206640
 20
5.368440
  0
SEQEND
  8
0
  0
TEXT
  8
0
 10
3.163160
 20
5.685680
 40
0.138129
  1
BA  1297
 41
1.000000
  7
SN0
 71
     0
 72
     5
 11
3.844930
 21
5.685680
  0
TEXT
  8
0
 10
2.933480
 20
5.493840
 40
0.138129
  1
1-1/16" x 3-1/2"
 41
1.000000
  7
SN0
 71
     0
 72
     5
 11
4.072614
 21
5.493840
  0
SOLID
  8
0
 62
    15
 10
4.411000
 20
3.730760
 11
4.412320
 21
4.480080
 12
4.429920
 22
3.773440
 13
4.430800
 23
4.522760
  0
POLYLINE
  8
0
  6
CONTINUOUS
 66
     1
 40
0.000000
 41
0.000000
  0
VERTEX
  8
0
  6
CONTINUOUS
 10
4.411000
 20
3.730760
  0
VERTEX
  8
0
  6
CONTINUOUS
 10
4.412320
 20
4.480080
  0
VERTEX
  8
0
  6
CONTINUOUS
 10
4.430800
 20
4.522760
  0
VERTEX
  8
0
  6
CONTINUOUS
 10
4.429920
 20
3.773440
  0
VERTEX
  8
0
  6
CONTINUOUS
 10
4.411000
 20
3.730760
  0
SEQEND
  8
0
  0
SOLID
  8
0
 62
    15
 10
3.014880
 20
4.235880
 11
3.016200
 21
4.985200
 12
3.031600
 22
3.918200
 13
3.032920
 23
4.667960
  0
POLYLINE
  8
0
  6
CONTINUOUS
 66
     1
 40
0.000000
 41
0.000000
  0
VERTEX
  8
0
  6
CONTINUOUS
 10
3.014880
 20
4.235880
  0
VERTEX
  8
0
  6
CONTINUOUS
 10
3.016200
 20
4.985200
  0
VERTEX
  8
0
  6
CONTINUOUS
 10
3.032920
 20
4.667960
  0
VERTEX
  8
0
  6
CONTINUOUS
 10
3.031600
 20
3.918200
  0
VERTEX
  8
0
  6
CONTINUOUS
 10
3.014880
 20
4.235880
  0
SEQEND
  8
0
  0
SOLID
  8
0
 62
    15
 10
3.031600
 20
3.918200
 11
3.032920
 21
4.667960
 12
3.158320
 22
3.918200
 13
3.159640
 23
4.667960
  0
POLYLINE
  8
0
  6
CONTINUOUS
 66
     1
 40
0.000000
 41
0.000000
  0
VERTEX
  8
0
  6
CONTINUOUS
 10
3.031600
 20
3.918200
  0
VERTEX
  8
0
  6
CONTINUOUS
 10
3.032920
 20
4.667960
  0
VERTEX
  8
0
  6
CONTINUOUS
 10
3.159640
 20
4.667960
  0
VERTEX
  8
0
  6
CONTINUOUS
 10
3.158320
 20
3.918200
  0
VERTEX
  8
0
  6
CONTINUOUS
 10
3.031600
 20
3.918200
  0
SEQEND
  8
0
  0
SOLID
  8
0
 62
    15
 10
3.158320
 20
3.918200
 11
3.159640
 21
4.667960
 12
3.232680
 22
3.999160
 13
3.233560
 23
4.748480
  0
POLYLINE
  8
0
  6
CONTINUOUS
 66
     1
 40
0.000000
 41
0.000000
  0
VERTEX
  8
0
  6
CONTINUOUS
 10
3.158320
 20
3.918200
  0
VERTEX
  8
0
  6
CONTINUOUS
 10
3.159640
 20
4.667960
  0
VERTEX
  8
0
  6
CONTINUOUS
 10
3.233560
 20
4.748480
  0
VERTEX
  8
0
  6
CONTINUOUS
 10
3.232680
 20
3.999160
  0
VERTEX
  8
0
  6
CONTINUOUS
 10
3.158320
 20
3.918200
  0
SEQEND
  8
0
  0
SOLID
  8
0
 62
    15
 10
3.232680
 20
3.999160
 11
3.233560
 21
4.748480
 12
3.306600
 22
4.062080
 13
3.307920
 23
4.811400
  0
POLYLINE
  8
0
  6
CONTINUOUS
 66
     1
 40
0.000000
 41
0.000000
  0
VERTEX
  8
0
  6
CONTINUOUS
 10
3.232680
 20
3.999160
  0
VERTEX
  8
0
  6
CONTINUOUS
 10
3.233560
 20
4.748480
  0
VERTEX
  8
0
  6
CONTINUOUS
 10
3.307920
 20
4.811400
  0
VERTEX
  8
0
  6
CONTINUOUS
 10
3.306600
 20
4.062080
  0
VERTEX
  8
0
  6
CONTINUOUS
 10
3.232680
 20
3.999160
  0
SEQEND
  8
0
  0
SOLID
  8
0
 62
    15
 10
3.306600
 20
4.062080
 11
3.307920
 21
4.811400
 12
3.379640
 22
4.108720
 13
3.380960
 23
4.858040
  0
POLYLINE
  8
0
  6
CONTINUOUS
 66
     1
 40
0.000000
 41
0.000000
  0
VERTEX
  8
0
  6
CONTINUOUS
 10
3.306600
 20
4.062080
  0
VERTEX
  8
0
  6
CONTINUOUS
 10
3.307920
 20
4.811400
  0
VERTEX
  8
0
  6
CONTINUOUS
 10
3.380960
 20
4.858040
  0
VERTEX
  8
0
  6
CONTINUOUS
 10
3.379640
 20
4.108720
  0
VERTEX
  8
0
  6
CONTINUOUS
 10
3.306600
 20
4.062080
  0
SEQEND
  8
0
  0
SOLID
  8
0
 62
    15
 10
3.379640
 20
4.108720
 11
3.380960
 21
4.858040
 12
3.451800
 22
4.140400
 13
3.452680
 23
4.890160
  0
POLYLINE
  8
0
  6
CONTINUOUS
 66
     1
 40
0.000000
 41
0.000000
  0
VERTEX
  8
0
  6
CONTINUOUS
 10
3.379640
 20
4.108720
  0
VERTEX
  8
0
  6
CONTINUOUS
 10
3.380960
 20
4.858040
  0
VERTEX
  8
0
  6
CONTINUOUS
 10
3.452680
 20
4.890160
  0
VERTEX
  8
0
  6
CONTINUOUS
 10
3.451800
 20
4.140400
  0
VERTEX
  8
0
  6
CONTINUOUS
 10
3.379640
 20
4.108720
  0
SEQEND
  8
0
  0
SOLID
  8
0
 62
    15
 10
3.451800
 20
4.140400
 11
3.452680
 21
4.890160
 12
3.521760
 22
4.159320
 13
3.523080
 23
4.908640
  0
POLYLINE
  8
0
  6
CONTINUOUS
 66
     1
 40
0.000000
 41
0.000000
  0
VERTEX
  8
0
  6
CONTINUOUS
 10
3.451800
 20
4.140400
  0
VERTEX
  8
0
  6
CONTINUOUS
 10
3.452680
 20
4.890160
  0
VERTEX
  8
0
  6
CONTINUOUS
 10
3.523080
 20
4.908640
  0
VERTEX
  8
0
  6
CONTINUOUS
 10
3.521760
 20
4.159320
  0
VERTEX
  8
0
  6
CONTINUOUS
 10
3.451800
 20
4.140400
  0
SEQEND
  8
0
  0
SOLID
  8
0
 62
    15
 10
3.521760
 20
4.159320
 11
3.523080
 21
4.908640
 12
3.589960
 22
4.165920
 13
3.591280
 23
4.915240
  0
POLYLINE
  8
0
  6
CONTINUOUS
 66
     1
 40
0.000000
 41
0.000000
  0
VERTEX
  8
0
  6
CONTINUOUS
 10
3.521760
 20
4.159320
  0
VERTEX
  8
0
  6
CONTINUOUS
 10
3.523080
 20
4.908640
  0
VERTEX
  8
0
  6
CONTINUOUS
 10
3.591280
 20
4.915240
  0
VERTEX
  8
0
  6
CONTINUOUS
 10
3.589960
 20
4.165920
  0
VERTEX
  8
0
  6
CONTINUOUS
 10
3.521760
 20
4.159320
  0
SEQEND
  8
0
  0
SOLID
  8
0
 62
    15
 10
3.589960
 20
4.165920
 11
3.591280
 21
4.915240
 12
3.655520
 22
4.161960
 13
3.656400
 23
4.911720
  0
POLYLINE
  8
0
  6
CONTINUOUS
 66
     1
 40
0.000000
 41
0.000000
  0
VERTEX
  8
0
  6
CONTINUOUS
 10
3.589960
 20
4.165920
  0
VERTEX
  8
0
  6
CONTINUOUS
 10
3.591280
 20
4.915240
  0
VERTEX
  8
0
  6
CONTINUOUS
 10
3.656400
 20
4.911720
  0
VERTEX
  8
0
  6
CONTINUOUS
 10
3.655520
 20
4.161960
  0
VERTEX
  8
0
  6
CONTINUOUS
 10
3.589960
 20
4.165920
  0
SEQEND
  8
0
  0
SOLID
  8
0
 62
    15
 10
3.655520
 20
4.161960
 11
3.656400
 21
4.911720
 12
3.717560
 22
4.149200
 13
3.718880
 23
4.898960
  0
POLYLINE
  8
0
  6
CONTINUOUS
 66
     1
 40
0.000000
 41
0.000000
  0
VERTEX
  8
0
  6
CONTINUOUS
 10
3.655520
 20
4.161960
  0
VERTEX
  8
0
  6
CONTINUOUS
 10
3.656400
 20
4.911720
  0
VERTEX
  8
0
  6
CONTINUOUS
 10
3.718880
 20
4.898960
  0
VERTEX
  8
0
  6
CONTINUOUS
 10
3.717560
 20
4.149200
  0
VERTEX
  8
0
  6
CONTINUOUS
 10
3.655520
 20
4.161960
  0
SEQEND
  8
0
  0
SOLID
  8
0
 62
    15
 10
3.717560
 20
4.149200
 11
3.718880
 21
4.898960
 12
3.776520
 22
4.129400
 13
3.777840
 23
4.878720
  0
POLYLINE
  8
0
  6
CONTINUOUS
 66
     1
 40
0.000000
 41
0.000000
  0
VERTEX
  8
0
  6
CONTINUOUS
 10
3.717560
 20
4.149200
  0
VERTEX
  8
0
  6
CONTINUOUS
 10
3.718880
 20
4.898960
  0
VERTEX
  8
0
  6
CONTINUOUS
 10
3.777840
 20
4.878720
  0
VERTEX
  8
0
  6
CONTINUOUS
 10
3.776520
 20
4.129400
  0
VERTEX
  8
0
  6
CONTINUOUS
 10
3.717560
 20
4.149200
  0
SEQEND
  8
0
  0
SOLID
  8
0
 62
    15
 10
3.776520
 20
4.129400
 11
3.777840
 21
4.878720
 12
3.831520
 22
4.103000
 13
3.832400
 23
4.852760
  0
POLYLINE
  8
0
  6
CONTINUOUS
 66
     1
 40
0.000000
 41
0.000000
  0
VERTEX
  8
0
  6
CONTINUOUS
 10
3.776520
 20
4.129400
  0
VERTEX
  8
0
  6
CONTINUOUS
 10
3.777840
 20
4.878720
  0
VERTEX
  8
0
  6
CONTINUOUS
 10
3.832400
 20
4.852760
  0
VERTEX
  8
0
  6
CONTINUOUS
 10
3.831520
 20
4.103000
  0
VERTEX
  8
0
  6
CONTINUOUS
 10
3.776520
 20
4.129400
  0
SEQEND
  8
0
  0
SOLID
  8
0
 62
    15
 10
3.831520
 20
4.103000
 11
3.832400
 21
4.852760
 12
3.881680
 22
4.072640
 13
3.883000
 23
4.821960
  0
POLYLINE
  8
0
  6
CONTINUOUS
 66
     1
 40
0.000000
 41
0.000000
  0
VERTEX
  8
0
  6
CONTINUOUS
 10
3.831520
 20
4.103000
  0
VERTEX
  8
0
  6
CONTINUOUS
 10
3.832400
 20
4.852760
  0
VERTEX
  8
0
  6
CONTINUOUS
 10
3.883000
 20
4.821960
  0
VERTEX
  8
0
  6
CONTINUOUS
 10
3.881680
 20
4.072640
  0
VERTEX
  8
0
  6
CONTINUOUS
 10
3.831520
 20
4.103000
  0
SEQEND
  8
0
  0
SOLID
  8
0
 62
    15
 10
3.881680
 20
4.072640
 11
3.883000
 21
4.821960
 12
3.927000
 22
4.038760
 13
3.928320
 23
4.788520
  0
POLYLINE
  8
0
  6
CONTINUOUS
 66
     1
 40
0.000000
 41
0.000000
  0
VERTEX
  8
0
  6
CONTINUOUS
 10
3.881680
 20
4.072640
  0
VERTEX
  8
0
  6
CONTINUOUS
 10
3.883000
 20
4.821960
  0
VERTEX
  8
0
  6
CONTINUOUS
 10
3.928320
 20
4.788520
  0
VERTEX
  8
0
  6
CONTINUOUS
 10
3.927000
 20
4.038760
  0
VERTEX
  8
0
  6
CONTINUOUS
 10
3.881680
 20
4.072640
  0
SEQEND
  8
0
  0
SOLID
  8
0
 62
    15
 10
3.927000
 20
4.038760
 11
3.928320
 21
4.788520
 12
3.967040
 22
4.003560
 13
3.968360
 23
4.753320
  0
POLYLINE
  8
0
  6
CONTINUOUS
 66
     1
 40
0.000000
 41
0.000000
  0
VERTEX
  8
0
  6
CONTINUOUS
 10
3.927000
 20
4.038760
  0
VERTEX
  8
0
  6
CONTINUOUS
 10
3.928320
 20
4.788520
  0
VERTEX
  8
0
  6
CONTINUOUS
 10
3.968360
 20
4.753320
  0
VERTEX
  8
0
  6
CONTINUOUS
 10
3.967040
 20
4.003560
  0
VERTEX
  8
0
  6
CONTINUOUS
 10
3.927000
 20
4.038760
  0
SEQEND
  8
0
  0
SOLID
  8
0
 62
    15
 10
3.967040
 20
4.003560
 11
3.968360
 21
4.753320
 12
4.001360
 22
3.968360
 13
4.002680
 23
4.718120
  0
POLYLINE
  8
0
  6
CONTINUOUS
 66
     1
 40
0.000000
 41
0.000000
  0
VERTEX
  8
0
  6
CONTINUOUS
 10
3.967040
 20
4.003560
  0
VERTEX
  8
0
  6
CONTINUOUS
 10
3.968360
 20
4.753320
  0
VERTEX
  8
0
  6
CONTINUOUS
 10
4.002680
 20
4.718120
  0
VERTEX
  8
0
  6
CONTINUOUS
 10
4.001360
 20
3.968360
  0
VERTEX
  8
0
  6
CONTINUOUS
 10
3.967040
 20
4.003560
  0
SEQEND
  8
0
  0
SOLID
  8
0
 62
    15
 10
4.001360
 20
3.968360
 11
4.002680
 21
4.718120
 12
4.029520
 22
3.934480
 13
4.030840
 23
4.684240
  0
POLYLINE
  8
0
  6
CONTINUOUS
 66
     1
 40
0.000000
 41
0.000000
  0
VERTEX
  8
0
  6
CONTINUOUS
 10
4.001360
 20
3.968360
  0
VERTEX
  8
0
  6
CONTINUOUS
 10
4.002680
 20
4.718120
  0
VERTEX
  8
0
  6
CONTINUOUS
 10
4.030840
 20
4.684240
  0
VERTEX
  8
0
  6
CONTINUOUS
 10
4.029520
 20
3.934480
  0
VERTEX
  8
0
  6
CONTINUOUS
 10
4.001360
 20
3.968360
  0
SEQEND
  8
0
  0
SOLID
  8
0
 62
    15
 10
4.029520
 20
3.934480
 11
4.030840
 21
4.684240
 12
4.050640
 22
3.903680
 13
4.051960
 23
4.653000
  0
POLYLINE
  8
0
  6
CONTINUOUS
 66
     1
 40
0.000000
 41
0.000000
  0
VERTEX
  8
0
  6
CONTINUOUS
 10
4.029520
 20
3.934480
  0
VERTEX
  8
0
  6
CONTINUOUS
 10
4.030840
 20
4.684240
  0
VERTEX
  8
0
  6
CONTINUOUS
 10
4.051960
 20
4.653000
  0
VERTEX
  8
0
  6
CONTINUOUS
 10
4.050640
 20
3.903680
  0
VERTEX
  8
0
  6
CONTINUOUS
 10
4.029520
 20
3.934480
  0
SEQEND
  8
0
  0
SOLID
  8
0
 62
    15
 10
4.050640
 20
3.903680
 11
4.051960
 21
4.653000
 12
4.120160
 22
3.822720
 13
4.121040
 23
4.572480
  0
POLYLINE
  8
0
  6
CONTINUOUS
 66
     1
 40
0.000000
 41
0.000000
  0
VERTEX
  8
0
  6
CONTINUOUS
 10
4.050640
 20
3.903680
  0
VERTEX
  8
0
  6
CONTINUOUS
 10
4.051960
 20
4.653000
  0
VERTEX
  8
0
  6
CONTINUOUS
 10
4.121040
 20
4.572480
  0
VERTEX
  8
0
  6
CONTINUOUS
 10
4.120160
 20
3.822720
  0
VERTEX
  8
0
  6
CONTINUOUS
 10
4.050640
 20
3.903680
  0
SEQEND
  8
0
  0
SOLID
  8
0
 62
    15
 10
4.120160
 20
3.822720
 11
4.121040
 21
4.572480
 12
4.198040
 22
3.749240
 13
4.199360
 23
4.498560
  0
POLYLINE
  8
0
  6
CONTINUOUS
 66
     1
 40
0.000000
 41
0.000000
  0
VERTEX
  8
0
  6
CONTINUOUS
 10
4.120160
 20
3.822720
  0
VERTEX
  8
0
  6
CONTINUOUS
 10
4.121040
 20
4.572480
  0
VERTEX
  8
0
  6
CONTINUOUS
 10
4.199360
 20
4.498560
  0
VERTEX
  8
0
  6
CONTINUOUS
 10
4.198040
 20
3.749240
  0
VERTEX
  8
0
  6
CONTINUOUS
 10
4.120160
 20
3.822720
  0
SEQEND
  8
0
  0
SOLID
  8
0
 62
    15
 10
4.198040
 20
3.749240
 11
4.199360
 21
4.498560
 12
4.288240
 22
3.682800
 13
4.289560
 23
4.432560
  0
POLYLINE
  8
0
  6
CONTINUOUS
 66
     1
 40
0.000000
 41
0.000000
  0
VERTEX
  8
0
  6
CONTINUOUS
 10
4.198040
 20
3.749240
  0
VERTEX
  8
0
  6
CONTINUOUS
 10
4.199360
 20
4.498560
  0
VERTEX
  8
0
  6
CONTINUOUS
 10
4.289560
 20
4.432560
  0
VERTEX
  8
0
  6
CONTINUOUS
 10
4.288240
 20
3.682800
  0
VERTEX
  8
0
  6
CONTINUOUS
 10
4.198040
 20
3.749240
  0
SEQEND
  8
0
  0
SOLID
  8
0
 62
    15
 10
4.288240
 20
3.682800
 11
4.289560
 21
4.432560
 12
4.339280
 22
3.652880
 13
4.340600
 23
4.402640
  0
POLYLINE
  8
0
  6
CONTINUOUS
 66
     1
 40
0.000000
 41
0.000000
  0
VERTEX
  8
0
  6
CONTINUOUS
 10
4.288240
 20
3.682800
  0
VERTEX
  8
0
  6
CONTINUOUS
 10
4.289560
 20
4.432560
  0
VERTEX
  8
0
  6
CONTINUOUS
 10
4.340600
 20
4.402640
  0
VERTEX
  8
0
  6
CONTINUOUS
 10
4.339280
 20
3.652880
  0
VERTEX
  8
0
  6
CONTINUOUS
 10
4.288240
 20
3.682800
  0
SEQEND
  8
0
  0
SOLID
  8
0
 62
    15
 10
4.339280
 20
3.652880
 11
4.340600
 21
4.402640
 12
4.394720
 22
3.625160
 13
4.396040
 23
4.374920
  0
POLYLINE
  8
0
  6
CONTINUOUS
 66
     1
 40
0.000000
 41
0.000000
  0
VERTEX
  8
0
  6
CONTINUOUS
 10
4.339280
 20
3.652880
  0
VERTEX
  8
0
  6
CONTINUOUS
 10
4.340600
 20
4.402640
  0
VERTEX
  8
0
  6
CONTINUOUS
 10
4.396040
 20
4.374920
  0
VERTEX
  8
0
  6
CONTINUOUS
 10
4.394720
 20
3.625160
  0
VERTEX
  8
0
  6
CONTINUOUS
 10
4.339280
 20
3.652880
  0
SEQEND
  8
0
  0
SOLID
  8
0
 62
    15
 10
4.394720
 20
3.625160
 11
4.396040
 21
4.374920
 12
4.399120
 22
3.681480
 13
4.400440
 23
4.430800
  0
POLYLINE
  8
0
  6
CONTINUOUS
 66
     1
 40
0.000000
 41
0.000000
  0
VERTEX
  8
0
  6
CONTINUOUS
 10
4.394720
 20
3.625160
  0
VERTEX
  8
0
  6
CONTINUOUS
 10
4.396040
 20
4.374920
  0
VERTEX
  8
0
  6
CONTINUOUS
 10
4.400440
 20
4.430800
  0
VERTEX
  8
0
  6
CONTINUOUS
 10
4.399120
 20
3.681480
  0
VERTEX
  8
0
  6
CONTINUOUS
 10
4.394720
 20
3.625160
  0
SEQEND
  8
0
  0
SOLID
  8
0
 62
    15
 10
4.399120
 20
3.681480
 11
4.400440
 21
4.430800
 12
4.411000
 22
3.730760
 13
4.412320
 23
4.480080
  0
POLYLINE
  8
0
  6
CONTINUOUS
 66
     1
 40
0.000000
 41
0.000000
  0
VERTEX
  8
0
  6
CONTINUOUS
 10
4.399120
 20
3.681480
  0
VERTEX
  8
0
  6
CONTINUOUS
 10
4.400440
 20
4.430800
  0
VERTEX
  8
0
  6
CONTINUOUS
 10
4.412320
 20
4.480080
  0
VERTEX
  8
0
  6
CONTINUOUS
 10
4.411000
 20
3.730760
  0
VERTEX
  8
0
  6
CONTINUOUS
 10
4.399120
 20
3.681480
  0
SEQEND
  8
0
  0
SOLID
  8
0
 62
    15
 10
2.632960
 20
4.235880
 11
2.634280
 21
4.985200
 12
3.014880
 22
4.235880
 13
3.016200
 23
4.985200
  0
POLYLINE
  8
0
  6
CONTINUOUS
 66
     1
 40
0.000000
 41
0.000000
  0
VERTEX
  8
0
  6
CONTINUOUS
 10
2.632960
 20
4.235880
  0
VERTEX
  8
0
  6
CONTINUOUS
 10
2.634280
 20
4.985200
  0
VERTEX
  8
0
  6
CONTINUOUS
 10
3.016200
 20
4.985200
  0
VERTEX
  8
0
  6
CONTINUOUS
 10
3.014880
 20
4.235880
  0
VERTEX
  8
0
  6
CONTINUOUS
 10
2.632960
 20
4.235880
  0
SEQEND
  8
0
  0
SOLID
  8
0
 62
    15
 10
4.429920
 20
3.773440
 11
4.430800
 21
4.522760
 12
4.454120
 22
3.809080
 13
4.455440
 23
4.558840
  0
POLYLINE
  8
0
  6
CONTINUOUS
 66
     1
 40
0.000000
 41
0.000000
  0
VERTEX
  8
0
  6
CONTINUOUS
 10
4.429920
 20
3.773440
  0
VERTEX
  8
0
  6
CONTINUOUS
 10
4.430800
 20
4.522760
  0
VERTEX
  8
0
  6
CONTINUOUS
 10
4.455440
 20
4.558840
  0
VERTEX
  8
0
  6
CONTINUOUS
 10
4.454120
 20
3.809080
  0
VERTEX
  8
0
  6
CONTINUOUS
 10
4.429920
 20
3.773440
  0
SEQEND
  8
0
  0
SOLID
  8
0
 62
    15
 10
4.454120
 20
3.809080
 11
4.455440
 21
4.558840
 12
4.483600
 22
3.838560
 13
4.484920
 23
4.587880
  0
POLYLINE
  8
0
  6
CONTINUOUS
 66
     1
 40
0.000000
 41
0.000000
  0
VERTEX
  8
0
  6
CONTINUOUS
 10
4.454120
 20
3.809080
  0
VERTEX
  8
0
  6
CONTINUOUS
 10
4.455440
 20
4.558840
  0
VERTEX
  8
0
  6
CONTINUOUS
 10
4.484920
 20
4.587880
  0
VERTEX
  8
0
  6
CONTINUOUS
 10
4.483600
 20
3.838560
  0
VERTEX
  8
0
  6
CONTINUOUS
 10
4.454120
 20
3.809080
  0
SEQEND
  8
0
  0
SOLID
  8
0
 62
    15
 10
4.483600
 20
3.838560
 11
4.484920
 21
4.587880
 12
4.517040
 22
3.861000
 13
4.517920
 23
4.610320
  0
POLYLINE
  8
0
  6
CONTINUOUS
 66
     1
 40
0.000000
 41
0.000000
  0
VERTEX
  8
0
  6
CONTINUOUS
 10
4.483600
 20
3.838560
  0
VERTEX
  8
0
  6
CONTINUOUS
 10
4.484920
 20
4.587880
  0
VERTEX
  8
0
  6
CONTINUOUS
 10
4.517920
 20
4.610320
  0
VERTEX
  8
0
  6
CONTINUOUS
 10
4.517040
 20
3.861000
  0
VERTEX
  8
0
  6
CONTINUOUS
 10
4.483600
 20
3.838560
  0
SEQEND
  8
0
  0
SOLID
  8
0
 62
    15
 10
4.517040
 20
3.861000
 11
4.517920
 21
4.610320
 12
4.553120
 22
3.876400
 13
4.554440
 23
4.625720
  0
POLYLINE
  8
0
  6
CONTINUOUS
 66
     1
 40
0.000000
 41
0.000000
  0
VERTEX
  8
0
  6
CONTINUOUS
 10
4.517040
 20
3.861000
  0
VERTEX
  8
0
  6
CONTINUOUS
 10
4.517920
 20
4.610320
  0
VERTEX
  8
0
  6
CONTINUOUS
 10
4.554440
 20
4.625720
  0
VERTEX
  8
0
  6
CONTINUOUS
 10
4.553120
 20
3.876400
  0
VERTEX
  8
0
  6
CONTINUOUS
 10
4.517040
 20
3.861000
  0
SEQEND
  8
0
  0
SOLID
  8
0
 62
    15
 10
4.553120
 20
3.876400
 11
4.554440
 21
4.625720
 12
4.591400
 22
3.885200
 13
4.592720
 23
4.634520
  0
POLYLINE
  8
0
  6
CONTINUOUS
 66
     1
 40
0.000000
 41
0.000000
  0
VERTEX
  8
0
  6
CONTINUOUS
 10
4.553120
 20
3.876400
  0
VERTEX
  8
0
  6
CONTINUOUS
 10
4.554440
 20
4.625720
  0
VERTEX
  8
0
  6
CONTINUOUS
 10
4.592720
 20
4.634520
  0
VERTEX
  8
0
  6
CONTINUOUS
 10
4.591400
 20
3.885200
  0
VERTEX
  8
0
  6
CONTINUOUS
 10
4.553120
 20
3.876400
  0
SEQEND
  8
0
  0
SOLID
  8
0
 62
    15
 10
4.591400
 20
3.885200
 11
4.592720
 21
4.634520
 12
4.630560
 22
3.886960
 13
4.631880
 23
4.636280
  0
POLYLINE
  8
0
  6
CONTINUOUS
 66
     1
 40
0.000000
 41
0.000000
  0
VERTEX
  8
0
  6
CONTINUOUS
 10
4.591400
 20
3.885200
  0
VERTEX
  8
0
  6
CONTINUOUS
 10
4.592720
 20
4.634520
  0
VERTEX
  8
0
  6
CONTINUOUS
 10
4.631880
 20
4.636280
  0
VERTEX
  8
0
  6
CONTINUOUS
 10
4.630560
 20
3.886960
  0
VERTEX
  8
0
  6
CONTINUOUS
 10
4.591400
 20
3.885200
  0
SEQEND
  8
0
  0
SOLID
  8
0
 62
    15
 10
4.630560
 20
3.886960
 11
4.631880
 21
4.636280
 12
4.669720
 22
3.881680
 13
4.671040
 23
4.631000
  0
POLYLINE
  8
0
  6
CONTINUOUS
 66
     1
 40
0.000000
 41
0.000000
  0
VERTEX
  8
0
  6
CONTINUOUS
 10
4.630560
 20
3.886960
  0
VERTEX
  8
0
  6
CONTINUOUS
 10
4.631880
 20
4.636280
  0
VERTEX
  8
0
  6
CONTINUOUS
 10
4.671040
 20
4.631000
  0
VERTEX
  8
0
  6
CONTINUOUS
 10
4.669720
 20
3.881680
  0
VERTEX
  8
0
  6
CONTINUOUS
 10
4.630560
 20
3.886960
  0
SEQEND
  8
0
  0
SOLID
  8
0
 62
    15
 10
4.669720
 20
3.881680
 11
4.671040
 21
4.631000
 12
4.708440
 22
3.869360
 13
4.709320
 23
4.618680
  0
POLYLINE
  8
0
  6
CONTINUOUS
 66
     1
 40
0.000000
 41
0.000000
  0
VERTEX
  8
0
  6
CONTINUOUS
 10
4.669720
 20
3.881680
  0
VERTEX
  8
0
  6
CONTINUOUS
 10
4.671040
 20
4.631000
  0
VERTEX
  8
0
  6
CONTINUOUS
 10
4.709320
 20
4.618680
  0
VERTEX
  8
0
  6
CONTINUOUS
 10
4.708440
 20
3.869360
  0
VERTEX
  8
0
  6
CONTINUOUS
 10
4.669720
 20
3.881680
  0
SEQEND
  8
0
  0
SOLID
  8
0
 62
    15
 10
4.708440
 20
3.869360
 11
4.709320
 21
4.618680
 12
4.744960
 22
3.850000
 13
4.746280
 23
4.599320
  0
POLYLINE
  8
0
  6
CONTINUOUS
 66
     1
 40
0.000000
 41
0.000000
  0
VERTEX
  8
0
  6
CONTINUOUS
 10
4.708440
 20
3.869360
  0
VERTEX
  8
0
  6
CONTINUOUS
 10
4.709320
 20
4.618680
  0
VERTEX
  8
0
  6
CONTINUOUS
 10
4.746280
 20
4.599320
  0
VERTEX
  8
0
  6
CONTINUOUS
 10
4.744960
 20
3.850000
  0
VERTEX
  8
0
  6
CONTINUOUS
 10
4.708440
 20
3.869360
  0
SEQEND
  8
0
  0
SOLID
  8
0
 62
    15
 10
4.744960
 20
3.850000
 11
4.746280
 21
4.599320
 12
4.778400
 22
3.823160
 13
4.779720
 23
4.572920
  0
POLYLINE
  8
0
  6
CONTINUOUS
 66
     1
 40
0.000000
 41
0.000000
  0
VERTEX
  8
0
  6
CONTINUOUS
 10
4.744960
 20
3.850000
  0
VERTEX
  8
0
  6
CONTINUOUS
 10
4.746280
 20
4.599320
  0
VERTEX
  8
0
  6
CONTINUOUS
 10
4.779720
 20
4.572920
  0
VERTEX
  8
0
  6
CONTINUOUS
 10
4.778400
 20
3.823160
  0
VERTEX
  8
0
  6
CONTINUOUS
 10
4.744960
 20
3.850000
  0
SEQEND
  8
0
  0
SOLID
  8
0
 62
    15
 10
4.778400
 20
3.823160
 11
4.779720
 21
4.572920
 12
4.808760
 22
3.789720
 13
4.809640
 23
4.539480
  0
POLYLINE
  8
0
  6
CONTINUOUS
 66
     1
 40
0.000000
 41
0.000000
  0
VERTEX
  8
0
  6
CONTINUOUS
 10
4.778400
 20
3.823160
  0
VERTEX
  8
0
  6
CONTINUOUS
 10
4.779720
 20
4.572920
  0
VERTEX
  8
0
  6
CONTINUOUS
 10
4.809640
 20
4.539480
  0
VERTEX
  8
0
  6
CONTINUOUS
 10
4.808760
 20
3.789720
  0
VERTEX
  8
0
  6
CONTINUOUS
 10
4.778400
 20
3.823160
  0
SEQEND
  8
0
  0
SOLID
  8
0
 62
    15
 10
4.808760
 20
3.789720
 11
4.809640
 21
4.539480
 12
4.833840
 22
3.748800
 13
4.835160
 23
4.498560
  0
POLYLINE
  8
0
  6
CONTINUOUS
 66
     1
 40
0.000000
 41
0.000000
  0
VERTEX
  8
0
  6
CONTINUOUS
 10
4.808760
 20
3.789720
  0
VERTEX
  8
0
  6
CONTINUOUS
 10
4.809640
 20
4.539480
  0
VERTEX
  8
0
  6
CONTINUOUS
 10
4.835160
 20
4.498560
  0
VERTEX
  8
0
  6
CONTINUOUS
 10
4.833840
 20
3.748800
  0
VERTEX
  8
0
  6
CONTINUOUS
 10
4.808760
 20
3.789720
  0
SEQEND
  8
0
  0
SOLID
  8
0
 62
    15
 10
4.833840
 20
3.748800
 11
4.835160
 21
4.498560
 12
4.853200
 22
3.700840
 13
4.854520
 23
4.450160
  0
POLYLINE
  8
0
  6
CONTINUOUS
 66
     1
 40
0.000000
 41
0.000000
  0
VERTEX
  8
0
  6
CONTINUOUS
 10
4.833840
 20
3.748800
  0
VERTEX
  8
0
  6
CONTINUOUS
 10
4.835160
 20
4.498560
  0
VERTEX
  8
0
  6
CONTINUOUS
 10
4.854520
 20
4.450160
  0
VERTEX
  8
0
  6
CONTINUOUS
 10
4.853200
 20
3.700840
  0
VERTEX
  8
0
  6
CONTINUOUS
 10
4.833840
 20
3.748800
  0
SEQEND
  8
0
  0
SOLID
  8
0
 62
    15
 10
4.853200
 20
3.700840
 11
4.854520
 21
4.450160
 12
5.041520
 22
3.700840
 13
5.042840
 23
4.450160
  0
POLYLINE
  8
0
  6
CONTINUOUS
 66
     1
 40
0.000000
 41
0.000000
  0
VERTEX
  8
0
  6
CONTINUOUS
 10
4.853200
 20
3.700840
  0
VERTEX
  8
0
  6
CONTINUOUS
 10
4.854520
 20
4.450160
  0
VERTEX
  8
0
  6
CONTINUOUS
 10
5.042840
 20
4.450160
  0
VERTEX
  8
0
  6
CONTINUOUS
 10
5.041520
 20
3.700840
  0
VERTEX
  8
0
  6
CONTINUOUS
 10
4.853200
 20
3.700840
  0
SEQEND
  8
0
  0
SOLID
  8
0
 62
    15
 10
5.041520
 20
3.700840
 11
5.042840
 21
4.450160
 12
5.054720
 22
3.603600
 13
5.056040
 23
4.352920
  0
POLYLINE
  8
0
  6
CONTINUOUS
 66
     1
 40
0.000000
 41
0.000000
  0
VERTEX
  8
0
  6
CONTINUOUS
 10
5.041520
 20
3.700840
  0
VERTEX
  8
0
  6
CONTINUOUS
 10
5.042840
 20
4.450160
  0
VERTEX
  8
0
  6
CONTINUOUS
 10
5.056040
 20
4.352920
  0
VERTEX
  8
0
  6
CONTINUOUS
 10
5.054720
 20
3.603600
  0
VERTEX
  8
0
  6
CONTINUOUS
 10
5.041520
 20
3.700840
  0
SEQEND
  8
0
  0
SOLID
  8
0
 62
    15
 10
5.054720
 20
3.603600
 11
5.056040
 21
4.352920
 12
5.885440
 22
3.603600
 13
5.886760
 23
4.352920
  0
POLYLINE
  8
0
  6
CONTINUOUS
 66
     1
 40
0.000000
 41
0.000000
  0
VERTEX
  8
0
  6
CONTINUOUS
 10
5.054720
 20
3.603600
  0
VERTEX
  8
0
  6
CONTINUOUS
 10
5.056040
 20
4.352920
  0
VERTEX
  8
0
  6
CONTINUOUS
 10
5.886760
 20
4.352920
  0
VERTEX
  8
0
  6
CONTINUOUS
 10
5.885440
 20
3.603600
  0
VERTEX
  8
0
  6
CONTINUOUS
 10
5.054720
 20
3.603600
  0
SEQEND
  8
0
  0
SOLID
  8
0
 62
    15
 10
5.885440
 20
3.603600
 11
5.886760
 21
4.352920
 12
5.902600
 22
3.542880
 13
5.903920
 23
4.292200
  0
POLYLINE
  8
0
  6
CONTINUOUS
 66
     1
 40
0.000000
 41
0.000000
  0
VERTEX
  8
0
  6
CONTINUOUS
 10
5.885440
 20
3.603600
  0
VERTEX
  8
0
  6
CONTINUOUS
 10
5.886760
 20
4.352920
  0
VERTEX
  8
0
  6
CONTINUOUS
 10
5.903920
 20
4.292200
  0
VERTEX
  8
0
  6
CONTINUOUS
 10
5.902600
 20
3.542880
  0
VERTEX
  8
0
  6
CONTINUOUS
 10
5.885440
 20
3.603600
  0
SEQEND
  8
0
  0
SOLID
  8
0
 62
    15
 10
5.902600
 20
3.542880
 11
5.903920
 21
4.292200
 12
5.928560
 22
3.493600
 13
5.929880
 23
4.243360
  0
POLYLINE
  8
0
  6
CONTINUOUS
 66
     1
 40
0.000000
 41
0.000000
  0
VERTEX
  8
0
  6
CONTINUOUS
 10
5.902600
 20
3.542880
  0
VERTEX
  8
0
  6
CONTINUOUS
 10
5.903920
 20
4.292200
  0
VERTEX
  8
0
  6
CONTINUOUS
 10
5.929880
 20
4.243360
  0
VERTEX
  8
0
  6
CONTINUOUS
 10
5.928560
 20
3.493600
  0
VERTEX
  8
0
  6
CONTINUOUS
 10
5.902600
 20
3.542880
  0
SEQEND
  8
0
  0
SOLID
  8
0
 62
    15
 10
5.928560
 20
3.493600
 11
5.929880
 21
4.243360
 12
5.961120
 22
3.455320
 13
5.962440
 23
4.205080
  0
POLYLINE
  8
0
  6
CONTINUOUS
 66
     1
 40
0.000000
 41
0.000000
  0
VERTEX
  8
0
  6
CONTINUOUS
 10
5.928560
 20
3.493600
  0
VERTEX
  8
0
  6
CONTINUOUS
 10
5.929880
 20
4.243360
  0
VERTEX
  8
0
  6
CONTINUOUS
 10
5.962440
 20
4.205080
  0
VERTEX
  8
0
  6
CONTINUOUS
 10
5.961120
 20
3.455320
  0
VERTEX
  8
0
  6
CONTINUOUS
 10
5.928560
 20
3.493600
  0
SEQEND
  8
0
  0
SOLID
  8
0
 62
    15
 10
5.961120
 20
3.455320
 11
5.962440
 21
4.205080
 12
5.998080
 22
3.426280
 13
5.999400
 23
4.176040
  0
POLYLINE
  8
0
  6
CONTINUOUS
 66
     1
 40
0.000000
 41
0.000000
  0
VERTEX
  8
0
  6
CONTINUOUS
 10
5.961120
 20
3.455320
  0
VERTEX
  8
0
  6
CONTINUOUS
 10
5.962440
 20
4.205080
  0
VERTEX
  8
0
  6
CONTINUOUS
 10
5.999400
 20
4.176040
  0
VERTEX
  8
0
  6
CONTINUOUS
 10
5.998080
 20
3.426280
  0
VERTEX
  8
0
  6
CONTINUOUS
 10
5.961120
 20
3.455320
  0
SEQEND
  8
0
  0
SOLID
  8
0
 62
    15
 10
5.998080
 20
3.426280
 11
5.999400
 21
4.176040
 12
6.036800
 22
3.405600
 13
6.038120
 23
4.154920
  0
POLYLINE
  8
0
  6
CONTINUOUS
 66
     1
 40
0.000000
 41
0.000000
  0
VERTEX
  8
0
  6
CONTINUOUS
 10
5.998080
 20
3.426280
  0
VERTEX
  8
0
  6
CONTINUOUS
 10
5.999400
 20
4.176040
  0
VERTEX
  8
0
  6
CONTINUOUS
 10
6.038120
 20
4.154920
  0
VERTEX
  8
0
  6
CONTINUOUS
 10
6.036800
 20
3.405600
  0
VERTEX
  8
0
  6
CONTINUOUS
 10
5.998080
 20
3.426280
  0
SEQEND
  8
0
  0
SOLID
  8
0
 62
    15
 10
6.036800
 20
3.405600
 11
6.038120
 21
4.154920
 12
6.075520
 22
3.391520
 13
6.076840
 23
4.141280
  0
POLYLINE
  8
0
  6
CONTINUOUS
 66
     1
 40
0.000000
 41
0.000000
  0
VERTEX
  8
0
  6
CONTINUOUS
 10
6.036800
 20
3.405600
  0
VERTEX
  8
0
  6
CONTINUOUS
 10
6.038120
 20
4.154920
  0
VERTEX
  8
0
  6
CONTINUOUS
 10
6.076840
 20
4.141280
  0
VERTEX
  8
0
  6
CONTINUOUS
 10
6.075520
 20
3.391520
  0
VERTEX
  8
0
  6
CONTINUOUS
 10
6.036800
 20
3.405600
  0
SEQEND
  8
0
  0
SOLID
  8
0
 62
    15
 10
6.075520
 20
3.391520
 11
6.076840
 21
4.141280
 12
6.111600
 22
3.383600
 13
6.112920
 23
4.132920
  0
POLYLINE
  8
0
  6
CONTINUOUS
 66
     1
 40
0.000000
 41
0.000000
  0
VERTEX
  8
0
  6
CONTINUOUS
 10
6.075520
 20
3.391520
  0
VERTEX
  8
0
  6
CONTINUOUS
 10
6.076840
 20
4.141280
  0
VERTEX
  8
0
  6
CONTINUOUS
 10
6.112920
 20
4.132920
  0
VERTEX
  8
0
  6
CONTINUOUS
 10
6.111600
 20
3.383600
  0
VERTEX
  8
0
  6
CONTINUOUS
 10
6.075520
 20
3.391520
  0
SEQEND
  8
0
  0
POLYLINE
  8
0
  6
CONTINUOUS
 66
     1
 40
0.000000
 41
0.000000
  0
VERTEX
  8
0
  6
CONTINUOUS
 10
6.143280
 20
3.159640
  0
VERTEX
  8
0
  6
CONTINUOUS
 10
6.144600
 20
3.908960
  0
VERTEX
  8
0
  6
CONTINUOUS
 10
6.143280
 20
3.159640
  0
SEQEND
  8
0
  0
SOLID
  8
0
 62
    15
 10
6.143280
 20
3.380080
 11
6.144600
 21
4.129400
 12
6.143280
 22
3.159640
 13
6.144600
 23
3.908960
  0
POLYLINE
  8
0
  6
CONTINUOUS
 66
     1
 40
0.000000
 41
0.000000
  0
VERTEX
  8
0
  6
CONTINUOUS
 10
6.143280
 20
3.380080
  0
VERTEX
  8
0
  6
CONTINUOUS
 10
6.144600
 20
4.129400
  0
VERTEX
  8
0
  6
CONTINUOUS
 10
6.144600
 20
3.908960
  0
VERTEX
  8
0
  6
CONTINUOUS
 10
6.143280
 20
3.159640
  0
VERTEX
  8
0
  6
CONTINUOUS
 10
6.143280
 20
3.380080
  0
SEQEND
  8
0
  0
SOLID
  8
0
 62
    15
 10
6.111600
 20
3.383600
 11
6.112920
 21
4.132920
 12
6.143280
 22
3.380080
 13
6.144600
 23
4.129400
  0
POLYLINE
  8
0
  6
CONTINUOUS
 66
     1
 40
0.000000
 41
0.000000
  0
VERTEX
  8
0
  6
CONTINUOUS
 10
6.111600
 20
3.383600
  0
VERTEX
  8
0
  6
CONTINUOUS
 10
6.112920
 20
4.132920
  0
VERTEX
  8
0
  6
CONTINUOUS
 10
6.144600
 20
4.129400
  0
VERTEX
  8
0
  6
CONTINUOUS
 10
6.143280
 20
3.380080
  0
VERTEX
  8
0
  6
CONTINUOUS
 10
6.111600
 20
3.383600
  0
SEQEND
  8
0
  0
POLYLINE
  8
0
  6
CONTINUOUS
 66
     1
 40
0.000000
 41
0.000000
  0
VERTEX
  8
0
  6
CONTINUOUS
 10
6.143280
 20
3.159640
  0
VERTEX
  8
0
  6
CONTINUOUS
 10
2.632960
 20
3.159640
  0
VERTEX
  8
0
  6
CONTINUOUS
 10
2.632960
 20
4.235880
  0
VERTEX
  8
0
  6
CONTINUOUS
 10
3.014880
 20
4.235880
  0
VERTEX
  8
0
  6
CONTINUOUS
 10
3.031600
 20
3.918200
  0
VERTEX
  8
0
  6
CONTINUOUS
 10
3.158320
 20
3.918200
  0
VERTEX
  8
0
  6
CONTINUOUS
 10
3.232680
 20
3.999160
  0
VERTEX
  8
0
  6
CONTINUOUS
 10
3.306600
 20
4.062080
  0
VERTEX
  8
0
  6
CONTINUOUS
 10
3.379640
 20
4.108720
  0
VERTEX
  8
0
  6
CONTINUOUS
 10
3.451800
 20
4.140400
  0
VERTEX
  8
0
  6
CONTINUOUS
 10
3.521760
 20
4.159320
  0
VERTEX
  8
0
  6
CONTINUOUS
 10
3.589960
 20
4.165920
  0
VERTEX
  8
0
  6
CONTINUOUS
 10
3.655520
 20
4.161960
  0
VERTEX
  8
0
  6
CONTINUOUS
 10
3.717560
 20
4.149200
  0
VERTEX
  8
0
  6
CONTINUOUS
 10
3.776520
 20
4.129400
  0
VERTEX
  8
0
  6
CONTINUOUS
 10
3.831520
 20
4.103000
  0
VERTEX
  8
0
  6
CONTINUOUS
 10
3.881680
 20
4.072640
  0
VERTEX
  8
0
  6
CONTINUOUS
 10
3.927000
 20
4.038760
  0
VERTEX
  8
0
  6
CONTINUOUS
 10
3.967040
 20
4.003560
  0
VERTEX
  8
0
  6
CONTINUOUS
 10
4.001360
 20
3.968360
  0
VERTEX
  8
0
  6
CONTINUOUS
 10
4.029520
 20
3.934480
  0
VERTEX
  8
0
  6
CONTINUOUS
 10
4.050640
 20
3.903680
  0
VERTEX
  8
0
  6
CONTINUOUS
 10
4.120160
 20
3.822720
  0
VERTEX
  8
0
  6
CONTINUOUS
 10
4.198040
 20
3.749240
  0
VERTEX
  8
0
  6
CONTINUOUS
 10
4.288240
 20
3.682800
  0
VERTEX
  8
0
  6
CONTINUOUS
 10
4.339280
 20
3.652880
  0
VERTEX
  8
0
  6
CONTINUOUS
 10
4.394720
 20
3.625160
  0
VERTEX
  8
0
  6
CONTINUOUS
 10
4.399120
 20
3.681480
  0
VERTEX
  8
0
  6
CONTINUOUS
 10
4.411000
 20
3.730760
  0
VERTEX
  8
0
  6
CONTINUOUS
 10
4.429920
 20
3.773440
  0
VERTEX
  8
0
  6
CONTINUOUS
 10
4.454120
 20
3.809080
  0
VERTEX
  8
0
  6
CONTINUOUS
 10
4.483600
 20
3.838560
  0
VERTEX
  8
0
  6
CONTINUOUS
 10
4.517040
 20
3.861000
  0
VERTEX
  8
0
  6
CONTINUOUS
 10
4.553120
 20
3.876400
  0
VERTEX
  8
0
  6
CONTINUOUS
 10
4.591400
 20
3.885200
  0
VERTEX
  8
0
  6
CONTINUOUS
 10
4.630560
 20
3.886960
  0
VERTEX
  8
0
  6
CONTINUOUS
 10
4.669720
 20
3.881680
  0
VERTEX
  8
0
  6
CONTINUOUS
 10
4.708440
 20
3.869360
  0
VERTEX
  8
0
  6
CONTINUOUS
 10
4.744960
 20
3.850000
  0
VERTEX
  8
0
  6
CONTINUOUS
 10
4.778400
 20
3.823160
  0
VERTEX
  8
0
  6
CONTINUOUS
 10
4.808760
 20
3.789720
  0
VERTEX
  8
0
  6
CONTINUOUS
 10
4.833840
 20
3.748800
  0
VERTEX
  8
0
  6
CONTINUOUS
 10
4.853200
 20
3.700840
  0
VERTEX
  8
0
  6
CONTINUOUS
 10
5.041520
 20
3.700840
  0
VERTEX
  8
0
  6
CONTINUOUS
 10
5.054720
 20
3.603600
  0
VERTEX
  8
0
  6
CONTINUOUS
 10
5.885440
 20
3.603600
  0
VERTEX
  8
0
  6
CONTINUOUS
 10
5.902600
 20
3.542880
  0
VERTEX
  8
0
  6
CONTINUOUS
 10
5.928560
 20
3.493600
  0
VERTEX
  8
0
  6
CONTINUOUS
 10
5.961120
 20
3.455320
  0
VERTEX
  8
0
  6
CONTINUOUS
 10
5.998080
 20
3.426280
  0
VERTEX
  8
0
  6
CONTINUOUS
 10
6.036800
 20
3.405600
  0
VERTEX
  8
0
  6
CONTINUOUS
 10
6.075520
 20
3.391520
  0
VERTEX
  8
0
  6
CONTINUOUS
 10
6.111600
 20
3.383600
  0
VERTEX
  8
0
  6
CONTINUOUS
 10
6.143280
 20
3.380080
  0
VERTEX
  8
0
  6
CONTINUOUS
 10
6.143280
 20
3.159640
  0
SEQEND
  8
0
  0
TEXT
  8
0
 10
4.046240
 20
2.888600
 40
0.138129
  1
BA  1297
 41
1.000000
  7
SN0
 71
     0
 72
     5
 11
4.728010
 21
2.888600
  0
TEXT
  8
0
 10
3.817000
 20
2.696760
 40
0.138129
  1
1-1/16" x 3-1/2"
 41
1.000000
  7
SN0
 71
     0
 72
     5
 11
4.956134
 21
2.696760
  0
ENDSEC
  0
EOF
