  0
SECTION
  2
HEADER
  9
$ACADVER
  1
AC1006
  9
$EXTMIN
 10
2.497440
 20
1.520200
  9
$EXTMAX
 10
6.111160
 20
8.203800
  9
$LTSCALE
 40
0.044000
  9
$PDMODE
 70
    35
  9
$PDSIZE
 40
0.035200
  0
ENDSEC
  0
SECTION
  2
TABLES
  0
TABLE
  2
LTYPE
 70
     9
  0
LTYPE
  2
CONTINUOUS
 70
    64
  3
Solid line
 72
    65
 73
     0
 40
0.000000
  0
LTYPE
  2
DASHED
 70
    64
  3
__ __ __ __ __ __ __ __ __ __ __ __ __ __ __
 72
    65
 73
     2
 40
0.000330
 49
0.000220
 49
-0.000110
  0
LTYPE
  2
HIDDEN
 70
    64
  3
 _ _ _ _ _ _ _ _ _ _ _ _ _ _ _ _ _ _ _ _ _ _
 72
    65
 73
     2
 40
0.000165
 49
0.000110
 49
-0.000055
  0
LTYPE
  2
CENTER
 70
    64
  3
____ _ ____ _ ____ _ ____ _ ____ _ ____ _ ____
 72
    65
 73
     4
 40
0.000880
 49
0.000550
 49
-0.000110
 49
0.000110
 49
-0.000110
  0
LTYPE
  2
PHANTOM
 70
    64
  3
_____ _ _ _____ _ _ _____ _ _ _____ _ _ ____
 72
    65
 73
     6
 40
0.001100
 49
0.000550
 49
-0.000110
 49
0.000110
 49
-0.000110
 49
0.000110
 49
-0.000110
  0
LTYPE
  2
DOT
 70
    64
  3
...............................................
 72
    65
 73
     2
 40
0.000110
 49
0.000000
 49
-0.000110
  0
LTYPE
  2
DASHDOT
 70
    64
  3
__ . __ . __ . __ . __ . __ . __ . __ . __ . __
 72
    65
 73
     4
 40
0.000440
 49
0.000220
 49
-0.000110
 49
0.000000
 49
-0.000110
  0
LTYPE
  2
BORDER
 70
    64
  3
__ __ . __ __ . __ __ . __ __ . __ __ . __ __
 72
    65
 73
     6
 40
0.000770
 49
0.000220
 49
-0.000110
 49
0.000220
 49
-0.000110
 49
0.000000
 49
-0.000110
  0
LTYPE
  2
DIVIDE
 70
    64
  3
__ . . __ . . __ . . __ . . __ . . __ . . __
 72
    65
 73
     6
 40
0.000550
 49
0.000220
 49
-0.000110
 49
0.000000
 49
-0.000110
 49
0.000000
 49
-0.000110
  0
LTYPE
  2
DOTDOT
 70
    64
  3
 . .  . .  . .  . .  . .  . . 
 72
    65
 73
     5
 40
0.000242
 49
-0.000110
 49
0.000000
 49
-0.000110
 49
0.000000
 49
-0.000110
  0
ENDTAB
  0
TABLE
  2
STYLE
 70
     2
  0
STYLE
 70
     0
  2
SN0
 40
0.000000
 41
0.000440
 50
0.000000
 71
     0
 42
0.000000
  3
ROMAND
  0
STYLE
 70
    68
  2
SV0
 40
0.000000
 41
0.000440
 50
0.000000
 71
     0
 42
0.000000
  3
ROMAND
  0
ENDTAB
  0
TABLE
  2
LAYER
 70
     3
  0
LAYER
  2
FOREGROUND
 70
    64
 62
     7
  6
CONTINUOUS
  0
LAYER
  2
BACKGROUND
 70
    65
 62
    -7
  6
CONTINUOUS
  0
LAYER
  2
0
 70
    64
 62
     7
  6
CONTINUOUS
  0
ENDTAB
  0
ENDSEC
  0
SECTION
  2
ENTITIES
  0
POLYLINE
  8
FOREGROUND
  6
CONTINUOUS
 66
     1
 40
0.000000
 41
0.000000
  0
VERTEX
  8
FOREGROUND
  6
CONTINUOUS
 10
0.000000
 20
9.724000
  0
VERTEX
  8
FOREGROUND
  6
CONTINUOUS
 10
8.499920
 20
9.724000
  0
VERTEX
  8
FOREGROUND
  6
CONTINUOUS
 10
8.499920
 20
-1.276000
  0
VERTEX
  8
FOREGROUND
  6
CONTINUOUS
 10
0.000000
 20
-1.276000
  0
VERTEX
  8
FOREGROUND
  6
CONTINUOUS
 10
0.000000
 20
9.724000
  0
SEQEND
  8
0
  0
POLYLINE
  8
FOREGROUND
  6
CONTINUOUS
 66
     1
 40
0.000000
 41
0.000000
  0
VERTEX
  8
FOREGROUND
  6
CONTINUOUS
 10
0.000000
 20
9.724000
  0
VERTEX
  8
FOREGROUND
  6
CONTINUOUS
 10
8.499920
 20
9.724000
  0
VERTEX
  8
FOREGROUND
  6
CONTINUOUS
 10
8.499920
 20
-1.276000
  0
VERTEX
  8
FOREGROUND
  6
CONTINUOUS
 10
0.000000
 20
-1.276000
  0
VERTEX
  8
FOREGROUND
  6
CONTINUOUS
 10
0.000000
 20
9.724000
  0
SEQEND
  8
0
  0
POLYLINE
  8
0
  6
CONTINUOUS
 66
     1
 40
0.000000
 41
0.000000
  0
VERTEX
  8
0
  6
CONTINUOUS
 10
3.180320
 20
6.961680
  0
VERTEX
  8
0
  6
CONTINUOUS
 10
3.180320
 20
8.202920
  0
VERTEX
  8
0
  6
CONTINUOUS
 10
3.520880
 20
8.202920
  0
VERTEX
  8
0
  6
CONTINUOUS
 10
3.521320
 20
8.099960
  0
VERTEX
  8
0
  6
CONTINUOUS
 10
3.523960
 20
8.074440
  0
VERTEX
  8
0
  6
CONTINUOUS
 10
3.529680
 20
8.052880
  0
VERTEX
  8
0
  6
CONTINUOUS
 10
3.539800
 20
8.034400
  0
VERTEX
  8
0
  6
CONTINUOUS
 10
3.554760
 20
8.018120
  0
VERTEX
  8
0
  6
CONTINUOUS
 10
3.564440
 20
8.010640
  0
VERTEX
  8
0
  6
CONTINUOUS
 10
3.589520
 20
7.997440
  0
VERTEX
  8
0
  6
CONTINUOUS
 10
3.622960
 20
7.985120
  0
VERTEX
  8
0
  6
CONTINUOUS
 10
3.653760
 20
7.976760
  0
VERTEX
  8
0
  6
CONTINUOUS
 10
3.692480
 20
7.971920
  0
VERTEX
  8
0
  6
CONTINUOUS
 10
3.785320
 20
7.966200
  0
VERTEX
  8
0
  6
CONTINUOUS
 10
3.818760
 20
7.962680
  0
VERTEX
  8
0
  6
CONTINUOUS
 10
3.868920
 20
7.953000
  0
VERTEX
  8
0
  6
CONTINUOUS
 10
3.901040
 20
7.942880
  0
VERTEX
  8
0
  6
CONTINUOUS
 10
3.931840
 20
7.928360
  0
VERTEX
  8
0
  6
CONTINUOUS
 10
3.960000
 20
7.909440
  0
VERTEX
  8
0
  6
CONTINUOUS
 10
3.985080
 20
7.884800
  0
VERTEX
  8
0
  6
CONTINUOUS
 10
3.996520
 20
7.869840
  0
VERTEX
  8
0
  6
CONTINUOUS
 10
4.015880
 20
7.835520
  0
VERTEX
  8
0
  6
CONTINUOUS
 10
4.023800
 20
7.815720
  0
VERTEX
  8
0
  6
CONTINUOUS
 10
4.036120
 20
7.769520
  0
VERTEX
  8
0
  6
CONTINUOUS
 10
4.041400
 20
7.729920
  0
VERTEX
  8
0
  6
CONTINUOUS
 10
4.043160
 20
7.684600
  0
VERTEX
  8
0
  6
CONTINUOUS
 10
4.177800
 20
7.684600
  0
VERTEX
  8
0
  6
CONTINUOUS
 10
4.179120
 20
7.626960
  0
VERTEX
  8
0
  6
CONTINUOUS
 10
4.185280
 20
7.565800
  0
VERTEX
  8
0
  6
CONTINUOUS
 10
4.194520
 20
7.520920
  0
VERTEX
  8
0
  6
CONTINUOUS
 10
4.209480
 20
7.480440
  0
VERTEX
  8
0
  6
CONTINUOUS
 10
4.222680
 20
7.457120
  0
VERTEX
  8
0
  6
CONTINUOUS
 10
4.239400
 20
7.437760
  0
VERTEX
  8
0
  6
CONTINUOUS
 10
4.260080
 20
7.422800
  0
VERTEX
  8
0
  6
CONTINUOUS
 10
4.271960
 20
7.417080
  0
VERTEX
  8
0
  6
CONTINUOUS
 10
4.298360
 20
7.410480
  0
VERTEX
  8
0
  6
CONTINUOUS
 10
4.313760
 20
7.409600
  0
VERTEX
  8
0
  6
CONTINUOUS
 10
4.329600
 20
7.410480
  0
VERTEX
  8
0
  6
CONTINUOUS
 10
4.347200
 20
7.413120
  0
VERTEX
  8
0
  6
CONTINUOUS
 10
4.375800
 20
7.421040
  0
VERTEX
  8
0
  6
CONTINUOUS
 10
4.418920
 20
7.439080
  0
VERTEX
  8
0
  6
CONTINUOUS
 10
4.467760
 20
7.465920
  0
VERTEX
  8
0
  6
CONTINUOUS
 10
4.519240
 20
7.496720
  0
VERTEX
  8
0
  6
CONTINUOUS
 10
4.565440
 20
7.516520
  0
VERTEX
  8
0
  6
CONTINUOUS
 10
4.596680
 20
7.524440
  0
VERTEX
  8
0
  6
CONTINUOUS
 10
4.625280
 20
7.527080
  0
VERTEX
  8
0
  6
CONTINUOUS
 10
4.650800
 20
7.524880
  0
VERTEX
  8
0
  6
CONTINUOUS
 10
4.666640
 20
7.520920
  0
VERTEX
  8
0
  6
CONTINUOUS
 10
4.681160
 20
7.515640
  0
VERTEX
  8
0
  6
CONTINUOUS
 10
4.707560
 20
7.499800
  0
VERTEX
  8
0
  6
CONTINUOUS
 10
4.719000
 20
7.490120
  0
VERTEX
  8
0
  6
CONTINUOUS
 10
4.739240
 20
7.466800
  0
VERTEX
  8
0
  6
CONTINUOUS
 10
4.756400
 20
7.440400
  0
VERTEX
  8
0
  6
CONTINUOUS
 10
4.770480
 20
7.412240
  0
VERTEX
  8
0
  6
CONTINUOUS
 10
4.790720
 20
7.354160
  0
VERTEX
  8
0
  6
CONTINUOUS
 10
4.805240
 20
7.292120
  0
VERTEX
  8
0
  6
CONTINUOUS
 10
4.810960
 20
7.262640
  0
VERTEX
  8
0
  6
CONTINUOUS
 10
4.933720
 20
7.262640
  0
VERTEX
  8
0
  6
CONTINUOUS
 10
4.933720
 20
6.961680
  0
VERTEX
  8
0
  6
CONTINUOUS
 10
3.179000
 20
6.961680
  0
SEQEND
  8
0
  0
POLYLINE
  8
0
  6
CONTINUOUS
 66
     1
 40
0.000000
 41
0.000000
  0
VERTEX
  8
0
  6
CONTINUOUS
 10
3.739560
 20
3.273600
  0
VERTEX
  8
0
  6
CONTINUOUS
 10
2.497880
 20
3.273600
  0
VERTEX
  8
0
  6
CONTINUOUS
 10
2.497880
 20
2.933480
  0
VERTEX
  8
0
  6
CONTINUOUS
 10
2.601280
 20
2.933040
  0
VERTEX
  8
0
  6
CONTINUOUS
 10
2.626800
 20
2.930400
  0
VERTEX
  8
0
  6
CONTINUOUS
 10
2.648360
 20
2.924680
  0
VERTEX
  8
0
  6
CONTINUOUS
 10
2.666840
 20
2.914560
  0
VERTEX
  8
0
  6
CONTINUOUS
 10
2.683120
 20
2.899600
  0
VERTEX
  8
0
  6
CONTINUOUS
 10
2.697200
 20
2.878040
  0
VERTEX
  8
0
  6
CONTINUOUS
 10
2.709960
 20
2.849000
  0
VERTEX
  8
0
  6
CONTINUOUS
 10
2.721840
 20
2.811600
  0
VERTEX
  8
0
  6
CONTINUOUS
 10
2.728000
 20
2.775520
  0
VERTEX
  8
0
  6
CONTINUOUS
 10
2.735040
 20
2.668600
  0
VERTEX
  8
0
  6
CONTINUOUS
 10
2.738560
 20
2.635160
  0
VERTEX
  8
0
  6
CONTINUOUS
 10
2.744280
 20
2.601720
  0
VERTEX
  8
0
  6
CONTINUOUS
 10
2.758360
 20
2.552880
  0
VERTEX
  8
0
  6
CONTINUOUS
 10
2.772880
 20
2.522520
  0
VERTEX
  8
0
  6
CONTINUOUS
 10
2.791800
 20
2.493920
  0
VERTEX
  8
0
  6
CONTINUOUS
 10
2.816440
 20
2.468840
  0
VERTEX
  8
0
  6
CONTINUOUS
 10
2.847680
 20
2.447280
  0
VERTEX
  8
0
  6
CONTINUOUS
 10
2.865720
 20
2.438040
  0
VERTEX
  8
0
  6
CONTINUOUS
 10
2.885520
 20
2.430120
  0
VERTEX
  8
0
  6
CONTINUOUS
 10
2.931720
 20
2.417800
  0
VERTEX
  8
0
  6
CONTINUOUS
 10
2.971320
 20
2.412520
  0
VERTEX
  8
0
  6
CONTINUOUS
 10
3.016640
 20
2.410760
  0
VERTEX
  8
0
  6
CONTINUOUS
 10
3.016640
 20
2.276560
  0
VERTEX
  8
0
  6
CONTINUOUS
 10
3.074280
 20
2.275240
  0
VERTEX
  8
0
  6
CONTINUOUS
 10
3.135440
 20
2.269080
  0
VERTEX
  8
0
  6
CONTINUOUS
 10
3.180320
 20
2.259840
  0
VERTEX
  8
0
  6
CONTINUOUS
 10
3.220800
 20
2.244880
  0
VERTEX
  8
0
  6
CONTINUOUS
 10
3.244120
 20
2.231240
  0
VERTEX
  8
0
  6
CONTINUOUS
 10
3.263480
 20
2.214520
  0
VERTEX
  8
0
  6
CONTINUOUS
 10
3.271840
 20
2.204840
  0
VERTEX
  8
0
  6
CONTINUOUS
 10
3.284160
 20
2.182400
  0
VERTEX
  8
0
  6
CONTINUOUS
 10
3.288120
 20
2.169640
  0
VERTEX
  8
0
  6
CONTINUOUS
 10
3.290760
 20
2.155560
  0
VERTEX
  8
0
  6
CONTINUOUS
 10
3.291640
 20
2.140600
  0
VERTEX
  8
0
  6
CONTINUOUS
 10
3.290760
 20
2.124320
  0
VERTEX
  8
0
  6
CONTINUOUS
 10
3.288120
 20
2.106720
  0
VERTEX
  8
0
  6
CONTINUOUS
 10
3.276240
 20
2.068000
  0
VERTEX
  8
0
  6
CONTINUOUS
 10
3.256440
 20
2.023560
  0
VERTEX
  8
0
  6
CONTINUOUS
 10
3.204520
 20
1.935120
  0
VERTEX
  8
0
  6
CONTINUOUS
 10
3.184720
 20
1.888920
  0
VERTEX
  8
0
  6
CONTINUOUS
 10
3.176800
 20
1.857680
  0
VERTEX
  8
0
  6
CONTINUOUS
 10
3.174160
 20
1.829080
  0
VERTEX
  8
0
  6
CONTINUOUS
 10
3.176360
 20
1.803560
  0
VERTEX
  8
0
  6
CONTINUOUS
 10
3.185600
 20
1.773200
  0
VERTEX
  8
0
  6
CONTINUOUS
 10
3.201440
 20
1.746800
  0
VERTEX
  8
0
  6
CONTINUOUS
 10
3.211120
 20
1.735360
  0
VERTEX
  8
0
  6
CONTINUOUS
 10
3.234440
 20
1.715120
  0
VERTEX
  8
0
  6
CONTINUOUS
 10
3.260840
 20
1.697960
  0
VERTEX
  8
0
  6
CONTINUOUS
 10
3.289000
 20
1.683880
  0
VERTEX
  8
0
  6
CONTINUOUS
 10
3.332560
 20
1.667600
  0
VERTEX
  8
0
  6
CONTINUOUS
 10
3.386680
 20
1.653520
  0
VERTEX
  8
0
  6
CONTINUOUS
 10
3.438600
 20
1.642960
  0
VERTEX
  8
0
  6
CONTINUOUS
 10
3.438600
 20
1.520640
  0
VERTEX
  8
0
  6
CONTINUOUS
 10
3.739560
 20
1.520640
  0
VERTEX
  8
0
  6
CONTINUOUS
 10
3.739560
 20
3.275360
  0
SEQEND
  8
0
  0
POLYLINE
  8
0
  6
CONTINUOUS
 66
     1
 40
0.000000
 41
0.000000
  0
VERTEX
  8
0
  6
CONTINUOUS
 10
4.601960
 20
3.333440
  0
VERTEX
  8
0
  6
CONTINUOUS
 10
5.843200
 20
3.333440
  0
VERTEX
  8
0
  6
CONTINUOUS
 10
5.843200
 20
2.993320
  0
VERTEX
  8
0
  6
CONTINUOUS
 10
5.740240
 20
2.992880
  0
VERTEX
  8
0
  6
CONTINUOUS
 10
5.714720
 20
2.990240
  0
VERTEX
  8
0
  6
CONTINUOUS
 10
5.693160
 20
2.984520
  0
VERTEX
  8
0
  6
CONTINUOUS
 10
5.674240
 20
2.974400
  0
VERTEX
  8
0
  6
CONTINUOUS
 10
5.657960
 20
2.959000
  0
VERTEX
  8
0
  6
CONTINUOUS
 10
5.643880
 20
2.937440
  0
VERTEX
  8
0
  6
CONTINUOUS
 10
5.631120
 20
2.908400
  0
VERTEX
  8
0
  6
CONTINUOUS
 10
5.617040
 20
2.860000
  0
VERTEX
  8
0
  6
CONTINUOUS
 10
5.612200
 20
2.821280
  0
VERTEX
  8
0
  6
CONTINUOUS
 10
5.606480
 20
2.728440
  0
VERTEX
  8
0
  6
CONTINUOUS
 10
5.602960
 20
2.695000
  0
VERTEX
  8
0
  6
CONTINUOUS
 10
5.593280
 20
2.644840
  0
VERTEX
  8
0
  6
CONTINUOUS
 10
5.582720
 20
2.612720
  0
VERTEX
  8
0
  6
CONTINUOUS
 10
5.568640
 20
2.581920
  0
VERTEX
  8
0
  6
CONTINUOUS
 10
5.549280
 20
2.553760
  0
VERTEX
  8
0
  6
CONTINUOUS
 10
5.537840
 20
2.540560
  0
VERTEX
  8
0
  6
CONTINUOUS
 10
5.510120
 20
2.517240
  0
VERTEX
  8
0
  6
CONTINUOUS
 10
5.475800
 20
2.497880
  0
VERTEX
  8
0
  6
CONTINUOUS
 10
5.456000
 20
2.489960
  0
VERTEX
  8
0
  6
CONTINUOUS
 10
5.409800
 20
2.477640
  0
VERTEX
  8
0
  6
CONTINUOUS
 10
5.370200
 20
2.472360
  0
VERTEX
  8
0
  6
CONTINUOUS
 10
5.324880
 20
2.470600
  0
VERTEX
  8
0
  6
CONTINUOUS
 10
5.324880
 20
2.335960
  0
VERTEX
  8
0
  6
CONTINUOUS
 10
5.267240
 20
2.334640
  0
VERTEX
  8
0
  6
CONTINUOUS
 10
5.206080
 20
2.328480
  0
VERTEX
  8
0
  6
CONTINUOUS
 10
5.161200
 20
2.319240
  0
VERTEX
  8
0
  6
CONTINUOUS
 10
5.120720
 20
2.304280
  0
VERTEX
  8
0
  6
CONTINUOUS
 10
5.097400
 20
2.291080
  0
VERTEX
  8
0
  6
CONTINUOUS
 10
5.078040
 20
2.274360
  0
VERTEX
  8
0
  6
CONTINUOUS
 10
5.063080
 20
2.253680
  0
VERTEX
  8
0
  6
CONTINUOUS
 10
5.057360
 20
2.241800
  0
VERTEX
  8
0
  6
CONTINUOUS
 10
5.050760
 20
2.215400
  0
VERTEX
  8
0
  6
CONTINUOUS
 10
5.049880
 20
2.200000
  0
VERTEX
  8
0
  6
CONTINUOUS
 10
5.050760
 20
2.184160
  0
VERTEX
  8
0
  6
CONTINUOUS
 10
5.053400
 20
2.166560
  0
VERTEX
  8
0
  6
CONTINUOUS
 10
5.061320
 20
2.137960
  0
VERTEX
  8
0
  6
CONTINUOUS
 10
5.079360
 20
2.094840
  0
VERTEX
  8
0
  6
CONTINUOUS
 10
5.106200
 20
2.046000
  0
VERTEX
  8
0
  6
CONTINUOUS
 10
5.137000
 20
1.994520
  0
VERTEX
  8
0
  6
CONTINUOUS
 10
5.156800
 20
1.948320
  0
VERTEX
  8
0
  6
CONTINUOUS
 10
5.164720
 20
1.917080
  0
VERTEX
  8
0
  6
CONTINUOUS
 10
5.167360
 20
1.888480
  0
VERTEX
  8
0
  6
CONTINUOUS
 10
5.165160
 20
1.862960
  0
VERTEX
  8
0
  6
CONTINUOUS
 10
5.161200
 20
1.847120
  0
VERTEX
  8
0
  6
CONTINUOUS
 10
5.155920
 20
1.832600
  0
VERTEX
  8
0
  6
CONTINUOUS
 10
5.140080
 20
1.806200
  0
VERTEX
  8
0
  6
CONTINUOUS
 10
5.118960
 20
1.784200
  0
VERTEX
  8
0
  6
CONTINUOUS
 10
5.094320
 20
1.765280
  0
VERTEX
  8
0
  6
CONTINUOUS
 10
5.052520
 20
1.743280
  0
VERTEX
  8
0
  6
CONTINUOUS
 10
4.994440
 20
1.723040
  0
VERTEX
  8
0
  6
CONTINUOUS
 10
4.932400
 20
1.708520
  0
VERTEX
  8
0
  6
CONTINUOUS
 10
4.902920
 20
1.702800
  0
VERTEX
  8
0
  6
CONTINUOUS
 10
4.902920
 20
1.580040
  0
VERTEX
  8
0
  6
CONTINUOUS
 10
4.601960
 20
1.580040
  0
VERTEX
  8
0
  6
CONTINUOUS
 10
4.601960
 20
3.334760
  0
SEQEND
  8
0
  0
TEXT
  8
0
 10
3.547280
 20
7.247680
 40
0.138161
  1
BA  1296
 41
1.000000
  7
SN0
 71
     0
 72
     5
 11
4.229341
 21
7.247680
  0
TEXT
  8
0
 10
3.363800
 20
7.055840
 40
0.138161
  1
1-1/4" x 1-3/4"
 41
1.000000
  7
SN0
 71
     0
 72
     5
 11
4.411454
 21
7.055840
  0
SOLID
  8
0
 62
    15
 10
4.081440
 20
5.186720
 11
4.731760
 21
4.813160
 12
4.031720
 22
5.162520
 13
4.682040
 23
4.788960
  0
POLYLINE
  8
0
  6
CONTINUOUS
 66
     1
 40
0.000000
 41
0.000000
  0
VERTEX
  8
0
  6
CONTINUOUS
 10
4.081440
 20
5.186720
  0
VERTEX
  8
0
  6
CONTINUOUS
 10
4.731760
 20
4.813160
  0
VERTEX
  8
0
  6
CONTINUOUS
 10
4.682040
 20
4.788960
  0
VERTEX
  8
0
  6
CONTINUOUS
 10
4.031720
 20
5.162520
  0
VERTEX
  8
0
  6
CONTINUOUS
 10
4.081440
 20
5.186720
  0
SEQEND
  8
0
  0
SOLID
  8
0
 62
    15
 10
4.777520
 20
5.864760
 11
5.427840
 21
5.491200
 12
4.703600
 22
5.864760
 13
5.353480
 23
5.491200
  0
POLYLINE
  8
0
  6
CONTINUOUS
 66
     1
 40
0.000000
 41
0.000000
  0
VERTEX
  8
0
  6
CONTINUOUS
 10
4.777520
 20
5.864760
  0
VERTEX
  8
0
  6
CONTINUOUS
 10
5.427840
 20
5.491200
  0
VERTEX
  8
0
  6
CONTINUOUS
 10
5.353480
 20
5.491200
  0
VERTEX
  8
0
  6
CONTINUOUS
 10
4.703600
 20
5.864760
  0
VERTEX
  8
0
  6
CONTINUOUS
 10
4.777520
 20
5.864760
  0
SEQEND
  8
0
  0
SOLID
  8
0
 62
    15
 10
4.703600
 20
5.864760
 11
5.353480
 21
5.491200
 12
4.649040
 22
5.861680
 13
5.299360
 23
5.488120
  0
POLYLINE
  8
0
  6
CONTINUOUS
 66
     1
 40
0.000000
 41
0.000000
  0
VERTEX
  8
0
  6
CONTINUOUS
 10
4.703600
 20
5.864760
  0
VERTEX
  8
0
  6
CONTINUOUS
 10
5.353480
 20
5.491200
  0
VERTEX
  8
0
  6
CONTINUOUS
 10
5.299360
 20
5.488120
  0
VERTEX
  8
0
  6
CONTINUOUS
 10
4.649040
 20
5.861680
  0
VERTEX
  8
0
  6
CONTINUOUS
 10
4.703600
 20
5.864760
  0
SEQEND
  8
0
  0
SOLID
  8
0
 62
    15
 10
4.649040
 20
5.861680
 11
5.299360
 21
5.488120
 12
4.608560
 22
5.845840
 13
5.258880
 23
5.472280
  0
POLYLINE
  8
0
  6
CONTINUOUS
 66
     1
 40
0.000000
 41
0.000000
  0
VERTEX
  8
0
  6
CONTINUOUS
 10
4.649040
 20
5.861680
  0
VERTEX
  8
0
  6
CONTINUOUS
 10
5.299360
 20
5.488120
  0
VERTEX
  8
0
  6
CONTINUOUS
 10
5.258880
 20
5.472280
  0
VERTEX
  8
0
  6
CONTINUOUS
 10
4.608560
 20
5.845840
  0
VERTEX
  8
0
  6
CONTINUOUS
 10
4.649040
 20
5.861680
  0
SEQEND
  8
0
  0
SOLID
  8
0
 62
    15
 10
4.608560
 20
5.845840
 11
5.258880
 21
5.472280
 12
4.592280
 22
5.830880
 13
5.242600
 23
5.457320
  0
POLYLINE
  8
0
  6
CONTINUOUS
 66
     1
 40
0.000000
 41
0.000000
  0
VERTEX
  8
0
  6
CONTINUOUS
 10
4.608560
 20
5.845840
  0
VERTEX
  8
0
  6
CONTINUOUS
 10
5.258880
 20
5.472280
  0
VERTEX
  8
0
  6
CONTINUOUS
 10
5.242600
 20
5.457320
  0
VERTEX
  8
0
  6
CONTINUOUS
 10
4.592280
 20
5.830880
  0
VERTEX
  8
0
  6
CONTINUOUS
 10
4.608560
 20
5.845840
  0
SEQEND
  8
0
  0
SOLID
  8
0
 62
    15
 10
4.592280
 20
5.830880
 11
5.242600
 21
5.457320
 12
4.578200
 22
5.809320
 13
5.228520
 23
5.435760
  0
POLYLINE
  8
0
  6
CONTINUOUS
 66
     1
 40
0.000000
 41
0.000000
  0
VERTEX
  8
0
  6
CONTINUOUS
 10
4.592280
 20
5.830880
  0
VERTEX
  8
0
  6
CONTINUOUS
 10
5.242600
 20
5.457320
  0
VERTEX
  8
0
  6
CONTINUOUS
 10
5.228520
 20
5.435760
  0
VERTEX
  8
0
  6
CONTINUOUS
 10
4.578200
 20
5.809320
  0
VERTEX
  8
0
  6
CONTINUOUS
 10
4.592280
 20
5.830880
  0
SEQEND
  8
0
  0
SOLID
  8
0
 62
    15
 10
4.578200
 20
5.809320
 11
5.228520
 21
5.435760
 12
4.565440
 22
5.780280
 13
5.215760
 23
5.406720
  0
POLYLINE
  8
0
  6
CONTINUOUS
 66
     1
 40
0.000000
 41
0.000000
  0
VERTEX
  8
0
  6
CONTINUOUS
 10
4.578200
 20
5.809320
  0
VERTEX
  8
0
  6
CONTINUOUS
 10
5.228520
 20
5.435760
  0
VERTEX
  8
0
  6
CONTINUOUS
 10
5.215760
 20
5.406720
  0
VERTEX
  8
0
  6
CONTINUOUS
 10
4.565440
 20
5.780280
  0
VERTEX
  8
0
  6
CONTINUOUS
 10
4.578200
 20
5.809320
  0
SEQEND
  8
0
  0
SOLID
  8
0
 62
    15
 10
4.565440
 20
5.780280
 11
5.215760
 21
5.406720
 12
4.554000
 22
5.742880
 13
5.204320
 23
5.369320
  0
POLYLINE
  8
0
  6
CONTINUOUS
 66
     1
 40
0.000000
 41
0.000000
  0
VERTEX
  8
0
  6
CONTINUOUS
 10
4.565440
 20
5.780280
  0
VERTEX
  8
0
  6
CONTINUOUS
 10
5.215760
 20
5.406720
  0
VERTEX
  8
0
  6
CONTINUOUS
 10
5.204320
 20
5.369320
  0
VERTEX
  8
0
  6
CONTINUOUS
 10
4.554000
 20
5.742880
  0
VERTEX
  8
0
  6
CONTINUOUS
 10
4.565440
 20
5.780280
  0
SEQEND
  8
0
  0
SOLID
  8
0
 62
    15
 10
4.554000
 20
5.742880
 11
5.204320
 21
5.369320
 12
4.546520
 22
5.693160
 13
5.196840
 23
5.319600
  0
POLYLINE
  8
0
  6
CONTINUOUS
 66
     1
 40
0.000000
 41
0.000000
  0
VERTEX
  8
0
  6
CONTINUOUS
 10
4.554000
 20
5.742880
  0
VERTEX
  8
0
  6
CONTINUOUS
 10
5.204320
 20
5.369320
  0
VERTEX
  8
0
  6
CONTINUOUS
 10
5.196840
 20
5.319600
  0
VERTEX
  8
0
  6
CONTINUOUS
 10
4.546520
 20
5.693160
  0
VERTEX
  8
0
  6
CONTINUOUS
 10
4.554000
 20
5.742880
  0
SEQEND
  8
0
  0
SOLID
  8
0
 62
    15
 10
4.546520
 20
5.693160
 11
5.196840
 21
5.319600
 12
4.544760
 22
5.664120
 13
5.195080
 23
5.290560
  0
POLYLINE
  8
0
  6
CONTINUOUS
 66
     1
 40
0.000000
 41
0.000000
  0
VERTEX
  8
0
  6
CONTINUOUS
 10
4.546520
 20
5.693160
  0
VERTEX
  8
0
  6
CONTINUOUS
 10
5.196840
 20
5.319600
  0
VERTEX
  8
0
  6
CONTINUOUS
 10
5.195080
 20
5.290560
  0
VERTEX
  8
0
  6
CONTINUOUS
 10
4.544760
 20
5.664120
  0
VERTEX
  8
0
  6
CONTINUOUS
 10
4.546520
 20
5.693160
  0
SEQEND
  8
0
  0
SOLID
  8
0
 62
    15
 10
4.544760
 20
5.664120
 11
5.195080
 21
5.290560
 12
4.543000
 22
5.632880
 13
5.193320
 23
5.259320
  0
POLYLINE
  8
0
  6
CONTINUOUS
 66
     1
 40
0.000000
 41
0.000000
  0
VERTEX
  8
0
  6
CONTINUOUS
 10
4.544760
 20
5.664120
  0
VERTEX
  8
0
  6
CONTINUOUS
 10
5.195080
 20
5.290560
  0
VERTEX
  8
0
  6
CONTINUOUS
 10
5.193320
 20
5.259320
  0
VERTEX
  8
0
  6
CONTINUOUS
 10
4.543000
 20
5.632880
  0
VERTEX
  8
0
  6
CONTINUOUS
 10
4.544760
 20
5.664120
  0
SEQEND
  8
0
  0
SOLID
  8
0
 62
    15
 10
4.543000
 20
5.632880
 11
5.193320
 21
5.259320
 12
4.536840
 22
5.566440
 13
5.187160
 23
5.192880
  0
POLYLINE
  8
0
  6
CONTINUOUS
 66
     1
 40
0.000000
 41
0.000000
  0
VERTEX
  8
0
  6
CONTINUOUS
 10
4.543000
 20
5.632880
  0
VERTEX
  8
0
  6
CONTINUOUS
 10
5.193320
 20
5.259320
  0
VERTEX
  8
0
  6
CONTINUOUS
 10
5.187160
 20
5.192880
  0
VERTEX
  8
0
  6
CONTINUOUS
 10
4.536840
 20
5.566440
  0
VERTEX
  8
0
  6
CONTINUOUS
 10
4.543000
 20
5.632880
  0
SEQEND
  8
0
  0
SOLID
  8
0
 62
    15
 10
4.536840
 20
5.566440
 11
5.187160
 21
5.192880
 12
4.522760
 22
5.500440
 13
5.173080
 23
5.126880
  0
POLYLINE
  8
0
  6
CONTINUOUS
 66
     1
 40
0.000000
 41
0.000000
  0
VERTEX
  8
0
  6
CONTINUOUS
 10
4.536840
 20
5.566440
  0
VERTEX
  8
0
  6
CONTINUOUS
 10
5.187160
 20
5.192880
  0
VERTEX
  8
0
  6
CONTINUOUS
 10
5.173080
 20
5.126880
  0
VERTEX
  8
0
  6
CONTINUOUS
 10
4.522760
 20
5.500440
  0
VERTEX
  8
0
  6
CONTINUOUS
 10
4.536840
 20
5.566440
  0
SEQEND
  8
0
  0
SOLID
  8
0
 62
    15
 10
4.522760
 20
5.500440
 11
5.173080
 21
5.126880
 12
4.493720
 22
5.439280
 13
5.144040
 23
5.065720
  0
POLYLINE
  8
0
  6
CONTINUOUS
 66
     1
 40
0.000000
 41
0.000000
  0
VERTEX
  8
0
  6
CONTINUOUS
 10
4.522760
 20
5.500440
  0
VERTEX
  8
0
  6
CONTINUOUS
 10
5.173080
 20
5.126880
  0
VERTEX
  8
0
  6
CONTINUOUS
 10
5.144040
 20
5.065720
  0
VERTEX
  8
0
  6
CONTINUOUS
 10
4.493720
 20
5.439280
  0
VERTEX
  8
0
  6
CONTINUOUS
 10
4.522760
 20
5.500440
  0
SEQEND
  8
0
  0
SOLID
  8
0
 62
    15
 10
4.493720
 20
5.439280
 11
5.144040
 21
5.065720
 12
4.472160
 22
5.412440
 13
5.122480
 23
5.038880
  0
POLYLINE
  8
0
  6
CONTINUOUS
 66
     1
 40
0.000000
 41
0.000000
  0
VERTEX
  8
0
  6
CONTINUOUS
 10
4.493720
 20
5.439280
  0
VERTEX
  8
0
  6
CONTINUOUS
 10
5.144040
 20
5.065720
  0
VERTEX
  8
0
  6
CONTINUOUS
 10
5.122480
 20
5.038880
  0
VERTEX
  8
0
  6
CONTINUOUS
 10
4.472160
 20
5.412440
  0
VERTEX
  8
0
  6
CONTINUOUS
 10
4.493720
 20
5.439280
  0
SEQEND
  8
0
  0
SOLID
  8
0
 62
    15
 10
4.472160
 20
5.412440
 11
5.122480
 21
5.038880
 12
4.444440
 22
5.389120
 13
5.094760
 23
5.015560
  0
POLYLINE
  8
0
  6
CONTINUOUS
 66
     1
 40
0.000000
 41
0.000000
  0
VERTEX
  8
0
  6
CONTINUOUS
 10
4.472160
 20
5.412440
  0
VERTEX
  8
0
  6
CONTINUOUS
 10
5.122480
 20
5.038880
  0
VERTEX
  8
0
  6
CONTINUOUS
 10
5.094760
 20
5.015560
  0
VERTEX
  8
0
  6
CONTINUOUS
 10
4.444440
 20
5.389120
  0
VERTEX
  8
0
  6
CONTINUOUS
 10
4.472160
 20
5.412440
  0
SEQEND
  8
0
  0
SOLID
  8
0
 62
    15
 10
4.444440
 20
5.389120
 11
5.094760
 21
5.015560
 12
4.410120
 22
5.369320
 13
5.060000
 23
4.995760
  0
POLYLINE
  8
0
  6
CONTINUOUS
 66
     1
 40
0.000000
 41
0.000000
  0
VERTEX
  8
0
  6
CONTINUOUS
 10
4.444440
 20
5.389120
  0
VERTEX
  8
0
  6
CONTINUOUS
 10
5.094760
 20
5.015560
  0
VERTEX
  8
0
  6
CONTINUOUS
 10
5.060000
 20
4.995760
  0
VERTEX
  8
0
  6
CONTINUOUS
 10
4.410120
 20
5.369320
  0
VERTEX
  8
0
  6
CONTINUOUS
 10
4.444440
 20
5.389120
  0
SEQEND
  8
0
  0
SOLID
  8
0
 62
    15
 10
4.410120
 20
5.369320
 11
5.060000
 21
4.995760
 12
4.367880
 22
5.354800
 13
5.018200
 23
4.981240
  0
POLYLINE
  8
0
  6
CONTINUOUS
 66
     1
 40
0.000000
 41
0.000000
  0
VERTEX
  8
0
  6
CONTINUOUS
 10
4.410120
 20
5.369320
  0
VERTEX
  8
0
  6
CONTINUOUS
 10
5.060000
 20
4.995760
  0
VERTEX
  8
0
  6
CONTINUOUS
 10
5.018200
 20
4.981240
  0
VERTEX
  8
0
  6
CONTINUOUS
 10
4.367880
 20
5.354800
  0
VERTEX
  8
0
  6
CONTINUOUS
 10
4.410120
 20
5.369320
  0
SEQEND
  8
0
  0
SOLID
  8
0
 62
    15
 10
4.367880
 20
5.354800
 11
5.018200
 21
4.981240
 12
4.318160
 22
5.345560
 13
4.968480
 23
4.972000
  0
POLYLINE
  8
0
  6
CONTINUOUS
 66
     1
 40
0.000000
 41
0.000000
  0
VERTEX
  8
0
  6
CONTINUOUS
 10
4.367880
 20
5.354800
  0
VERTEX
  8
0
  6
CONTINUOUS
 10
5.018200
 20
4.981240
  0
VERTEX
  8
0
  6
CONTINUOUS
 10
4.968480
 20
4.972000
  0
VERTEX
  8
0
  6
CONTINUOUS
 10
4.318160
 20
5.345560
  0
VERTEX
  8
0
  6
CONTINUOUS
 10
4.367880
 20
5.354800
  0
SEQEND
  8
0
  0
SOLID
  8
0
 62
    15
 10
4.318160
 20
5.345560
 11
4.968480
 21
4.972000
 12
4.258760
 22
5.342040
 13
4.909080
 23
4.968480
  0
POLYLINE
  8
0
  6
CONTINUOUS
 66
     1
 40
0.000000
 41
0.000000
  0
VERTEX
  8
0
  6
CONTINUOUS
 10
4.318160
 20
5.345560
  0
VERTEX
  8
0
  6
CONTINUOUS
 10
4.968480
 20
4.972000
  0
VERTEX
  8
0
  6
CONTINUOUS
 10
4.909080
 20
4.968480
  0
VERTEX
  8
0
  6
CONTINUOUS
 10
4.258760
 20
5.342040
  0
VERTEX
  8
0
  6
CONTINUOUS
 10
4.318160
 20
5.345560
  0
SEQEND
  8
0
  0
SOLID
  8
0
 62
    15
 10
4.258760
 20
5.342040
 11
4.909080
 21
4.968480
 12
4.259200
 22
5.207400
 13
4.909520
 23
4.833840
  0
POLYLINE
  8
0
  6
CONTINUOUS
 66
     1
 40
0.000000
 41
0.000000
  0
VERTEX
  8
0
  6
CONTINUOUS
 10
4.258760
 20
5.342040
  0
VERTEX
  8
0
  6
CONTINUOUS
 10
4.909080
 20
4.968480
  0
VERTEX
  8
0
  6
CONTINUOUS
 10
4.909520
 20
4.833840
  0
VERTEX
  8
0
  6
CONTINUOUS
 10
4.259200
 20
5.207400
  0
VERTEX
  8
0
  6
CONTINUOUS
 10
4.258760
 20
5.342040
  0
SEQEND
  8
0
  0
SOLID
  8
0
 62
    15
 10
4.259200
 20
5.207400
 11
4.909520
 21
4.833840
 12
4.201560
 22
5.206080
 13
4.851880
 23
4.832520
  0
POLYLINE
  8
0
  6
CONTINUOUS
 66
     1
 40
0.000000
 41
0.000000
  0
VERTEX
  8
0
  6
CONTINUOUS
 10
4.259200
 20
5.207400
  0
VERTEX
  8
0
  6
CONTINUOUS
 10
4.909520
 20
4.833840
  0
VERTEX
  8
0
  6
CONTINUOUS
 10
4.851880
 20
4.832520
  0
VERTEX
  8
0
  6
CONTINUOUS
 10
4.201560
 20
5.206080
  0
VERTEX
  8
0
  6
CONTINUOUS
 10
4.259200
 20
5.207400
  0
SEQEND
  8
0
  0
SOLID
  8
0
 62
    15
 10
4.201560
 20
5.206080
 11
4.851880
 21
4.832520
 12
4.140400
 22
5.199920
 13
4.790720
 23
4.826360
  0
POLYLINE
  8
0
  6
CONTINUOUS
 66
     1
 40
0.000000
 41
0.000000
  0
VERTEX
  8
0
  6
CONTINUOUS
 10
4.201560
 20
5.206080
  0
VERTEX
  8
0
  6
CONTINUOUS
 10
4.851880
 20
4.832520
  0
VERTEX
  8
0
  6
CONTINUOUS
 10
4.790720
 20
4.826360
  0
VERTEX
  8
0
  6
CONTINUOUS
 10
4.140400
 20
5.199920
  0
VERTEX
  8
0
  6
CONTINUOUS
 10
4.201560
 20
5.206080
  0
SEQEND
  8
0
  0
SOLID
  8
0
 62
    15
 10
4.140400
 20
5.199920
 11
4.790720
 21
4.826360
 12
4.081440
 22
5.186720
 13
4.731760
 23
4.813160
  0
POLYLINE
  8
0
  6
CONTINUOUS
 66
     1
 40
0.000000
 41
0.000000
  0
VERTEX
  8
0
  6
CONTINUOUS
 10
4.140400
 20
5.199920
  0
VERTEX
  8
0
  6
CONTINUOUS
 10
4.790720
 20
4.826360
  0
VERTEX
  8
0
  6
CONTINUOUS
 10
4.731760
 20
4.813160
  0
VERTEX
  8
0
  6
CONTINUOUS
 10
4.081440
 20
5.186720
  0
VERTEX
  8
0
  6
CONTINUOUS
 10
4.140400
 20
5.199920
  0
SEQEND
  8
0
  0
SOLID
  8
0
 62
    15
 10
4.777520
 20
6.204880
 11
5.427840
 21
5.831320
 12
4.777520
 22
5.864760
 13
5.427840
 23
5.491200
  0
POLYLINE
  8
0
  6
CONTINUOUS
 66
     1
 40
0.000000
 41
0.000000
  0
VERTEX
  8
0
  6
CONTINUOUS
 10
4.777520
 20
6.204880
  0
VERTEX
  8
0
  6
CONTINUOUS
 10
5.427840
 20
5.831320
  0
VERTEX
  8
0
  6
CONTINUOUS
 10
5.427840
 20
5.491200
  0
VERTEX
  8
0
  6
CONTINUOUS
 10
4.777520
 20
5.864760
  0
VERTEX
  8
0
  6
CONTINUOUS
 10
4.777520
 20
6.204880
  0
SEQEND
  8
0
  0
SOLID
  8
0
 62
    15
 10
4.031720
 20
5.162520
 11
4.682040
 21
4.788960
 12
4.011920
 22
5.145800
 13
4.662240
 23
4.772240
  0
POLYLINE
  8
0
  6
CONTINUOUS
 66
     1
 40
0.000000
 41
0.000000
  0
VERTEX
  8
0
  6
CONTINUOUS
 10
4.031720
 20
5.162520
  0
VERTEX
  8
0
  6
CONTINUOUS
 10
4.682040
 20
4.788960
  0
VERTEX
  8
0
  6
CONTINUOUS
 10
4.662240
 20
4.772240
  0
VERTEX
  8
0
  6
CONTINUOUS
 10
4.011920
 20
5.145800
  0
VERTEX
  8
0
  6
CONTINUOUS
 10
4.031720
 20
5.162520
  0
SEQEND
  8
0
  0
SOLID
  8
0
 62
    15
 10
4.011920
 20
5.145800
 11
4.662240
 21
4.772240
 12
3.996960
 22
5.125560
 13
4.647280
 23
4.752000
  0
POLYLINE
  8
0
  6
CONTINUOUS
 66
     1
 40
0.000000
 41
0.000000
  0
VERTEX
  8
0
  6
CONTINUOUS
 10
4.011920
 20
5.145800
  0
VERTEX
  8
0
  6
CONTINUOUS
 10
4.662240
 20
4.772240
  0
VERTEX
  8
0
  6
CONTINUOUS
 10
4.647280
 20
4.752000
  0
VERTEX
  8
0
  6
CONTINUOUS
 10
3.996960
 20
5.125560
  0
VERTEX
  8
0
  6
CONTINUOUS
 10
4.011920
 20
5.145800
  0
SEQEND
  8
0
  0
SOLID
  8
0
 62
    15
 10
3.996960
 20
5.125560
 11
4.647280
 21
4.752000
 12
3.987720
 22
5.100920
 13
4.637600
 23
4.727360
  0
POLYLINE
  8
0
  6
CONTINUOUS
 66
     1
 40
0.000000
 41
0.000000
  0
VERTEX
  8
0
  6
CONTINUOUS
 10
3.996960
 20
5.125560
  0
VERTEX
  8
0
  6
CONTINUOUS
 10
4.647280
 20
4.752000
  0
VERTEX
  8
0
  6
CONTINUOUS
 10
4.637600
 20
4.727360
  0
VERTEX
  8
0
  6
CONTINUOUS
 10
3.987720
 20
5.100920
  0
VERTEX
  8
0
  6
CONTINUOUS
 10
3.996960
 20
5.125560
  0
SEQEND
  8
0
  0
SOLID
  8
0
 62
    15
 10
3.987720
 20
5.100920
 11
4.637600
 21
4.727360
 12
3.984200
 22
5.071880
 13
4.634520
 23
4.698320
  0
POLYLINE
  8
0
  6
CONTINUOUS
 66
     1
 40
0.000000
 41
0.000000
  0
VERTEX
  8
0
  6
CONTINUOUS
 10
3.987720
 20
5.100920
  0
VERTEX
  8
0
  6
CONTINUOUS
 10
4.637600
 20
4.727360
  0
VERTEX
  8
0
  6
CONTINUOUS
 10
4.634520
 20
4.698320
  0
VERTEX
  8
0
  6
CONTINUOUS
 10
3.984200
 20
5.071880
  0
VERTEX
  8
0
  6
CONTINUOUS
 10
3.987720
 20
5.100920
  0
SEQEND
  8
0
  0
SOLID
  8
0
 62
    15
 10
3.984200
 20
5.071880
 11
4.634520
 21
4.698320
 12
3.987720
 22
5.038000
 13
4.638040
 23
4.664440
  0
POLYLINE
  8
0
  6
CONTINUOUS
 66
     1
 40
0.000000
 41
0.000000
  0
VERTEX
  8
0
  6
CONTINUOUS
 10
3.984200
 20
5.071880
  0
VERTEX
  8
0
  6
CONTINUOUS
 10
4.634520
 20
4.698320
  0
VERTEX
  8
0
  6
CONTINUOUS
 10
4.638040
 20
4.664440
  0
VERTEX
  8
0
  6
CONTINUOUS
 10
3.987720
 20
5.038000
  0
VERTEX
  8
0
  6
CONTINUOUS
 10
3.984200
 20
5.071880
  0
SEQEND
  8
0
  0
SOLID
  8
0
 62
    15
 10
3.987720
 20
5.038000
 11
4.638040
 21
4.664440
 12
3.999160
 22
4.999280
 13
4.649480
 23
4.625720
  0
POLYLINE
  8
0
  6
CONTINUOUS
 66
     1
 40
0.000000
 41
0.000000
  0
VERTEX
  8
0
  6
CONTINUOUS
 10
3.987720
 20
5.038000
  0
VERTEX
  8
0
  6
CONTINUOUS
 10
4.638040
 20
4.664440
  0
VERTEX
  8
0
  6
CONTINUOUS
 10
4.649480
 20
4.625720
  0
VERTEX
  8
0
  6
CONTINUOUS
 10
3.999160
 20
4.999280
  0
VERTEX
  8
0
  6
CONTINUOUS
 10
3.987720
 20
5.038000
  0
SEQEND
  8
0
  0
SOLID
  8
0
 62
    15
 10
3.999160
 20
4.999280
 11
4.649480
 21
4.625720
 12
4.019400
 22
4.954840
 13
4.669280
 23
4.581280
  0
POLYLINE
  8
0
  6
CONTINUOUS
 66
     1
 40
0.000000
 41
0.000000
  0
VERTEX
  8
0
  6
CONTINUOUS
 10
3.999160
 20
4.999280
  0
VERTEX
  8
0
  6
CONTINUOUS
 10
4.649480
 20
4.625720
  0
VERTEX
  8
0
  6
CONTINUOUS
 10
4.669280
 20
4.581280
  0
VERTEX
  8
0
  6
CONTINUOUS
 10
4.019400
 20
4.954840
  0
VERTEX
  8
0
  6
CONTINUOUS
 10
3.999160
 20
4.999280
  0
SEQEND
  8
0
  0
SOLID
  8
0
 62
    15
 10
4.019400
 20
4.954840
 11
4.669280
 21
4.581280
 12
4.048880
 22
4.904680
 13
4.698760
 23
4.531120
  0
POLYLINE
  8
0
  6
CONTINUOUS
 66
     1
 40
0.000000
 41
0.000000
  0
VERTEX
  8
0
  6
CONTINUOUS
 10
4.019400
 20
4.954840
  0
VERTEX
  8
0
  6
CONTINUOUS
 10
4.669280
 20
4.581280
  0
VERTEX
  8
0
  6
CONTINUOUS
 10
4.698760
 20
4.531120
  0
VERTEX
  8
0
  6
CONTINUOUS
 10
4.048880
 20
4.904680
  0
VERTEX
  8
0
  6
CONTINUOUS
 10
4.019400
 20
4.954840
  0
SEQEND
  8
0
  0
SOLID
  8
0
 62
    15
 10
4.048880
 20
4.904680
 11
4.698760
 21
4.531120
 12
4.077040
 22
4.854080
 13
4.727360
 23
4.480520
  0
POLYLINE
  8
0
  6
CONTINUOUS
 66
     1
 40
0.000000
 41
0.000000
  0
VERTEX
  8
0
  6
CONTINUOUS
 10
4.048880
 20
4.904680
  0
VERTEX
  8
0
  6
CONTINUOUS
 10
4.698760
 20
4.531120
  0
VERTEX
  8
0
  6
CONTINUOUS
 10
4.727360
 20
4.480520
  0
VERTEX
  8
0
  6
CONTINUOUS
 10
4.077040
 20
4.854080
  0
VERTEX
  8
0
  6
CONTINUOUS
 10
4.048880
 20
4.904680
  0
SEQEND
  8
0
  0
SOLID
  8
0
 62
    15
 10
4.077040
 20
4.854080
 11
4.727360
 21
4.480520
 12
4.094200
 22
4.809200
 13
4.744520
 23
4.435640
  0
POLYLINE
  8
0
  6
CONTINUOUS
 66
     1
 40
0.000000
 41
0.000000
  0
VERTEX
  8
0
  6
CONTINUOUS
 10
4.077040
 20
4.854080
  0
VERTEX
  8
0
  6
CONTINUOUS
 10
4.727360
 20
4.480520
  0
VERTEX
  8
0
  6
CONTINUOUS
 10
4.744520
 20
4.435640
  0
VERTEX
  8
0
  6
CONTINUOUS
 10
4.094200
 20
4.809200
  0
VERTEX
  8
0
  6
CONTINUOUS
 10
4.077040
 20
4.854080
  0
SEQEND
  8
0
  0
SOLID
  8
0
 62
    15
 10
4.094200
 20
4.809200
 11
4.744520
 21
4.435640
 12
4.101240
 22
4.769600
 13
4.751120
 23
4.396040
  0
POLYLINE
  8
0
  6
CONTINUOUS
 66
     1
 40
0.000000
 41
0.000000
  0
VERTEX
  8
0
  6
CONTINUOUS
 10
4.094200
 20
4.809200
  0
VERTEX
  8
0
  6
CONTINUOUS
 10
4.744520
 20
4.435640
  0
VERTEX
  8
0
  6
CONTINUOUS
 10
4.751120
 20
4.396040
  0
VERTEX
  8
0
  6
CONTINUOUS
 10
4.101240
 20
4.769600
  0
VERTEX
  8
0
  6
CONTINUOUS
 10
4.094200
 20
4.809200
  0
SEQEND
  8
0
  0
SOLID
  8
0
 62
    15
 10
4.101240
 20
4.769600
 11
4.751120
 21
4.396040
 12
4.099480
 22
4.734400
 13
4.749360
 23
4.360840
  0
POLYLINE
  8
0
  6
CONTINUOUS
 66
     1
 40
0.000000
 41
0.000000
  0
VERTEX
  8
0
  6
CONTINUOUS
 10
4.101240
 20
4.769600
  0
VERTEX
  8
0
  6
CONTINUOUS
 10
4.751120
 20
4.396040
  0
VERTEX
  8
0
  6
CONTINUOUS
 10
4.749360
 20
4.360840
  0
VERTEX
  8
0
  6
CONTINUOUS
 10
4.099480
 20
4.734400
  0
VERTEX
  8
0
  6
CONTINUOUS
 10
4.101240
 20
4.769600
  0
SEQEND
  8
0
  0
SOLID
  8
0
 62
    15
 10
4.099480
 20
4.734400
 11
4.749360
 21
4.360840
 12
4.089800
 22
4.704480
 13
4.740120
 23
4.330920
  0
POLYLINE
  8
0
  6
CONTINUOUS
 66
     1
 40
0.000000
 41
0.000000
  0
VERTEX
  8
0
  6
CONTINUOUS
 10
4.099480
 20
4.734400
  0
VERTEX
  8
0
  6
CONTINUOUS
 10
4.749360
 20
4.360840
  0
VERTEX
  8
0
  6
CONTINUOUS
 10
4.740120
 20
4.330920
  0
VERTEX
  8
0
  6
CONTINUOUS
 10
4.089800
 20
4.704480
  0
VERTEX
  8
0
  6
CONTINUOUS
 10
4.099480
 20
4.734400
  0
SEQEND
  8
0
  0
SOLID
  8
0
 62
    15
 10
4.089800
 20
4.704480
 11
4.740120
 21
4.330920
 12
4.073960
 22
4.678080
 13
4.724280
 23
4.304520
  0
POLYLINE
  8
0
  6
CONTINUOUS
 66
     1
 40
0.000000
 41
0.000000
  0
VERTEX
  8
0
  6
CONTINUOUS
 10
4.089800
 20
4.704480
  0
VERTEX
  8
0
  6
CONTINUOUS
 10
4.740120
 20
4.330920
  0
VERTEX
  8
0
  6
CONTINUOUS
 10
4.724280
 20
4.304520
  0
VERTEX
  8
0
  6
CONTINUOUS
 10
4.073960
 20
4.678080
  0
VERTEX
  8
0
  6
CONTINUOUS
 10
4.089800
 20
4.704480
  0
SEQEND
  8
0
  0
SOLID
  8
0
 62
    15
 10
4.073960
 20
4.678080
 11
4.724280
 21
4.304520
 12
4.028640
 22
4.637160
 13
4.678520
 23
4.263600
  0
POLYLINE
  8
0
  6
CONTINUOUS
 66
     1
 40
0.000000
 41
0.000000
  0
VERTEX
  8
0
  6
CONTINUOUS
 10
4.073960
 20
4.678080
  0
VERTEX
  8
0
  6
CONTINUOUS
 10
4.724280
 20
4.304520
  0
VERTEX
  8
0
  6
CONTINUOUS
 10
4.678520
 20
4.263600
  0
VERTEX
  8
0
  6
CONTINUOUS
 10
4.028640
 20
4.637160
  0
VERTEX
  8
0
  6
CONTINUOUS
 10
4.073960
 20
4.678080
  0
SEQEND
  8
0
  0
SOLID
  8
0
 62
    15
 10
4.028640
 20
4.637160
 11
4.678520
 21
4.263600
 12
3.971880
 22
4.609000
 13
4.622200
 23
4.235440
  0
POLYLINE
  8
0
  6
CONTINUOUS
 66
     1
 40
0.000000
 41
0.000000
  0
VERTEX
  8
0
  6
CONTINUOUS
 10
4.028640
 20
4.637160
  0
VERTEX
  8
0
  6
CONTINUOUS
 10
4.678520
 20
4.263600
  0
VERTEX
  8
0
  6
CONTINUOUS
 10
4.622200
 20
4.235440
  0
VERTEX
  8
0
  6
CONTINUOUS
 10
3.971880
 20
4.609000
  0
VERTEX
  8
0
  6
CONTINUOUS
 10
4.028640
 20
4.637160
  0
SEQEND
  8
0
  0
SOLID
  8
0
 62
    15
 10
3.971880
 20
4.609000
 11
4.622200
 21
4.235440
 12
3.914680
 22
4.590960
 13
4.565000
 23
4.217400
  0
POLYLINE
  8
0
  6
CONTINUOUS
 66
     1
 40
0.000000
 41
0.000000
  0
VERTEX
  8
0
  6
CONTINUOUS
 10
3.971880
 20
4.609000
  0
VERTEX
  8
0
  6
CONTINUOUS
 10
4.622200
 20
4.235440
  0
VERTEX
  8
0
  6
CONTINUOUS
 10
4.565000
 20
4.217400
  0
VERTEX
  8
0
  6
CONTINUOUS
 10
3.914680
 20
4.590960
  0
VERTEX
  8
0
  6
CONTINUOUS
 10
3.971880
 20
4.609000
  0
SEQEND
  8
0
  0
SOLID
  8
0
 62
    15
 10
3.914680
 20
4.590960
 11
4.565000
 21
4.217400
 12
3.866720
 22
4.580400
 13
4.516600
 23
4.206840
  0
POLYLINE
  8
0
  6
CONTINUOUS
 66
     1
 40
0.000000
 41
0.000000
  0
VERTEX
  8
0
  6
CONTINUOUS
 10
3.914680
 20
4.590960
  0
VERTEX
  8
0
  6
CONTINUOUS
 10
4.565000
 20
4.217400
  0
VERTEX
  8
0
  6
CONTINUOUS
 10
4.516600
 20
4.206840
  0
VERTEX
  8
0
  6
CONTINUOUS
 10
3.866720
 20
4.580400
  0
VERTEX
  8
0
  6
CONTINUOUS
 10
3.914680
 20
4.590960
  0
SEQEND
  8
0
  0
SOLID
  8
0
 62
    15
 10
3.866720
 20
4.580400
 11
4.516600
 21
4.206840
 12
3.848680
 22
4.576880
 13
4.499000
 23
4.203320
  0
POLYLINE
  8
0
  6
CONTINUOUS
 66
     1
 40
0.000000
 41
0.000000
  0
VERTEX
  8
0
  6
CONTINUOUS
 10
3.866720
 20
4.580400
  0
VERTEX
  8
0
  6
CONTINUOUS
 10
4.516600
 20
4.206840
  0
VERTEX
  8
0
  6
CONTINUOUS
 10
4.499000
 20
4.203320
  0
VERTEX
  8
0
  6
CONTINUOUS
 10
3.848680
 20
4.576880
  0
VERTEX
  8
0
  6
CONTINUOUS
 10
3.866720
 20
4.580400
  0
SEQEND
  8
0
  0
SOLID
  8
0
 62
    15
 10
3.848680
 20
4.576880
 11
4.499000
 21
4.203320
 12
3.837240
 22
4.574240
 13
4.487560
 23
4.200680
  0
POLYLINE
  8
0
  6
CONTINUOUS
 66
     1
 40
0.000000
 41
0.000000
  0
VERTEX
  8
0
  6
CONTINUOUS
 10
3.848680
 20
4.576880
  0
VERTEX
  8
0
  6
CONTINUOUS
 10
4.499000
 20
4.203320
  0
VERTEX
  8
0
  6
CONTINUOUS
 10
4.487560
 20
4.200680
  0
VERTEX
  8
0
  6
CONTINUOUS
 10
3.837240
 20
4.574240
  0
VERTEX
  8
0
  6
CONTINUOUS
 10
3.848680
 20
4.576880
  0
SEQEND
  8
0
  0
SOLID
  8
0
 62
    15
 10
3.837240
 20
4.574240
 11
4.487560
 21
4.200680
 12
3.837240
 22
4.451920
 13
4.487560
 23
4.078360
  0
POLYLINE
  8
0
  6
CONTINUOUS
 66
     1
 40
0.000000
 41
0.000000
  0
VERTEX
  8
0
  6
CONTINUOUS
 10
3.837240
 20
4.574240
  0
VERTEX
  8
0
  6
CONTINUOUS
 10
4.487560
 20
4.200680
  0
VERTEX
  8
0
  6
CONTINUOUS
 10
4.487560
 20
4.078360
  0
VERTEX
  8
0
  6
CONTINUOUS
 10
3.837240
 20
4.451920
  0
VERTEX
  8
0
  6
CONTINUOUS
 10
3.837240
 20
4.574240
  0
SEQEND
  8
0
  0
SOLID
  8
0
 62
    15
 10
3.837240
 20
4.451920
 11
4.487560
 21
4.078360
 12
3.536280
 22
4.451920
 13
4.186600
 23
4.078360
  0
POLYLINE
  8
0
  6
CONTINUOUS
 66
     1
 40
0.000000
 41
0.000000
  0
VERTEX
  8
0
  6
CONTINUOUS
 10
3.837240
 20
4.451920
  0
VERTEX
  8
0
  6
CONTINUOUS
 10
4.487560
 20
4.078360
  0
VERTEX
  8
0
  6
CONTINUOUS
 10
4.186600
 20
4.078360
  0
VERTEX
  8
0
  6
CONTINUOUS
 10
3.536280
 20
4.451920
  0
VERTEX
  8
0
  6
CONTINUOUS
 10
3.837240
 20
4.451920
  0
SEQEND
  8
0
  0
SOLID
  8
0
 62
    15
 10
3.536280
 20
6.206640
 11
4.186600
 21
5.833080
 12
3.536280
 22
6.204880
 13
4.186600
 23
5.831320
  0
POLYLINE
  8
0
  6
CONTINUOUS
 66
     1
 40
0.000000
 41
0.000000
  0
VERTEX
  8
0
  6
CONTINUOUS
 10
3.536280
 20
6.206640
  0
VERTEX
  8
0
  6
CONTINUOUS
 10
4.186600
 20
5.833080
  0
VERTEX
  8
0
  6
CONTINUOUS
 10
4.186600
 20
5.831320
  0
VERTEX
  8
0
  6
CONTINUOUS
 10
3.536280
 20
6.204880
  0
VERTEX
  8
0
  6
CONTINUOUS
 10
3.536280
 20
6.206640
  0
SEQEND
  8
0
  0
POLYLINE
  8
0
  6
CONTINUOUS
 66
     1
 40
0.000000
 41
0.000000
  0
VERTEX
  8
0
  6
CONTINUOUS
 10
3.536280
 20
6.204880
  0
VERTEX
  8
0
  6
CONTINUOUS
 10
4.777520
 20
6.204880
  0
VERTEX
  8
0
  6
CONTINUOUS
 10
4.777520
 20
5.864760
  0
VERTEX
  8
0
  6
CONTINUOUS
 10
4.703600
 20
5.864760
  0
VERTEX
  8
0
  6
CONTINUOUS
 10
4.649040
 20
5.861680
  0
VERTEX
  8
0
  6
CONTINUOUS
 10
4.608560
 20
5.845840
  0
VERTEX
  8
0
  6
CONTINUOUS
 10
4.592280
 20
5.830880
  0
VERTEX
  8
0
  6
CONTINUOUS
 10
4.578200
 20
5.809320
  0
VERTEX
  8
0
  6
CONTINUOUS
 10
4.565440
 20
5.780280
  0
VERTEX
  8
0
  6
CONTINUOUS
 10
4.554000
 20
5.742880
  0
VERTEX
  8
0
  6
CONTINUOUS
 10
4.546520
 20
5.693160
  0
VERTEX
  8
0
  6
CONTINUOUS
 10
4.543000
 20
5.632880
  0
VERTEX
  8
0
  6
CONTINUOUS
 10
4.536840
 20
5.566440
  0
VERTEX
  8
0
  6
CONTINUOUS
 10
4.522760
 20
5.500440
  0
VERTEX
  8
0
  6
CONTINUOUS
 10
4.493720
 20
5.439280
  0
VERTEX
  8
0
  6
CONTINUOUS
 10
4.472160
 20
5.412440
  0
VERTEX
  8
0
  6
CONTINUOUS
 10
4.444440
 20
5.389120
  0
VERTEX
  8
0
  6
CONTINUOUS
 10
4.410120
 20
5.369320
  0
VERTEX
  8
0
  6
CONTINUOUS
 10
4.367880
 20
5.354800
  0
VERTEX
  8
0
  6
CONTINUOUS
 10
4.318160
 20
5.345560
  0
VERTEX
  8
0
  6
CONTINUOUS
 10
4.258760
 20
5.342040
  0
VERTEX
  8
0
  6
CONTINUOUS
 10
4.259200
 20
5.207400
  0
VERTEX
  8
0
  6
CONTINUOUS
 10
4.201560
 20
5.206080
  0
VERTEX
  8
0
  6
CONTINUOUS
 10
4.140400
 20
5.199920
  0
VERTEX
  8
0
  6
CONTINUOUS
 10
4.081440
 20
5.186720
  0
VERTEX
  8
0
  6
CONTINUOUS
 10
4.031720
 20
5.162520
  0
VERTEX
  8
0
  6
CONTINUOUS
 10
4.011920
 20
5.145800
  0
VERTEX
  8
0
  6
CONTINUOUS
 10
3.996960
 20
5.125560
  0
VERTEX
  8
0
  6
CONTINUOUS
 10
3.987720
 20
5.100920
  0
VERTEX
  8
0
  6
CONTINUOUS
 10
3.984200
 20
5.071880
  0
VERTEX
  8
0
  6
CONTINUOUS
 10
3.987720
 20
5.038000
  0
VERTEX
  8
0
  6
CONTINUOUS
 10
3.999160
 20
4.999280
  0
VERTEX
  8
0
  6
CONTINUOUS
 10
4.019400
 20
4.954840
  0
VERTEX
  8
0
  6
CONTINUOUS
 10
4.077040
 20
4.854080
  0
VERTEX
  8
0
  6
CONTINUOUS
 10
4.094200
 20
4.809200
  0
VERTEX
  8
0
  6
CONTINUOUS
 10
4.101240
 20
4.769600
  0
VERTEX
  8
0
  6
CONTINUOUS
 10
4.099480
 20
4.734400
  0
VERTEX
  8
0
  6
CONTINUOUS
 10
4.089800
 20
4.704480
  0
VERTEX
  8
0
  6
CONTINUOUS
 10
4.073960
 20
4.678080
  0
VERTEX
  8
0
  6
CONTINUOUS
 10
4.028640
 20
4.637160
  0
VERTEX
  8
0
  6
CONTINUOUS
 10
3.971880
 20
4.609000
  0
VERTEX
  8
0
  6
CONTINUOUS
 10
3.914680
 20
4.590960
  0
VERTEX
  8
0
  6
CONTINUOUS
 10
3.837240
 20
4.574240
  0
VERTEX
  8
0
  6
CONTINUOUS
 10
3.837240
 20
4.451920
  0
VERTEX
  8
0
  6
CONTINUOUS
 10
3.536280
 20
4.451920
  0
VERTEX
  8
0
  6
CONTINUOUS
 10
3.536280
 20
6.206640
  0
VERTEX
  8
0
  6
CONTINUOUS
 10
3.536280
 20
6.204880
  0
SEQEND
  8
0
  0
TEXT
  8
0
 10
5.131720
 20
4.294840
 40
0.138161
  1
BA  1296
 41
1.000000
  7
SN0
 71
     0
 72
     5
 11
5.813781
 21
4.294840
  0
TEXT
  8
0
 10
4.948240
 20
4.103000
 40
0.138161
  1
1-1/4" x 1-3/4"
 41
1.000000
  7
SN0
 71
     0
 72
     5
 11
5.995894
 21
4.103000
  0
ENDSEC
  0
EOF
