  0
SECTION
  2
HEADER
  9
$ACADVER
  1
AC1006
  9
$EXTMIN
 10
1.055560
 20
2.509320
  9
$EXTMAX
 10
7.100720
 20
8.530280
  9
$LTSCALE
 40
0.044000
  9
$PDMODE
 70
    35
  9
$PDSIZE
 40
0.035200
  0
ENDSEC
  0
SECTION
  2
TABLES
  0
TABLE
  2
LTYPE
 70
     9
  0
LTYPE
  2
CONTINUOUS
 70
    64
  3
Solid line
 72
    65
 73
     0
 40
0.000000
  0
LTYPE
  2
DASHED
 70
    64
  3
__ __ __ __ __ __ __ __ __ __ __ __ __ __ __
 72
    65
 73
     2
 40
0.000330
 49
0.000220
 49
-0.000110
  0
LTYPE
  2
HIDDEN
 70
    64
  3
 _ _ _ _ _ _ _ _ _ _ _ _ _ _ _ _ _ _ _ _ _ _
 72
    65
 73
     2
 40
0.000165
 49
0.000110
 49
-0.000055
  0
LTYPE
  2
CENTER
 70
    64
  3
____ _ ____ _ ____ _ ____ _ ____ _ ____ _ ____
 72
    65
 73
     4
 40
0.000880
 49
0.000550
 49
-0.000110
 49
0.000110
 49
-0.000110
  0
LTYPE
  2
PHANTOM
 70
    64
  3
_____ _ _ _____ _ _ _____ _ _ _____ _ _ ____
 72
    65
 73
     6
 40
0.001100
 49
0.000550
 49
-0.000110
 49
0.000110
 49
-0.000110
 49
0.000110
 49
-0.000110
  0
LTYPE
  2
DOT
 70
    64
  3
...............................................
 72
    65
 73
     2
 40
0.000110
 49
0.000000
 49
-0.000110
  0
LTYPE
  2
DASHDOT
 70
    64
  3
__ . __ . __ . __ . __ . __ . __ . __ . __ . __
 72
    65
 73
     4
 40
0.000440
 49
0.000220
 49
-0.000110
 49
0.000000
 49
-0.000110
  0
LTYPE
  2
BORDER
 70
    64
  3
__ __ . __ __ . __ __ . __ __ . __ __ . __ __
 72
    65
 73
     6
 40
0.000770
 49
0.000220
 49
-0.000110
 49
0.000220
 49
-0.000110
 49
0.000000
 49
-0.000110
  0
LTYPE
  2
DIVIDE
 70
    64
  3
__ . . __ . . __ . . __ . . __ . . __ . . __
 72
    65
 73
     6
 40
0.000550
 49
0.000220
 49
-0.000110
 49
0.000000
 49
-0.000110
 49
0.000000
 49
-0.000110
  0
LTYPE
  2
DOTDOT
 70
    64
  3
 . .  . .  . .  . .  . .  . . 
 72
    65
 73
     5
 40
0.000242
 49
-0.000110
 49
0.000000
 49
-0.000110
 49
0.000000
 49
-0.000110
  0
ENDTAB
  0
TABLE
  2
STYLE
 70
     2
  0
STYLE
 70
     0
  2
SN0
 40
0.000000
 41
0.000440
 50
0.000000
 71
     0
 42
0.000000
  3
ROMAND
  0
STYLE
 70
    68
  2
SV0
 40
0.000000
 41
0.000440
 50
0.000000
 71
     0
 42
0.000000
  3
ROMAND
  0
ENDTAB
  0
TABLE
  2
LAYER
 70
     3
  0
LAYER
  2
FOREGROUND
 70
    64
 62
     7
  6
CONTINUOUS
  0
LAYER
  2
BACKGROUND
 70
    65
 62
    -7
  6
CONTINUOUS
  0
LAYER
  2
0
 70
    64
 62
     7
  6
CONTINUOUS
  0
ENDTAB
  0
ENDSEC
  0
SECTION
  2
ENTITIES
  0
POLYLINE
  8
FOREGROUND
  6
CONTINUOUS
 66
     1
 40
0.000000
 41
0.000000
  0
VERTEX
  8
FOREGROUND
  6
CONTINUOUS
 10
0.000000
 20
11.039600
  0
VERTEX
  8
FOREGROUND
  6
CONTINUOUS
 10
8.499920
 20
11.039600
  0
VERTEX
  8
FOREGROUND
  6
CONTINUOUS
 10
8.499920
 20
0.039600
  0
VERTEX
  8
FOREGROUND
  6
CONTINUOUS
 10
0.000000
 20
0.039600
  0
VERTEX
  8
FOREGROUND
  6
CONTINUOUS
 10
0.000000
 20
11.039600
  0
SEQEND
  8
0
  0
POLYLINE
  8
FOREGROUND
  6
CONTINUOUS
 66
     1
 40
0.000000
 41
0.000000
  0
VERTEX
  8
FOREGROUND
  6
CONTINUOUS
 10
0.000000
 20
11.039600
  0
VERTEX
  8
FOREGROUND
  6
CONTINUOUS
 10
8.499920
 20
11.039600
  0
VERTEX
  8
FOREGROUND
  6
CONTINUOUS
 10
8.499920
 20
0.039600
  0
VERTEX
  8
FOREGROUND
  6
CONTINUOUS
 10
0.000000
 20
0.039600
  0
VERTEX
  8
FOREGROUND
  6
CONTINUOUS
 10
0.000000
 20
11.039600
  0
SEQEND
  8
0
  0
TEXT
  8
0
 10
2.267320
 20
8.256160
 40
0.138263
  1
BA  1295
 41
1.000000
  7
SN0
 71
     0
 72
     5
 11
2.950121
 21
8.256160
  0
TEXT
  8
0
 10
2.157760
 20
8.064760
 40
0.138263
  1
3/4" x 5-3/4"
 41
1.000000
  7
SN0
 71
     0
 72
     5
 11
3.058791
 21
8.064760
  0
TEXT
  8
0
 10
1.865600
 20
7.872920
 40
0.138263
  1
Sides BA 221 & 222
 41
1.000000
  7
SN0
 71
     0
 72
     5
 11
3.350594
 21
7.872920
  0
POLYLINE
  8
0
  6
CONTINUOUS
 66
     1
 40
0.000000
 41
0.000000
  0
VERTEX
  8
0
  6
CONTINUOUS
 10
3.368640
 20
8.529400
  0
VERTEX
  8
0
  6
CONTINUOUS
 10
3.515160
 20
8.362640
  0
VERTEX
  8
0
  6
CONTINUOUS
 10
3.541120
 20
8.362640
  0
VERTEX
  8
0
  6
CONTINUOUS
 10
3.547280
 20
8.398280
  0
VERTEX
  8
0
  6
CONTINUOUS
 10
3.551680
 20
8.414120
  0
VERTEX
  8
0
  6
CONTINUOUS
 10
3.563560
 20
8.441400
  0
VERTEX
  8
0
  6
CONTINUOUS
 10
3.578960
 20
8.464280
  0
VERTEX
  8
0
  6
CONTINUOUS
 10
3.597000
 20
8.481440
  0
VERTEX
  8
0
  6
CONTINUOUS
 10
3.616800
 20
8.494200
  0
VERTEX
  8
0
  6
CONTINUOUS
 10
3.638360
 20
8.502120
  0
VERTEX
  8
0
  6
CONTINUOUS
 10
3.660360
 20
8.505640
  0
VERTEX
  8
0
  6
CONTINUOUS
 10
3.682800
 20
8.504320
  0
VERTEX
  8
0
  6
CONTINUOUS
 10
3.705240
 20
8.498600
  0
VERTEX
  8
0
  6
CONTINUOUS
 10
3.726360
 20
8.488480
  0
VERTEX
  8
0
  6
CONTINUOUS
 10
3.746160
 20
8.474400
  0
VERTEX
  8
0
  6
CONTINUOUS
 10
3.763760
 20
8.456360
  0
VERTEX
  8
0
  6
CONTINUOUS
 10
3.778280
 20
8.434360
  0
VERTEX
  8
0
  6
CONTINUOUS
 10
3.789720
 20
8.408400
  0
VERTEX
  8
0
  6
CONTINUOUS
 10
3.797200
 20
8.378920
  0
VERTEX
  8
0
  6
CONTINUOUS
 10
3.799400
 20
8.362640
  0
VERTEX
  8
0
  6
CONTINUOUS
 10
3.824920
 20
8.362640
  0
VERTEX
  8
0
  6
CONTINUOUS
 10
3.966160
 20
8.529400
  0
VERTEX
  8
0
  6
CONTINUOUS
 10
6.134920
 20
8.529400
  0
VERTEX
  8
0
  6
CONTINUOUS
 10
6.281440
 20
8.362640
  0
VERTEX
  8
0
  6
CONTINUOUS
 10
6.307400
 20
8.362640
  0
VERTEX
  8
0
  6
CONTINUOUS
 10
6.313560
 20
8.397840
  0
VERTEX
  8
0
  6
CONTINUOUS
 10
6.324120
 20
8.428200
  0
VERTEX
  8
0
  6
CONTINUOUS
 10
6.338200
 20
8.453280
  0
VERTEX
  8
0
  6
CONTINUOUS
 10
6.355800
 20
8.473520
  0
VERTEX
  8
0
  6
CONTINUOUS
 10
6.375600
 20
8.488480
  0
VERTEX
  8
0
  6
CONTINUOUS
 10
6.397160
 20
8.499040
  0
VERTEX
  8
0
  6
CONTINUOUS
 10
6.420040
 20
8.504320
  0
VERTEX
  8
0
  6
CONTINUOUS
 10
6.431480
 20
8.505640
  0
VERTEX
  8
0
  6
CONTINUOUS
 10
6.454800
 20
8.503880
  0
VERTEX
  8
0
  6
CONTINUOUS
 10
6.477240
 20
8.498160
  0
VERTEX
  8
0
  6
CONTINUOUS
 10
6.498800
 20
8.487600
  0
VERTEX
  8
0
  6
CONTINUOUS
 10
6.518160
 20
8.473080
  0
VERTEX
  8
0
  6
CONTINUOUS
 10
6.535320
 20
8.453720
  0
VERTEX
  8
0
  6
CONTINUOUS
 10
6.549400
 20
8.430400
  0
VERTEX
  8
0
  6
CONTINUOUS
 10
6.559520
 20
8.403120
  0
VERTEX
  8
0
  6
CONTINUOUS
 10
6.565240
 20
8.371440
  0
VERTEX
  8
0
  6
CONTINUOUS
 10
6.566120
 20
8.354280
  0
VERTEX
  8
0
  6
CONTINUOUS
 10
6.565680
 20
8.231960
  0
VERTEX
  8
0
  6
CONTINUOUS
 10
6.811640
 20
8.231960
  0
VERTEX
  8
0
  6
CONTINUOUS
 10
6.811640
 20
8.021200
  0
VERTEX
  8
0
  6
CONTINUOUS
 10
6.565680
 20
8.021200
  0
VERTEX
  8
0
  6
CONTINUOUS
 10
6.565240
 20
7.784920
  0
VERTEX
  8
0
  6
CONTINUOUS
 10
1.056440
 20
7.784920
  0
VERTEX
  8
0
  6
CONTINUOUS
 10
1.056440
 20
8.021200
  0
VERTEX
  8
0
  6
CONTINUOUS
 10
1.305480
 20
8.021200
  0
VERTEX
  8
0
  6
CONTINUOUS
 10
1.305480
 20
8.232840
  0
VERTEX
  8
0
  6
CONTINUOUS
 10
1.056000
 20
8.232840
  0
VERTEX
  8
0
  6
CONTINUOUS
 10
1.056440
 20
8.232840
  0
VERTEX
  8
0
  6
CONTINUOUS
 10
1.056440
 20
8.367920
  0
VERTEX
  8
0
  6
CONTINUOUS
 10
1.191960
 20
8.529400
  0
VERTEX
  8
0
  6
CONTINUOUS
 10
3.368640
 20
8.529400
  0
SEQEND
  8
0
  0
TEXT
  8
0
 10
3.710960
 20
5.609120
 40
0.138263
  1
BA  1295
 41
1.000000
  7
SN0
 71
     0
 72
     5
 11
4.393761
 21
5.609120
  0
TEXT
  8
0
 10
3.600960
 20
5.417280
 40
0.138263
  1
3/4" x 5-3/4"
 41
1.000000
  7
SN0
 71
     0
 72
     5
 11
4.501991
 21
5.417280
  0
TEXT
  8
0
 10
3.309240
 20
5.225880
 40
0.138263
  1
Sides BA 221 & 222
 41
1.000000
  7
SN0
 71
     0
 72
     5
 11
4.794234
 21
5.225880
  0
SOLID
  8
0
 62
    15
 10
6.433240
 20
6.389680
 11
6.430160
 21
7.133280
 12
6.443800
 22
6.420040
 13
6.440720
 23
7.163200
  0
POLYLINE
  8
0
  6
CONTINUOUS
 66
     1
 40
0.000000
 41
0.000000
  0
VERTEX
  8
0
  6
CONTINUOUS
 10
6.433240
 20
6.389680
  0
VERTEX
  8
0
  6
CONTINUOUS
 10
6.430160
 20
7.133280
  0
VERTEX
  8
0
  6
CONTINUOUS
 10
6.440720
 20
7.163200
  0
VERTEX
  8
0
  6
CONTINUOUS
 10
6.443800
 20
6.420040
  0
VERTEX
  8
0
  6
CONTINUOUS
 10
6.433240
 20
6.389680
  0
SEQEND
  8
0
  0
SOLID
  8
0
 62
    15
 10
3.634840
 20
6.354040
 11
3.631760
 21
7.097200
 12
3.660360
 22
6.354040
 13
3.657720
 23
7.097200
  0
POLYLINE
  8
0
  6
CONTINUOUS
 66
     1
 40
0.000000
 41
0.000000
  0
VERTEX
  8
0
  6
CONTINUOUS
 10
3.634840
 20
6.354040
  0
VERTEX
  8
0
  6
CONTINUOUS
 10
3.631760
 20
7.097200
  0
VERTEX
  8
0
  6
CONTINUOUS
 10
3.657720
 20
7.097200
  0
VERTEX
  8
0
  6
CONTINUOUS
 10
3.660360
 20
6.354040
  0
VERTEX
  8
0
  6
CONTINUOUS
 10
3.634840
 20
6.354040
  0
SEQEND
  8
0
  0
SOLID
  8
0
 62
    15
 10
3.660360
 20
6.354040
 11
3.657720
 21
7.097200
 12
3.666520
 22
6.389680
 13
3.663440
 23
7.132840
  0
POLYLINE
  8
0
  6
CONTINUOUS
 66
     1
 40
0.000000
 41
0.000000
  0
VERTEX
  8
0
  6
CONTINUOUS
 10
3.660360
 20
6.354040
  0
VERTEX
  8
0
  6
CONTINUOUS
 10
3.657720
 20
7.097200
  0
VERTEX
  8
0
  6
CONTINUOUS
 10
3.663440
 20
7.132840
  0
VERTEX
  8
0
  6
CONTINUOUS
 10
3.666520
 20
6.389680
  0
VERTEX
  8
0
  6
CONTINUOUS
 10
3.660360
 20
6.354040
  0
SEQEND
  8
0
  0
SOLID
  8
0
 62
    15
 10
3.666520
 20
6.389680
 11
3.663440
 21
7.132840
 12
3.676640
 22
6.419600
 13
3.673560
 23
7.163200
  0
POLYLINE
  8
0
  6
CONTINUOUS
 66
     1
 40
0.000000
 41
0.000000
  0
VERTEX
  8
0
  6
CONTINUOUS
 10
3.666520
 20
6.389680
  0
VERTEX
  8
0
  6
CONTINUOUS
 10
3.663440
 20
7.132840
  0
VERTEX
  8
0
  6
CONTINUOUS
 10
3.673560
 20
7.163200
  0
VERTEX
  8
0
  6
CONTINUOUS
 10
3.676640
 20
6.419600
  0
VERTEX
  8
0
  6
CONTINUOUS
 10
3.666520
 20
6.389680
  0
SEQEND
  8
0
  0
SOLID
  8
0
 62
    15
 10
3.676640
 20
6.419600
 11
3.673560
 21
7.163200
 12
3.690280
 22
6.444680
 13
3.687200
 23
7.188280
  0
POLYLINE
  8
0
  6
CONTINUOUS
 66
     1
 40
0.000000
 41
0.000000
  0
VERTEX
  8
0
  6
CONTINUOUS
 10
3.676640
 20
6.419600
  0
VERTEX
  8
0
  6
CONTINUOUS
 10
3.673560
 20
7.163200
  0
VERTEX
  8
0
  6
CONTINUOUS
 10
3.687200
 20
7.188280
  0
VERTEX
  8
0
  6
CONTINUOUS
 10
3.690280
 20
6.444680
  0
VERTEX
  8
0
  6
CONTINUOUS
 10
3.676640
 20
6.419600
  0
SEQEND
  8
0
  0
SOLID
  8
0
 62
    15
 10
3.690280
 20
6.444680
 11
3.687200
 21
7.188280
 12
3.707000
 22
6.464920
 13
3.703920
 23
7.208080
  0
POLYLINE
  8
0
  6
CONTINUOUS
 66
     1
 40
0.000000
 41
0.000000
  0
VERTEX
  8
0
  6
CONTINUOUS
 10
3.690280
 20
6.444680
  0
VERTEX
  8
0
  6
CONTINUOUS
 10
3.687200
 20
7.188280
  0
VERTEX
  8
0
  6
CONTINUOUS
 10
3.703920
 20
7.208080
  0
VERTEX
  8
0
  6
CONTINUOUS
 10
3.707000
 20
6.464920
  0
VERTEX
  8
0
  6
CONTINUOUS
 10
3.690280
 20
6.444680
  0
SEQEND
  8
0
  0
SOLID
  8
0
 62
    15
 10
3.707000
 20
6.464920
 11
3.703920
 21
7.208080
 12
3.725920
 22
6.479880
 13
3.722840
 23
7.223480
  0
POLYLINE
  8
0
  6
CONTINUOUS
 66
     1
 40
0.000000
 41
0.000000
  0
VERTEX
  8
0
  6
CONTINUOUS
 10
3.707000
 20
6.464920
  0
VERTEX
  8
0
  6
CONTINUOUS
 10
3.703920
 20
7.208080
  0
VERTEX
  8
0
  6
CONTINUOUS
 10
3.722840
 20
7.223480
  0
VERTEX
  8
0
  6
CONTINUOUS
 10
3.725920
 20
6.479880
  0
VERTEX
  8
0
  6
CONTINUOUS
 10
3.707000
 20
6.464920
  0
SEQEND
  8
0
  0
SOLID
  8
0
 62
    15
 10
3.725920
 20
6.479880
 11
3.722840
 21
7.223480
 12
3.746600
 22
6.490440
 13
3.743960
 23
7.233600
  0
POLYLINE
  8
0
  6
CONTINUOUS
 66
     1
 40
0.000000
 41
0.000000
  0
VERTEX
  8
0
  6
CONTINUOUS
 10
3.725920
 20
6.479880
  0
VERTEX
  8
0
  6
CONTINUOUS
 10
3.722840
 20
7.223480
  0
VERTEX
  8
0
  6
CONTINUOUS
 10
3.743960
 20
7.233600
  0
VERTEX
  8
0
  6
CONTINUOUS
 10
3.746600
 20
6.490440
  0
VERTEX
  8
0
  6
CONTINUOUS
 10
3.725920
 20
6.479880
  0
SEQEND
  8
0
  0
SOLID
  8
0
 62
    15
 10
3.746600
 20
6.490440
 11
3.743960
 21
7.233600
 12
3.768600
 22
6.495720
 13
3.765520
 23
7.239320
  0
POLYLINE
  8
0
  6
CONTINUOUS
 66
     1
 40
0.000000
 41
0.000000
  0
VERTEX
  8
0
  6
CONTINUOUS
 10
3.746600
 20
6.490440
  0
VERTEX
  8
0
  6
CONTINUOUS
 10
3.743960
 20
7.233600
  0
VERTEX
  8
0
  6
CONTINUOUS
 10
3.765520
 20
7.239320
  0
VERTEX
  8
0
  6
CONTINUOUS
 10
3.768600
 20
6.495720
  0
VERTEX
  8
0
  6
CONTINUOUS
 10
3.746600
 20
6.490440
  0
SEQEND
  8
0
  0
SOLID
  8
0
 62
    15
 10
3.768600
 20
6.495720
 11
3.765520
 21
7.239320
 12
3.791040
 22
6.497040
 13
3.787960
 23
7.240200
  0
POLYLINE
  8
0
  6
CONTINUOUS
 66
     1
 40
0.000000
 41
0.000000
  0
VERTEX
  8
0
  6
CONTINUOUS
 10
3.768600
 20
6.495720
  0
VERTEX
  8
0
  6
CONTINUOUS
 10
3.765520
 20
7.239320
  0
VERTEX
  8
0
  6
CONTINUOUS
 10
3.787960
 20
7.240200
  0
VERTEX
  8
0
  6
CONTINUOUS
 10
3.791040
 20
6.497040
  0
VERTEX
  8
0
  6
CONTINUOUS
 10
3.768600
 20
6.495720
  0
SEQEND
  8
0
  0
SOLID
  8
0
 62
    15
 10
3.791040
 20
6.497040
 11
3.787960
 21
7.240200
 12
3.813480
 22
6.493520
 13
3.810400
 23
7.236680
  0
POLYLINE
  8
0
  6
CONTINUOUS
 66
     1
 40
0.000000
 41
0.000000
  0
VERTEX
  8
0
  6
CONTINUOUS
 10
3.791040
 20
6.497040
  0
VERTEX
  8
0
  6
CONTINUOUS
 10
3.787960
 20
7.240200
  0
VERTEX
  8
0
  6
CONTINUOUS
 10
3.810400
 20
7.236680
  0
VERTEX
  8
0
  6
CONTINUOUS
 10
3.813480
 20
6.493520
  0
VERTEX
  8
0
  6
CONTINUOUS
 10
3.791040
 20
6.497040
  0
SEQEND
  8
0
  0
SOLID
  8
0
 62
    15
 10
3.813480
 20
6.493520
 11
3.810400
 21
7.236680
 12
3.835480
 22
6.485600
 13
3.832400
 23
7.229200
  0
POLYLINE
  8
0
  6
CONTINUOUS
 66
     1
 40
0.000000
 41
0.000000
  0
VERTEX
  8
0
  6
CONTINUOUS
 10
3.813480
 20
6.493520
  0
VERTEX
  8
0
  6
CONTINUOUS
 10
3.810400
 20
7.236680
  0
VERTEX
  8
0
  6
CONTINUOUS
 10
3.832400
 20
7.229200
  0
VERTEX
  8
0
  6
CONTINUOUS
 10
3.835480
 20
6.485600
  0
VERTEX
  8
0
  6
CONTINUOUS
 10
3.813480
 20
6.493520
  0
SEQEND
  8
0
  0
SOLID
  8
0
 62
    15
 10
3.835480
 20
6.485600
 11
3.832400
 21
7.229200
 12
3.855720
 22
6.473720
 13
3.853080
 23
7.216880
  0
POLYLINE
  8
0
  6
CONTINUOUS
 66
     1
 40
0.000000
 41
0.000000
  0
VERTEX
  8
0
  6
CONTINUOUS
 10
3.835480
 20
6.485600
  0
VERTEX
  8
0
  6
CONTINUOUS
 10
3.832400
 20
7.229200
  0
VERTEX
  8
0
  6
CONTINUOUS
 10
3.853080
 20
7.216880
  0
VERTEX
  8
0
  6
CONTINUOUS
 10
3.855720
 20
6.473720
  0
VERTEX
  8
0
  6
CONTINUOUS
 10
3.835480
 20
6.485600
  0
SEQEND
  8
0
  0
SOLID
  8
0
 62
    15
 10
3.855720
 20
6.473720
 11
3.853080
 21
7.216880
 12
3.874640
 22
6.457440
 13
3.871560
 23
7.201040
  0
POLYLINE
  8
0
  6
CONTINUOUS
 66
     1
 40
0.000000
 41
0.000000
  0
VERTEX
  8
0
  6
CONTINUOUS
 10
3.855720
 20
6.473720
  0
VERTEX
  8
0
  6
CONTINUOUS
 10
3.853080
 20
7.216880
  0
VERTEX
  8
0
  6
CONTINUOUS
 10
3.871560
 20
7.201040
  0
VERTEX
  8
0
  6
CONTINUOUS
 10
3.874640
 20
6.457440
  0
VERTEX
  8
0
  6
CONTINUOUS
 10
3.855720
 20
6.473720
  0
SEQEND
  8
0
  0
SOLID
  8
0
 62
    15
 10
3.874640
 20
6.457440
 11
3.871560
 21
7.201040
 12
3.890920
 22
6.437640
 13
3.887840
 23
7.180800
  0
POLYLINE
  8
0
  6
CONTINUOUS
 66
     1
 40
0.000000
 41
0.000000
  0
VERTEX
  8
0
  6
CONTINUOUS
 10
3.874640
 20
6.457440
  0
VERTEX
  8
0
  6
CONTINUOUS
 10
3.871560
 20
7.201040
  0
VERTEX
  8
0
  6
CONTINUOUS
 10
3.887840
 20
7.180800
  0
VERTEX
  8
0
  6
CONTINUOUS
 10
3.890920
 20
6.437640
  0
VERTEX
  8
0
  6
CONTINUOUS
 10
3.874640
 20
6.457440
  0
SEQEND
  8
0
  0
SOLID
  8
0
 62
    15
 10
3.890920
 20
6.437640
 11
3.887840
 21
7.180800
 12
3.904120
 22
6.413440
 13
3.901040
 23
7.156600
  0
POLYLINE
  8
0
  6
CONTINUOUS
 66
     1
 40
0.000000
 41
0.000000
  0
VERTEX
  8
0
  6
CONTINUOUS
 10
3.890920
 20
6.437640
  0
VERTEX
  8
0
  6
CONTINUOUS
 10
3.887840
 20
7.180800
  0
VERTEX
  8
0
  6
CONTINUOUS
 10
3.901040
 20
7.156600
  0
VERTEX
  8
0
  6
CONTINUOUS
 10
3.904120
 20
6.413440
  0
VERTEX
  8
0
  6
CONTINUOUS
 10
3.890920
 20
6.437640
  0
SEQEND
  8
0
  0
SOLID
  8
0
 62
    15
 10
3.904120
 20
6.413440
 11
3.901040
 21
7.156600
 12
3.913800
 22
6.385720
 13
3.910720
 23
7.128880
  0
POLYLINE
  8
0
  6
CONTINUOUS
 66
     1
 40
0.000000
 41
0.000000
  0
VERTEX
  8
0
  6
CONTINUOUS
 10
3.904120
 20
6.413440
  0
VERTEX
  8
0
  6
CONTINUOUS
 10
3.901040
 20
7.156600
  0
VERTEX
  8
0
  6
CONTINUOUS
 10
3.910720
 20
7.128880
  0
VERTEX
  8
0
  6
CONTINUOUS
 10
3.913800
 20
6.385720
  0
VERTEX
  8
0
  6
CONTINUOUS
 10
3.904120
 20
6.413440
  0
SEQEND
  8
0
  0
SOLID
  8
0
 62
    15
 10
3.913800
 20
6.385720
 11
3.910720
 21
7.128880
 12
3.919080
 22
6.354480
 13
3.916000
 23
7.097640
  0
POLYLINE
  8
0
  6
CONTINUOUS
 66
     1
 40
0.000000
 41
0.000000
  0
VERTEX
  8
0
  6
CONTINUOUS
 10
3.913800
 20
6.385720
  0
VERTEX
  8
0
  6
CONTINUOUS
 10
3.910720
 20
7.128880
  0
VERTEX
  8
0
  6
CONTINUOUS
 10
3.916000
 20
7.097640
  0
VERTEX
  8
0
  6
CONTINUOUS
 10
3.919080
 20
6.354480
  0
VERTEX
  8
0
  6
CONTINUOUS
 10
3.913800
 20
6.385720
  0
SEQEND
  8
0
  0
SOLID
  8
0
 62
    15
 10
3.919080
 20
6.354480
 11
3.916000
 21
7.097640
 12
3.944600
 22
6.354480
 13
3.941520
 23
7.097640
  0
POLYLINE
  8
0
  6
CONTINUOUS
 66
     1
 40
0.000000
 41
0.000000
  0
VERTEX
  8
0
  6
CONTINUOUS
 10
3.919080
 20
6.354480
  0
VERTEX
  8
0
  6
CONTINUOUS
 10
3.916000
 20
7.097640
  0
VERTEX
  8
0
  6
CONTINUOUS
 10
3.941520
 20
7.097640
  0
VERTEX
  8
0
  6
CONTINUOUS
 10
3.944600
 20
6.354480
  0
VERTEX
  8
0
  6
CONTINUOUS
 10
3.919080
 20
6.354480
  0
SEQEND
  8
0
  0
SOLID
  8
0
 62
    15
 10
3.944600
 20
6.354480
 11
3.941520
 21
7.097640
 12
4.084960
 22
6.521240
 13
4.081880
 23
7.264400
  0
POLYLINE
  8
0
  6
CONTINUOUS
 66
     1
 40
0.000000
 41
0.000000
  0
VERTEX
  8
0
  6
CONTINUOUS
 10
3.944600
 20
6.354480
  0
VERTEX
  8
0
  6
CONTINUOUS
 10
3.941520
 20
7.097640
  0
VERTEX
  8
0
  6
CONTINUOUS
 10
4.081880
 20
7.264400
  0
VERTEX
  8
0
  6
CONTINUOUS
 10
4.084960
 20
6.521240
  0
VERTEX
  8
0
  6
CONTINUOUS
 10
3.944600
 20
6.354480
  0
SEQEND
  8
0
  0
SOLID
  8
0
 62
    15
 10
4.084960
 20
6.521240
 11
4.081880
 21
7.264400
 12
6.254600
 22
6.521240
 13
6.251520
 23
7.264400
  0
POLYLINE
  8
0
  6
CONTINUOUS
 66
     1
 40
0.000000
 41
0.000000
  0
VERTEX
  8
0
  6
CONTINUOUS
 10
4.084960
 20
6.521240
  0
VERTEX
  8
0
  6
CONTINUOUS
 10
4.081880
 20
7.264400
  0
VERTEX
  8
0
  6
CONTINUOUS
 10
6.251520
 20
7.264400
  0
VERTEX
  8
0
  6
CONTINUOUS
 10
6.254600
 20
6.521240
  0
VERTEX
  8
0
  6
CONTINUOUS
 10
4.084960
 20
6.521240
  0
SEQEND
  8
0
  0
SOLID
  8
0
 62
    15
 10
6.254600
 20
6.521240
 11
6.251520
 21
7.264400
 12
6.401120
 22
6.354480
 13
6.398040
 23
7.097640
  0
POLYLINE
  8
0
  6
CONTINUOUS
 66
     1
 40
0.000000
 41
0.000000
  0
VERTEX
  8
0
  6
CONTINUOUS
 10
6.254600
 20
6.521240
  0
VERTEX
  8
0
  6
CONTINUOUS
 10
6.251520
 20
7.264400
  0
VERTEX
  8
0
  6
CONTINUOUS
 10
6.398040
 20
7.097640
  0
VERTEX
  8
0
  6
CONTINUOUS
 10
6.401120
 20
6.354480
  0
VERTEX
  8
0
  6
CONTINUOUS
 10
6.254600
 20
6.521240
  0
SEQEND
  8
0
  0
SOLID
  8
0
 62
    15
 10
6.401120
 20
6.354480
 11
6.398040
 21
7.097640
 12
6.427080
 22
6.354480
 13
6.424000
 23
7.097640
  0
POLYLINE
  8
0
  6
CONTINUOUS
 66
     1
 40
0.000000
 41
0.000000
  0
VERTEX
  8
0
  6
CONTINUOUS
 10
6.401120
 20
6.354480
  0
VERTEX
  8
0
  6
CONTINUOUS
 10
6.398040
 20
7.097640
  0
VERTEX
  8
0
  6
CONTINUOUS
 10
6.424000
 20
7.097640
  0
VERTEX
  8
0
  6
CONTINUOUS
 10
6.427080
 20
6.354480
  0
VERTEX
  8
0
  6
CONTINUOUS
 10
6.401120
 20
6.354480
  0
SEQEND
  8
0
  0
SOLID
  8
0
 62
    15
 10
6.427080
 20
6.354480
 11
6.424000
 21
7.097640
 12
6.433240
 22
6.389680
 13
6.430160
 23
7.133280
  0
POLYLINE
  8
0
  6
CONTINUOUS
 66
     1
 40
0.000000
 41
0.000000
  0
VERTEX
  8
0
  6
CONTINUOUS
 10
6.427080
 20
6.354480
  0
VERTEX
  8
0
  6
CONTINUOUS
 10
6.424000
 20
7.097640
  0
VERTEX
  8
0
  6
CONTINUOUS
 10
6.430160
 20
7.133280
  0
VERTEX
  8
0
  6
CONTINUOUS
 10
6.433240
 20
6.389680
  0
VERTEX
  8
0
  6
CONTINUOUS
 10
6.427080
 20
6.354480
  0
SEQEND
  8
0
  0
SOLID
  8
0
 62
    15
 10
3.487880
 20
6.520800
 11
3.485240
 21
7.263960
 12
3.634840
 22
6.354040
 13
3.631760
 23
7.097200
  0
POLYLINE
  8
0
  6
CONTINUOUS
 66
     1
 40
0.000000
 41
0.000000
  0
VERTEX
  8
0
  6
CONTINUOUS
 10
3.487880
 20
6.520800
  0
VERTEX
  8
0
  6
CONTINUOUS
 10
3.485240
 20
7.263960
  0
VERTEX
  8
0
  6
CONTINUOUS
 10
3.631760
 20
7.097200
  0
VERTEX
  8
0
  6
CONTINUOUS
 10
3.634840
 20
6.354040
  0
VERTEX
  8
0
  6
CONTINUOUS
 10
3.487880
 20
6.520800
  0
SEQEND
  8
0
  0
SOLID
  8
0
 62
    15
 10
6.443800
 20
6.420040
 11
6.440720
 21
7.163200
 12
6.457880
 22
6.445120
 13
6.454800
 23
7.188280
  0
POLYLINE
  8
0
  6
CONTINUOUS
 66
     1
 40
0.000000
 41
0.000000
  0
VERTEX
  8
0
  6
CONTINUOUS
 10
6.443800
 20
6.420040
  0
VERTEX
  8
0
  6
CONTINUOUS
 10
6.440720
 20
7.163200
  0
VERTEX
  8
0
  6
CONTINUOUS
 10
6.454800
 20
7.188280
  0
VERTEX
  8
0
  6
CONTINUOUS
 10
6.457880
 20
6.445120
  0
VERTEX
  8
0
  6
CONTINUOUS
 10
6.443800
 20
6.420040
  0
SEQEND
  8
0
  0
SOLID
  8
0
 62
    15
 10
6.457880
 20
6.445120
 11
6.454800
 21
7.188280
 12
6.475040
 22
6.464920
 13
6.472400
 23
7.208520
  0
POLYLINE
  8
0
  6
CONTINUOUS
 66
     1
 40
0.000000
 41
0.000000
  0
VERTEX
  8
0
  6
CONTINUOUS
 10
6.457880
 20
6.445120
  0
VERTEX
  8
0
  6
CONTINUOUS
 10
6.454800
 20
7.188280
  0
VERTEX
  8
0
  6
CONTINUOUS
 10
6.472400
 20
7.208520
  0
VERTEX
  8
0
  6
CONTINUOUS
 10
6.475040
 20
6.464920
  0
VERTEX
  8
0
  6
CONTINUOUS
 10
6.457880
 20
6.445120
  0
SEQEND
  8
0
  0
SOLID
  8
0
 62
    15
 10
6.475040
 20
6.464920
 11
6.472400
 21
7.208520
 12
6.494840
 22
6.480320
 13
6.492200
 23
7.223480
  0
POLYLINE
  8
0
  6
CONTINUOUS
 66
     1
 40
0.000000
 41
0.000000
  0
VERTEX
  8
0
  6
CONTINUOUS
 10
6.475040
 20
6.464920
  0
VERTEX
  8
0
  6
CONTINUOUS
 10
6.472400
 20
7.208520
  0
VERTEX
  8
0
  6
CONTINUOUS
 10
6.492200
 20
7.223480
  0
VERTEX
  8
0
  6
CONTINUOUS
 10
6.494840
 20
6.480320
  0
VERTEX
  8
0
  6
CONTINUOUS
 10
6.475040
 20
6.464920
  0
SEQEND
  8
0
  0
SOLID
  8
0
 62
    15
 10
6.494840
 20
6.480320
 11
6.492200
 21
7.223480
 12
6.516400
 22
6.490440
 13
6.513760
 23
7.234040
  0
POLYLINE
  8
0
  6
CONTINUOUS
 66
     1
 40
0.000000
 41
0.000000
  0
VERTEX
  8
0
  6
CONTINUOUS
 10
6.494840
 20
6.480320
  0
VERTEX
  8
0
  6
CONTINUOUS
 10
6.492200
 20
7.223480
  0
VERTEX
  8
0
  6
CONTINUOUS
 10
6.513760
 20
7.234040
  0
VERTEX
  8
0
  6
CONTINUOUS
 10
6.516400
 20
6.490440
  0
VERTEX
  8
0
  6
CONTINUOUS
 10
6.494840
 20
6.480320
  0
SEQEND
  8
0
  0
SOLID
  8
0
 62
    15
 10
6.516400
 20
6.490440
 11
6.513760
 21
7.234040
 12
6.539280
 22
6.496160
 13
6.536200
 23
7.239320
  0
POLYLINE
  8
0
  6
CONTINUOUS
 66
     1
 40
0.000000
 41
0.000000
  0
VERTEX
  8
0
  6
CONTINUOUS
 10
6.516400
 20
6.490440
  0
VERTEX
  8
0
  6
CONTINUOUS
 10
6.513760
 20
7.234040
  0
VERTEX
  8
0
  6
CONTINUOUS
 10
6.536200
 20
7.239320
  0
VERTEX
  8
0
  6
CONTINUOUS
 10
6.539280
 20
6.496160
  0
VERTEX
  8
0
  6
CONTINUOUS
 10
6.516400
 20
6.490440
  0
SEQEND
  8
0
  0
SOLID
  8
0
 62
    15
 10
6.539280
 20
6.496160
 11
6.536200
 21
7.239320
 12
6.562600
 22
6.497040
 13
6.559520
 23
7.240200
  0
POLYLINE
  8
0
  6
CONTINUOUS
 66
     1
 40
0.000000
 41
0.000000
  0
VERTEX
  8
0
  6
CONTINUOUS
 10
6.539280
 20
6.496160
  0
VERTEX
  8
0
  6
CONTINUOUS
 10
6.536200
 20
7.239320
  0
VERTEX
  8
0
  6
CONTINUOUS
 10
6.559520
 20
7.240200
  0
VERTEX
  8
0
  6
CONTINUOUS
 10
6.562600
 20
6.497040
  0
VERTEX
  8
0
  6
CONTINUOUS
 10
6.539280
 20
6.496160
  0
SEQEND
  8
0
  0
SOLID
  8
0
 62
    15
 10
6.562600
 20
6.497040
 11
6.559520
 21
7.240200
 12
6.585480
 22
6.493520
 13
6.582400
 23
7.236680
  0
POLYLINE
  8
0
  6
CONTINUOUS
 66
     1
 40
0.000000
 41
0.000000
  0
VERTEX
  8
0
  6
CONTINUOUS
 10
6.562600
 20
6.497040
  0
VERTEX
  8
0
  6
CONTINUOUS
 10
6.559520
 20
7.240200
  0
VERTEX
  8
0
  6
CONTINUOUS
 10
6.582400
 20
7.236680
  0
VERTEX
  8
0
  6
CONTINUOUS
 10
6.585480
 20
6.493520
  0
VERTEX
  8
0
  6
CONTINUOUS
 10
6.562600
 20
6.497040
  0
SEQEND
  8
0
  0
SOLID
  8
0
 62
    15
 10
6.585480
 20
6.493520
 11
6.582400
 21
7.236680
 12
6.607480
 22
6.485160
 13
6.604400
 23
7.228320
  0
POLYLINE
  8
0
  6
CONTINUOUS
 66
     1
 40
0.000000
 41
0.000000
  0
VERTEX
  8
0
  6
CONTINUOUS
 10
6.585480
 20
6.493520
  0
VERTEX
  8
0
  6
CONTINUOUS
 10
6.582400
 20
7.236680
  0
VERTEX
  8
0
  6
CONTINUOUS
 10
6.604400
 20
7.228320
  0
VERTEX
  8
0
  6
CONTINUOUS
 10
6.607480
 20
6.485160
  0
VERTEX
  8
0
  6
CONTINUOUS
 10
6.585480
 20
6.493520
  0
SEQEND
  8
0
  0
SOLID
  8
0
 62
    15
 10
6.607480
 20
6.485160
 11
6.604400
 21
7.228320
 12
6.628160
 22
6.472400
 13
6.625080
 23
7.216000
  0
POLYLINE
  8
0
  6
CONTINUOUS
 66
     1
 40
0.000000
 41
0.000000
  0
VERTEX
  8
0
  6
CONTINUOUS
 10
6.607480
 20
6.485160
  0
VERTEX
  8
0
  6
CONTINUOUS
 10
6.604400
 20
7.228320
  0
VERTEX
  8
0
  6
CONTINUOUS
 10
6.625080
 20
7.216000
  0
VERTEX
  8
0
  6
CONTINUOUS
 10
6.628160
 20
6.472400
  0
VERTEX
  8
0
  6
CONTINUOUS
 10
6.607480
 20
6.485160
  0
SEQEND
  8
0
  0
SOLID
  8
0
 62
    15
 10
6.628160
 20
6.472400
 11
6.625080
 21
7.216000
 12
6.646640
 22
6.455680
 13
6.643560
 23
7.198840
  0
POLYLINE
  8
0
  6
CONTINUOUS
 66
     1
 40
0.000000
 41
0.000000
  0
VERTEX
  8
0
  6
CONTINUOUS
 10
6.628160
 20
6.472400
  0
VERTEX
  8
0
  6
CONTINUOUS
 10
6.625080
 20
7.216000
  0
VERTEX
  8
0
  6
CONTINUOUS
 10
6.643560
 20
7.198840
  0
VERTEX
  8
0
  6
CONTINUOUS
 10
6.646640
 20
6.455680
  0
VERTEX
  8
0
  6
CONTINUOUS
 10
6.628160
 20
6.472400
  0
SEQEND
  8
0
  0
SOLID
  8
0
 62
    15
 10
6.662040
 20
6.434120
 11
6.659400
 21
7.177720
 12
6.674360
 22
6.409040
 13
6.671280
 23
7.152200
  0
POLYLINE
  8
0
  6
CONTINUOUS
 66
     1
 40
0.000000
 41
0.000000
  0
VERTEX
  8
0
  6
CONTINUOUS
 10
6.662040
 20
6.434120
  0
VERTEX
  8
0
  6
CONTINUOUS
 10
6.659400
 20
7.177720
  0
VERTEX
  8
0
  6
CONTINUOUS
 10
6.671280
 20
7.152200
  0
VERTEX
  8
0
  6
CONTINUOUS
 10
6.674360
 20
6.409040
  0
VERTEX
  8
0
  6
CONTINUOUS
 10
6.662040
 20
6.434120
  0
SEQEND
  8
0
  0
SOLID
  8
0
 62
    15
 10
6.646640
 20
6.455680
 11
6.643560
 21
7.198840
 12
6.662040
 22
6.434120
 13
6.659400
 23
7.177720
  0
POLYLINE
  8
0
  6
CONTINUOUS
 66
     1
 40
0.000000
 41
0.000000
  0
VERTEX
  8
0
  6
CONTINUOUS
 10
6.646640
 20
6.455680
  0
VERTEX
  8
0
  6
CONTINUOUS
 10
6.643560
 20
7.198840
  0
VERTEX
  8
0
  6
CONTINUOUS
 10
6.659400
 20
7.177720
  0
VERTEX
  8
0
  6
CONTINUOUS
 10
6.662040
 20
6.434120
  0
VERTEX
  8
0
  6
CONTINUOUS
 10
6.646640
 20
6.455680
  0
SEQEND
  8
0
  0
SOLID
  8
0
 62
    15
 10
6.674360
 20
6.409040
 11
6.671280
 21
7.152200
 12
6.682280
 22
6.379120
 13
6.679640
 23
7.122720
  0
POLYLINE
  8
0
  6
CONTINUOUS
 66
     1
 40
0.000000
 41
0.000000
  0
VERTEX
  8
0
  6
CONTINUOUS
 10
6.674360
 20
6.409040
  0
VERTEX
  8
0
  6
CONTINUOUS
 10
6.671280
 20
7.152200
  0
VERTEX
  8
0
  6
CONTINUOUS
 10
6.679640
 20
7.122720
  0
VERTEX
  8
0
  6
CONTINUOUS
 10
6.682280
 20
6.379120
  0
VERTEX
  8
0
  6
CONTINUOUS
 10
6.674360
 20
6.409040
  0
SEQEND
  8
0
  0
SOLID
  8
0
 62
    15
 10
6.685360
 20
6.223360
 11
6.682280
 21
6.966520
 12
6.931320
 22
6.223360
 13
6.928240
 23
6.966520
  0
POLYLINE
  8
0
  6
CONTINUOUS
 66
     1
 40
0.000000
 41
0.000000
  0
VERTEX
  8
0
  6
CONTINUOUS
 10
6.685360
 20
6.223360
  0
VERTEX
  8
0
  6
CONTINUOUS
 10
6.682280
 20
6.966520
  0
VERTEX
  8
0
  6
CONTINUOUS
 10
6.928240
 20
6.966520
  0
VERTEX
  8
0
  6
CONTINUOUS
 10
6.931320
 20
6.223360
  0
VERTEX
  8
0
  6
CONTINUOUS
 10
6.685360
 20
6.223360
  0
SEQEND
  8
0
  0
SOLID
  8
0
 62
    15
 10
6.682280
 20
6.379120
 11
6.679640
 21
7.122720
 12
6.685800
 22
6.345680
 13
6.682720
 23
7.089280
  0
POLYLINE
  8
0
  6
CONTINUOUS
 66
     1
 40
0.000000
 41
0.000000
  0
VERTEX
  8
0
  6
CONTINUOUS
 10
6.682280
 20
6.379120
  0
VERTEX
  8
0
  6
CONTINUOUS
 10
6.679640
 20
7.122720
  0
VERTEX
  8
0
  6
CONTINUOUS
 10
6.682720
 20
7.089280
  0
VERTEX
  8
0
  6
CONTINUOUS
 10
6.685800
 20
6.345680
  0
VERTEX
  8
0
  6
CONTINUOUS
 10
6.682280
 20
6.379120
  0
SEQEND
  8
0
  0
SOLID
  8
0
 62
    15
 10
1.176120
 20
5.776320
 11
1.173040
 21
6.519480
 12
1.176120
 22
6.012600
 13
1.173040
 23
6.756200
  0
POLYLINE
  8
0
  6
CONTINUOUS
 66
     1
 40
0.000000
 41
0.000000
  0
VERTEX
  8
0
  6
CONTINUOUS
 10
1.176120
 20
5.776320
  0
VERTEX
  8
0
  6
CONTINUOUS
 10
1.173040
 20
6.519480
  0
VERTEX
  8
0
  6
CONTINUOUS
 10
1.173040
 20
6.756200
  0
VERTEX
  8
0
  6
CONTINUOUS
 10
1.176120
 20
6.012600
  0
VERTEX
  8
0
  6
CONTINUOUS
 10
1.176120
 20
5.776320
  0
SEQEND
  8
0
  0
SOLID
  8
0
 62
    15
 10
1.176120
 20
6.012600
 11
1.173040
 21
6.756200
 12
1.425160
 22
6.012600
 13
1.422080
 23
6.756200
  0
POLYLINE
  8
0
  6
CONTINUOUS
 66
     1
 40
0.000000
 41
0.000000
  0
VERTEX
  8
0
  6
CONTINUOUS
 10
1.176120
 20
6.012600
  0
VERTEX
  8
0
  6
CONTINUOUS
 10
1.173040
 20
6.756200
  0
VERTEX
  8
0
  6
CONTINUOUS
 10
1.422080
 20
6.756200
  0
VERTEX
  8
0
  6
CONTINUOUS
 10
1.425160
 20
6.012600
  0
VERTEX
  8
0
  6
CONTINUOUS
 10
1.176120
 20
6.012600
  0
SEQEND
  8
0
  0
SOLID
  8
0
 62
    15
 10
1.425160
 20
6.012600
 11
1.422080
 21
6.756200
 12
1.425160
 22
6.224680
 13
1.422080
 23
6.967840
  0
POLYLINE
  8
0
  6
CONTINUOUS
 66
     1
 40
0.000000
 41
0.000000
  0
VERTEX
  8
0
  6
CONTINUOUS
 10
1.425160
 20
6.012600
  0
VERTEX
  8
0
  6
CONTINUOUS
 10
1.422080
 20
6.756200
  0
VERTEX
  8
0
  6
CONTINUOUS
 10
1.422080
 20
6.967840
  0
VERTEX
  8
0
  6
CONTINUOUS
 10
1.425160
 20
6.224680
  0
VERTEX
  8
0
  6
CONTINUOUS
 10
1.425160
 20
6.012600
  0
SEQEND
  8
0
  0
SOLID
  8
0
 62
    15
 10
1.176120
 20
6.289800
 11
1.173040
 21
7.032960
 12
1.176120
 22
6.359320
 13
1.173040
 23
7.102920
  0
POLYLINE
  8
0
  6
CONTINUOUS
 66
     1
 40
0.000000
 41
0.000000
  0
VERTEX
  8
0
  6
CONTINUOUS
 10
1.176120
 20
6.289800
  0
VERTEX
  8
0
  6
CONTINUOUS
 10
1.173040
 20
7.032960
  0
VERTEX
  8
0
  6
CONTINUOUS
 10
1.173040
 20
7.102920
  0
VERTEX
  8
0
  6
CONTINUOUS
 10
1.176120
 20
6.359320
  0
VERTEX
  8
0
  6
CONTINUOUS
 10
1.176120
 20
6.289800
  0
SEQEND
  8
0
  0
SOLID
  8
0
 62
    15
 10
1.176120
 20
6.224680
 11
1.173040
 21
6.967840
 12
1.176120
 22
6.289360
 13
1.173040
 23
7.032520
  0
POLYLINE
  8
0
  6
CONTINUOUS
 66
     1
 40
0.000000
 41
0.000000
  0
VERTEX
  8
0
  6
CONTINUOUS
 10
1.176120
 20
6.224680
  0
VERTEX
  8
0
  6
CONTINUOUS
 10
1.173040
 20
6.967840
  0
VERTEX
  8
0
  6
CONTINUOUS
 10
1.173040
 20
7.032520
  0
VERTEX
  8
0
  6
CONTINUOUS
 10
1.176120
 20
6.289360
  0
VERTEX
  8
0
  6
CONTINUOUS
 10
1.176120
 20
6.224680
  0
SEQEND
  8
0
  0
SOLID
  8
0
 62
    15
 10
1.176120
 20
6.359320
 11
1.173040
 21
7.102920
 12
1.311640
 22
6.521240
 13
1.308560
 23
7.264400
  0
POLYLINE
  8
0
  6
CONTINUOUS
 66
     1
 40
0.000000
 41
0.000000
  0
VERTEX
  8
0
  6
CONTINUOUS
 10
1.176120
 20
6.359320
  0
VERTEX
  8
0
  6
CONTINUOUS
 10
1.173040
 20
7.102920
  0
VERTEX
  8
0
  6
CONTINUOUS
 10
1.308560
 20
7.264400
  0
VERTEX
  8
0
  6
CONTINUOUS
 10
1.311640
 20
6.521240
  0
VERTEX
  8
0
  6
CONTINUOUS
 10
1.176120
 20
6.359320
  0
SEQEND
  8
0
  0
SOLID
  8
0
 62
    15
 10
1.311640
 20
6.521240
 11
1.308560
 21
7.264400
 12
3.485240
 22
6.521240
 13
3.482160
 23
7.264400
  0
POLYLINE
  8
0
  6
CONTINUOUS
 66
     1
 40
0.000000
 41
0.000000
  0
VERTEX
  8
0
  6
CONTINUOUS
 10
1.311640
 20
6.521240
  0
VERTEX
  8
0
  6
CONTINUOUS
 10
1.308560
 20
7.264400
  0
VERTEX
  8
0
  6
CONTINUOUS
 10
3.482160
 20
7.264400
  0
VERTEX
  8
0
  6
CONTINUOUS
 10
3.485240
 20
6.521240
  0
VERTEX
  8
0
  6
CONTINUOUS
 10
1.311640
 20
6.521240
  0
SEQEND
  8
0
  0
SOLID
  8
0
 62
    15
 10
3.485240
 20
6.521240
 11
3.482160
 21
7.264400
 12
3.487880
 22
6.520800
 13
3.485240
 23
7.263960
  0
POLYLINE
  8
0
  6
CONTINUOUS
 66
     1
 40
0.000000
 41
0.000000
  0
VERTEX
  8
0
  6
CONTINUOUS
 10
3.485240
 20
6.521240
  0
VERTEX
  8
0
  6
CONTINUOUS
 10
3.482160
 20
7.264400
  0
VERTEX
  8
0
  6
CONTINUOUS
 10
3.485240
 20
7.263960
  0
VERTEX
  8
0
  6
CONTINUOUS
 10
3.487880
 20
6.520800
  0
VERTEX
  8
0
  6
CONTINUOUS
 10
3.485240
 20
6.521240
  0
SEQEND
  8
0
  0
POLYLINE
  8
0
  6
CONTINUOUS
 66
     1
 40
0.000000
 41
0.000000
  0
VERTEX
  8
0
  6
CONTINUOUS
 10
3.487880
 20
6.520800
  0
VERTEX
  8
0
  6
CONTINUOUS
 10
3.634840
 20
6.354040
  0
VERTEX
  8
0
  6
CONTINUOUS
 10
3.660360
 20
6.354040
  0
VERTEX
  8
0
  6
CONTINUOUS
 10
3.666520
 20
6.389680
  0
VERTEX
  8
0
  6
CONTINUOUS
 10
3.676640
 20
6.419600
  0
VERTEX
  8
0
  6
CONTINUOUS
 10
3.690280
 20
6.444680
  0
VERTEX
  8
0
  6
CONTINUOUS
 10
3.707000
 20
6.464920
  0
VERTEX
  8
0
  6
CONTINUOUS
 10
3.725920
 20
6.479880
  0
VERTEX
  8
0
  6
CONTINUOUS
 10
3.746600
 20
6.490440
  0
VERTEX
  8
0
  6
CONTINUOUS
 10
3.768600
 20
6.495720
  0
VERTEX
  8
0
  6
CONTINUOUS
 10
3.791040
 20
6.497040
  0
VERTEX
  8
0
  6
CONTINUOUS
 10
3.813480
 20
6.493520
  0
VERTEX
  8
0
  6
CONTINUOUS
 10
3.835480
 20
6.485600
  0
VERTEX
  8
0
  6
CONTINUOUS
 10
3.855720
 20
6.473720
  0
VERTEX
  8
0
  6
CONTINUOUS
 10
3.874640
 20
6.457440
  0
VERTEX
  8
0
  6
CONTINUOUS
 10
3.890920
 20
6.437640
  0
VERTEX
  8
0
  6
CONTINUOUS
 10
3.904120
 20
6.413440
  0
VERTEX
  8
0
  6
CONTINUOUS
 10
3.913800
 20
6.385720
  0
VERTEX
  8
0
  6
CONTINUOUS
 10
3.919080
 20
6.354480
  0
VERTEX
  8
0
  6
CONTINUOUS
 10
3.944600
 20
6.354480
  0
VERTEX
  8
0
  6
CONTINUOUS
 10
4.084960
 20
6.521240
  0
VERTEX
  8
0
  6
CONTINUOUS
 10
6.254600
 20
6.521240
  0
VERTEX
  8
0
  6
CONTINUOUS
 10
6.401120
 20
6.354480
  0
VERTEX
  8
0
  6
CONTINUOUS
 10
6.427080
 20
6.354480
  0
VERTEX
  8
0
  6
CONTINUOUS
 10
6.433240
 20
6.389680
  0
VERTEX
  8
0
  6
CONTINUOUS
 10
6.443800
 20
6.420040
  0
VERTEX
  8
0
  6
CONTINUOUS
 10
6.457880
 20
6.445120
  0
VERTEX
  8
0
  6
CONTINUOUS
 10
6.475040
 20
6.464920
  0
VERTEX
  8
0
  6
CONTINUOUS
 10
6.494840
 20
6.480320
  0
VERTEX
  8
0
  6
CONTINUOUS
 10
6.516400
 20
6.490440
  0
VERTEX
  8
0
  6
CONTINUOUS
 10
6.539280
 20
6.496160
  0
VERTEX
  8
0
  6
CONTINUOUS
 10
6.562600
 20
6.497040
  0
VERTEX
  8
0
  6
CONTINUOUS
 10
6.585480
 20
6.493520
  0
VERTEX
  8
0
  6
CONTINUOUS
 10
6.607480
 20
6.485160
  0
VERTEX
  8
0
  6
CONTINUOUS
 10
6.628160
 20
6.472400
  0
VERTEX
  8
0
  6
CONTINUOUS
 10
6.646640
 20
6.455680
  0
VERTEX
  8
0
  6
CONTINUOUS
 10
6.662040
 20
6.434120
  0
VERTEX
  8
0
  6
CONTINUOUS
 10
6.674360
 20
6.409040
  0
VERTEX
  8
0
  6
CONTINUOUS
 10
6.682280
 20
6.379120
  0
VERTEX
  8
0
  6
CONTINUOUS
 10
6.685800
 20
6.345680
  0
VERTEX
  8
0
  6
CONTINUOUS
 10
6.685360
 20
6.345680
  0
VERTEX
  8
0
  6
CONTINUOUS
 10
6.685360
 20
6.262080
  0
VERTEX
  8
0
  6
CONTINUOUS
 10
6.685360
 20
6.289360
  0
VERTEX
  8
0
  6
CONTINUOUS
 10
6.685360
 20
6.223360
  0
VERTEX
  8
0
  6
CONTINUOUS
 10
6.931320
 20
6.223360
  0
VERTEX
  8
0
  6
CONTINUOUS
 10
6.931320
 20
6.012600
  0
VERTEX
  8
0
  6
CONTINUOUS
 10
6.685360
 20
6.012600
  0
VERTEX
  8
0
  6
CONTINUOUS
 10
6.684920
 20
5.776320
  0
VERTEX
  8
0
  6
CONTINUOUS
 10
1.176120
 20
5.776320
  0
VERTEX
  8
0
  6
CONTINUOUS
 10
1.176120
 20
6.012600
  0
VERTEX
  8
0
  6
CONTINUOUS
 10
1.425160
 20
6.012600
  0
VERTEX
  8
0
  6
CONTINUOUS
 10
1.425160
 20
6.224680
  0
VERTEX
  8
0
  6
CONTINUOUS
 10
1.176120
 20
6.224680
  0
VERTEX
  8
0
  6
CONTINUOUS
 10
1.176120
 20
6.359320
  0
VERTEX
  8
0
  6
CONTINUOUS
 10
1.311640
 20
6.521240
  0
VERTEX
  8
0
  6
CONTINUOUS
 10
3.487880
 20
6.520800
  0
SEQEND
  8
0
  0
POLYLINE
  8
0
  6
CONTINUOUS
 66
     1
 40
0.000000
 41
0.000000
  0
VERTEX
  8
0
  6
CONTINUOUS
 10
4.564560
 20
3.254240
  0
VERTEX
  8
0
  6
CONTINUOUS
 10
4.418040
 20
3.087480
  0
VERTEX
  8
0
  6
CONTINUOUS
 10
4.392080
 20
3.087480
  0
VERTEX
  8
0
  6
CONTINUOUS
 10
4.385920
 20
3.123120
  0
VERTEX
  8
0
  6
CONTINUOUS
 10
4.381520
 20
3.138960
  0
VERTEX
  8
0
  6
CONTINUOUS
 10
4.369640
 20
3.166240
  0
VERTEX
  8
0
  6
CONTINUOUS
 10
4.354240
 20
3.189120
  0
VERTEX
  8
0
  6
CONTINUOUS
 10
4.336200
 20
3.206280
  0
VERTEX
  8
0
  6
CONTINUOUS
 10
4.316400
 20
3.219040
  0
VERTEX
  8
0
  6
CONTINUOUS
 10
4.294840
 20
3.226960
  0
VERTEX
  8
0
  6
CONTINUOUS
 10
4.272840
 20
3.230480
  0
VERTEX
  8
0
  6
CONTINUOUS
 10
4.250400
 20
3.229160
  0
VERTEX
  8
0
  6
CONTINUOUS
 10
4.227960
 20
3.223440
  0
VERTEX
  8
0
  6
CONTINUOUS
 10
4.206840
 20
3.213320
  0
VERTEX
  8
0
  6
CONTINUOUS
 10
4.187040
 20
3.199240
  0
VERTEX
  8
0
  6
CONTINUOUS
 10
4.169440
 20
3.181200
  0
VERTEX
  8
0
  6
CONTINUOUS
 10
4.154920
 20
3.159200
  0
VERTEX
  8
0
  6
CONTINUOUS
 10
4.143480
 20
3.133240
  0
VERTEX
  8
0
  6
CONTINUOUS
 10
4.136000
 20
3.103760
  0
VERTEX
  8
0
  6
CONTINUOUS
 10
4.133800
 20
3.087480
  0
VERTEX
  8
0
  6
CONTINUOUS
 10
4.108280
 20
3.087480
  0
VERTEX
  8
0
  6
CONTINUOUS
 10
3.967040
 20
3.254680
  0
VERTEX
  8
0
  6
CONTINUOUS
 10
1.798280
 20
3.254680
  0
VERTEX
  8
0
  6
CONTINUOUS
 10
1.651760
 20
3.087920
  0
VERTEX
  8
0
  6
CONTINUOUS
 10
1.625800
 20
3.087920
  0
VERTEX
  8
0
  6
CONTINUOUS
 10
1.619640
 20
3.123120
  0
VERTEX
  8
0
  6
CONTINUOUS
 10
1.609080
 20
3.153480
  0
VERTEX
  8
0
  6
CONTINUOUS
 10
1.595000
 20
3.178560
  0
VERTEX
  8
0
  6
CONTINUOUS
 10
1.577400
 20
3.198360
  0
VERTEX
  8
0
  6
CONTINUOUS
 10
1.557600
 20
3.213760
  0
VERTEX
  8
0
  6
CONTINUOUS
 10
1.536040
 20
3.223880
  0
VERTEX
  8
0
  6
CONTINUOUS
 10
1.513160
 20
3.229600
  0
VERTEX
  8
0
  6
CONTINUOUS
 10
1.490280
 20
3.230480
  0
VERTEX
  8
0
  6
CONTINUOUS
 10
1.467400
 20
3.226520
  0
VERTEX
  8
0
  6
CONTINUOUS
 10
1.444960
 20
3.218600
  0
VERTEX
  8
0
  6
CONTINUOUS
 10
1.424280
 20
3.205840
  0
VERTEX
  8
0
  6
CONTINUOUS
 10
1.406240
 20
3.188680
  0
VERTEX
  8
0
  6
CONTINUOUS
 10
1.390400
 20
3.167560
  0
VERTEX
  8
0
  6
CONTINUOUS
 10
1.378080
 20
3.142040
  0
VERTEX
  8
0
  6
CONTINUOUS
 10
1.370160
 20
3.112560
  0
VERTEX
  8
0
  6
CONTINUOUS
 10
1.367080
 20
3.079120
  0
VERTEX
  8
0
  6
CONTINUOUS
 10
1.367520
 20
2.956800
  0
VERTEX
  8
0
  6
CONTINUOUS
 10
1.121120
 20
2.956800
  0
VERTEX
  8
0
  6
CONTINUOUS
 10
1.121120
 20
2.746040
  0
VERTEX
  8
0
  6
CONTINUOUS
 10
1.367520
 20
2.746040
  0
VERTEX
  8
0
  6
CONTINUOUS
 10
1.367960
 20
2.509760
  0
VERTEX
  8
0
  6
CONTINUOUS
 10
6.876760
 20
2.509760
  0
VERTEX
  8
0
  6
CONTINUOUS
 10
6.876760
 20
2.746040
  0
VERTEX
  8
0
  6
CONTINUOUS
 10
6.627720
 20
2.746040
  0
VERTEX
  8
0
  6
CONTINUOUS
 10
6.627720
 20
2.958120
  0
VERTEX
  8
0
  6
CONTINUOUS
 10
6.877200
 20
2.958120
  0
VERTEX
  8
0
  6
CONTINUOUS
 10
6.876760
 20
2.958120
  0
VERTEX
  8
0
  6
CONTINUOUS
 10
6.876760
 20
3.092760
  0
VERTEX
  8
0
  6
CONTINUOUS
 10
6.741240
 20
3.254680
  0
VERTEX
  8
0
  6
CONTINUOUS
 10
4.564560
 20
3.254240
  0
SEQEND
  8
0
  0
POLYLINE
  8
0
  6
CONTINUOUS
 66
     1
 40
0.000000
 41
0.000000
  0
VERTEX
  8
0
  6
CONTINUOUS
 10
3.657280
 20
4.608560
  0
VERTEX
  8
0
  6
CONTINUOUS
 10
3.803800
 20
4.441360
  0
VERTEX
  8
0
  6
CONTINUOUS
 10
3.829760
 20
4.441360
  0
VERTEX
  8
0
  6
CONTINUOUS
 10
3.835920
 20
4.477000
  0
VERTEX
  8
0
  6
CONTINUOUS
 10
3.840320
 20
4.492840
  0
VERTEX
  8
0
  6
CONTINUOUS
 10
3.852200
 20
4.520560
  0
VERTEX
  8
0
  6
CONTINUOUS
 10
3.867600
 20
4.543000
  0
VERTEX
  8
0
  6
CONTINUOUS
 10
3.885640
 20
4.560600
  0
VERTEX
  8
0
  6
CONTINUOUS
 10
3.905440
 20
4.573360
  0
VERTEX
  8
0
  6
CONTINUOUS
 10
3.927000
 20
4.581280
  0
VERTEX
  8
0
  6
CONTINUOUS
 10
3.949000
 20
4.584360
  0
VERTEX
  8
0
  6
CONTINUOUS
 10
3.971880
 20
4.583480
  0
VERTEX
  8
0
  6
CONTINUOUS
 10
3.993880
 20
4.577760
  0
VERTEX
  8
0
  6
CONTINUOUS
 10
4.015000
 20
4.567640
  0
VERTEX
  8
0
  6
CONTINUOUS
 10
4.034800
 20
4.553560
  0
VERTEX
  8
0
  6
CONTINUOUS
 10
4.052400
 20
4.535520
  0
VERTEX
  8
0
  6
CONTINUOUS
 10
4.067360
 20
4.513520
  0
VERTEX
  8
0
  6
CONTINUOUS
 10
4.078800
 20
4.487560
  0
VERTEX
  8
0
  6
CONTINUOUS
 10
4.086280
 20
4.458080
  0
VERTEX
  8
0
  6
CONTINUOUS
 10
4.088480
 20
4.441800
  0
VERTEX
  8
0
  6
CONTINUOUS
 10
4.114000
 20
4.441800
  0
VERTEX
  8
0
  6
CONTINUOUS
 10
4.254800
 20
4.608560
  0
VERTEX
  8
0
  6
CONTINUOUS
 10
6.424000
 20
4.608560
  0
VERTEX
  8
0
  6
CONTINUOUS
 10
6.570520
 20
4.441800
  0
VERTEX
  8
0
  6
CONTINUOUS
 10
6.596480
 20
4.441800
  0
VERTEX
  8
0
  6
CONTINUOUS
 10
6.602640
 20
4.477000
  0
VERTEX
  8
0
  6
CONTINUOUS
 10
6.613200
 20
4.507360
  0
VERTEX
  8
0
  6
CONTINUOUS
 10
6.627280
 20
4.532440
  0
VERTEX
  8
0
  6
CONTINUOUS
 10
6.644440
 20
4.552680
  0
VERTEX
  8
0
  6
CONTINUOUS
 10
6.664240
 20
4.567640
  0
VERTEX
  8
0
  6
CONTINUOUS
 10
6.685800
 20
4.578200
  0
VERTEX
  8
0
  6
CONTINUOUS
 10
6.708680
 20
4.583480
  0
VERTEX
  8
0
  6
CONTINUOUS
 10
6.720120
 20
4.584800
  0
VERTEX
  8
0
  6
CONTINUOUS
 10
6.743440
 20
4.583040
  0
VERTEX
  8
0
  6
CONTINUOUS
 10
6.765880
 20
4.577320
  0
VERTEX
  8
0
  6
CONTINUOUS
 10
6.787440
 20
4.566760
  0
VERTEX
  8
0
  6
CONTINUOUS
 10
6.807240
 20
4.552240
  0
VERTEX
  8
0
  6
CONTINUOUS
 10
6.824400
 20
4.532880
  0
VERTEX
  8
0
  6
CONTINUOUS
 10
6.831880
 20
4.521880
  0
VERTEX
  8
0
  6
CONTINUOUS
 10
6.843760
 20
4.496360
  0
VERTEX
  8
0
  6
CONTINUOUS
 10
6.848600
 20
4.482280
  0
VERTEX
  8
0
  6
CONTINUOUS
 10
6.854320
 20
4.450600
  0
VERTEX
  8
0
  6
CONTINUOUS
 10
6.855200
 20
4.433440
  0
VERTEX
  8
0
  6
CONTINUOUS
 10
6.854760
 20
4.433440
  0
VERTEX
  8
0
  6
CONTINUOUS
 10
6.854320
 20
4.310680
  0
VERTEX
  8
0
  6
CONTINUOUS
 10
7.100720
 20
4.310680
  0
VERTEX
  8
0
  6
CONTINUOUS
 10
7.100720
 20
4.100360
  0
VERTEX
  8
0
  6
CONTINUOUS
 10
6.854320
 20
4.100360
  0
VERTEX
  8
0
  6
CONTINUOUS
 10
6.853880
 20
3.864080
  0
VERTEX
  8
0
  6
CONTINUOUS
 10
1.345520
 20
3.864080
  0
VERTEX
  8
0
  6
CONTINUOUS
 10
1.345520
 20
4.100360
  0
VERTEX
  8
0
  6
CONTINUOUS
 10
1.594560
 20
4.100360
  0
VERTEX
  8
0
  6
CONTINUOUS
 10
1.594560
 20
4.312000
  0
VERTEX
  8
0
  6
CONTINUOUS
 10
1.345080
 20
4.312000
  0
VERTEX
  8
0
  6
CONTINUOUS
 10
1.345520
 20
4.312000
  0
VERTEX
  8
0
  6
CONTINUOUS
 10
1.345080
 20
4.447080
  0
VERTEX
  8
0
  6
CONTINUOUS
 10
1.481040
 20
4.608560
  0
VERTEX
  8
0
  6
CONTINUOUS
 10
3.657280
 20
4.608560
  0
SEQEND
  8
0
  0
ENDSEC
  0
EOF
