  0
SECTION
  2
HEADER
  9
$ACADVER
  1
AC1006
  9
$EXTMIN
 10
2.045560
 20
2.144120
  9
$EXTMAX
 10
6.560840
 20
8.627960
  9
$LTSCALE
 40
0.044000
  9
$PDMODE
 70
    35
  9
$PDSIZE
 40
0.035200
  0
ENDSEC
  0
SECTION
  2
TABLES
  0
TABLE
  2
LTYPE
 70
     9
  0
LTYPE
  2
CONTINUOUS
 70
    64
  3
Solid line
 72
    65
 73
     0
 40
0.000000
  0
LTYPE
  2
DASHED
 70
    64
  3
__ __ __ __ __ __ __ __ __ __ __ __ __ __ __
 72
    65
 73
     2
 40
0.000330
 49
0.000220
 49
-0.000110
  0
LTYPE
  2
HIDDEN
 70
    64
  3
 _ _ _ _ _ _ _ _ _ _ _ _ _ _ _ _ _ _ _ _ _ _
 72
    65
 73
     2
 40
0.000165
 49
0.000110
 49
-0.000055
  0
LTYPE
  2
CENTER
 70
    64
  3
____ _ ____ _ ____ _ ____ _ ____ _ ____ _ ____
 72
    65
 73
     4
 40
0.000880
 49
0.000550
 49
-0.000110
 49
0.000110
 49
-0.000110
  0
LTYPE
  2
PHANTOM
 70
    64
  3
_____ _ _ _____ _ _ _____ _ _ _____ _ _ ____
 72
    65
 73
     6
 40
0.001100
 49
0.000550
 49
-0.000110
 49
0.000110
 49
-0.000110
 49
0.000110
 49
-0.000110
  0
LTYPE
  2
DOT
 70
    64
  3
...............................................
 72
    65
 73
     2
 40
0.000110
 49
0.000000
 49
-0.000110
  0
LTYPE
  2
DASHDOT
 70
    64
  3
__ . __ . __ . __ . __ . __ . __ . __ . __ . __
 72
    65
 73
     4
 40
0.000440
 49
0.000220
 49
-0.000110
 49
0.000000
 49
-0.000110
  0
LTYPE
  2
BORDER
 70
    64
  3
__ __ . __ __ . __ __ . __ __ . __ __ . __ __
 72
    65
 73
     6
 40
0.000770
 49
0.000220
 49
-0.000110
 49
0.000220
 49
-0.000110
 49
0.000000
 49
-0.000110
  0
LTYPE
  2
DIVIDE
 70
    64
  3
__ . . __ . . __ . . __ . . __ . . __ . . __
 72
    65
 73
     6
 40
0.000550
 49
0.000220
 49
-0.000110
 49
0.000000
 49
-0.000110
 49
0.000000
 49
-0.000110
  0
LTYPE
  2
DOTDOT
 70
    64
  3
 . .  . .  . .  . .  . .  . . 
 72
    65
 73
     5
 40
0.000242
 49
-0.000110
 49
0.000000
 49
-0.000110
 49
0.000000
 49
-0.000110
  0
ENDTAB
  0
TABLE
  2
STYLE
 70
     2
  0
STYLE
 70
     0
  2
SN0
 40
0.000000
 41
0.000440
 50
0.000000
 71
     0
 42
0.000000
  3
ROMAND
  0
STYLE
 70
    68
  2
SV0
 40
0.000000
 41
0.000440
 50
0.000000
 71
     0
 42
0.000000
  3
ROMAND
  0
ENDTAB
  0
TABLE
  2
LAYER
 70
     3
  0
LAYER
  2
FOREGROUND
 70
    64
 62
     7
  6
CONTINUOUS
  0
LAYER
  2
BACKGROUND
 70
    65
 62
    -7
  6
CONTINUOUS
  0
LAYER
  2
0
 70
    64
 62
     7
  6
CONTINUOUS
  0
ENDTAB
  0
ENDSEC
  0
SECTION
  2
ENTITIES
  0
POLYLINE
  8
FOREGROUND
  6
CONTINUOUS
 66
     1
 40
0.000000
 41
0.000000
  0
VERTEX
  8
FOREGROUND
  6
CONTINUOUS
 10
0.000000
 20
10.772080
  0
VERTEX
  8
FOREGROUND
  6
CONTINUOUS
 10
8.499920
 20
10.772080
  0
VERTEX
  8
FOREGROUND
  6
CONTINUOUS
 10
8.499920
 20
-0.227920
  0
VERTEX
  8
FOREGROUND
  6
CONTINUOUS
 10
0.000000
 20
-0.227920
  0
VERTEX
  8
FOREGROUND
  6
CONTINUOUS
 10
0.000000
 20
10.772080
  0
SEQEND
  8
0
  0
POLYLINE
  8
FOREGROUND
  6
CONTINUOUS
 66
     1
 40
0.000000
 41
0.000000
  0
VERTEX
  8
FOREGROUND
  6
CONTINUOUS
 10
0.000000
 20
10.772080
  0
VERTEX
  8
FOREGROUND
  6
CONTINUOUS
 10
8.499920
 20
10.772080
  0
VERTEX
  8
FOREGROUND
  6
CONTINUOUS
 10
8.499920
 20
-0.227920
  0
VERTEX
  8
FOREGROUND
  6
CONTINUOUS
 10
0.000000
 20
-0.227920
  0
VERTEX
  8
FOREGROUND
  6
CONTINUOUS
 10
0.000000
 20
10.772080
  0
SEQEND
  8
0
  0
POLYLINE
  8
0
  6
CONTINUOUS
 66
     1
 40
0.014080
 41
0.014080
  0
VERTEX
  8
0
  6
CONTINUOUS
 10
3.210240
 20
8.247360
  0
VERTEX
  8
0
  6
CONTINUOUS
 10
3.131480
 20
8.619160
  0
VERTEX
  8
0
  6
CONTINUOUS
 10
2.053480
 20
8.620040
  0
VERTEX
  8
0
  6
CONTINUOUS
 10
2.053480
 20
7.870720
  0
VERTEX
  8
0
  6
CONTINUOUS
 10
2.053480
 20
7.745320
  0
VERTEX
  8
0
  6
CONTINUOUS
 10
6.553800
 20
7.745320
  0
VERTEX
  8
0
  6
CONTINUOUS
 10
6.553800
 20
8.617400
  0
VERTEX
  8
0
  6
CONTINUOUS
 10
5.474480
 20
8.617400
  0
VERTEX
  8
0
  6
CONTINUOUS
 10
5.394840
 20
8.245160
  0
VERTEX
  8
0
  6
CONTINUOUS
 10
3.210240
 20
8.245160
  0
VERTEX
  8
0
  6
CONTINUOUS
 10
3.210240
 20
8.247360
  0
SEQEND
  8
0
  0
POLYLINE
  8
0
  6
CONTINUOUS
 66
     1
 40
0.000000
 41
0.000000
  0
VERTEX
  8
0
  6
CONTINUOUS
 10
3.210240
 20
2.646160
  0
VERTEX
  8
0
  6
CONTINUOUS
 10
3.131480
 20
3.018400
  0
VERTEX
  8
0
  6
CONTINUOUS
 10
2.053480
 20
3.019280
  0
VERTEX
  8
0
  6
CONTINUOUS
 10
2.053480
 20
2.269960
  0
VERTEX
  8
0
  6
CONTINUOUS
 10
2.053480
 20
2.144560
  0
VERTEX
  8
0
  6
CONTINUOUS
 10
6.553800
 20
2.144560
  0
VERTEX
  8
0
  6
CONTINUOUS
 10
6.553800
 20
3.016200
  0
VERTEX
  8
0
  6
CONTINUOUS
 10
5.474480
 20
3.016200
  0
VERTEX
  8
0
  6
CONTINUOUS
 10
5.394840
 20
2.644400
  0
VERTEX
  8
0
  6
CONTINUOUS
 10
3.210240
 20
2.644400
  0
VERTEX
  8
0
  6
CONTINUOUS
 10
3.210240
 20
2.646160
  0
SEQEND
  8
0
  0
POLYLINE
  8
0
  6
CONTINUOUS
 66
     1
 40
0.000000
 41
0.000000
  0
VERTEX
  8
0
  6
CONTINUOUS
 10
3.210240
 20
3.905440
  0
VERTEX
  8
0
  6
CONTINUOUS
 10
3.131480
 20
4.277680
  0
VERTEX
  8
0
  6
CONTINUOUS
 10
2.053480
 20
4.278560
  0
VERTEX
  8
0
  6
CONTINUOUS
 10
2.053480
 20
3.529240
  0
VERTEX
  8
0
  6
CONTINUOUS
 10
2.053480
 20
3.403840
  0
VERTEX
  8
0
  6
CONTINUOUS
 10
6.553800
 20
3.403840
  0
VERTEX
  8
0
  6
CONTINUOUS
 10
6.553800
 20
4.275480
  0
VERTEX
  8
0
  6
CONTINUOUS
 10
5.474480
 20
4.275480
  0
VERTEX
  8
0
  6
CONTINUOUS
 10
5.394840
 20
3.903680
  0
VERTEX
  8
0
  6
CONTINUOUS
 10
3.210240
 20
3.903680
  0
VERTEX
  8
0
  6
CONTINUOUS
 10
3.210240
 20
3.905440
  0
SEQEND
  8
0
  0
SOLID
  8
0
 62
    15
 10
5.397040
 20
5.816800
 11
5.392640
 21
6.577560
 12
5.476680
 22
6.188600
 13
5.472280
 23
6.949800
  0
POLYLINE
  8
0
  6
CONTINUOUS
 66
     1
 40
0.000000
 41
0.000000
  0
VERTEX
  8
0
  6
CONTINUOUS
 10
5.397040
 20
5.816800
  0
VERTEX
  8
0
  6
CONTINUOUS
 10
5.392640
 20
6.577560
  0
VERTEX
  8
0
  6
CONTINUOUS
 10
5.472280
 20
6.949800
  0
VERTEX
  8
0
  6
CONTINUOUS
 10
5.476680
 20
6.188600
  0
VERTEX
  8
0
  6
CONTINUOUS
 10
5.397040
 20
5.816800
  0
SEQEND
  8
0
  0
SOLID
  8
0
 62
    15
 10
5.476680
 20
6.188600
 11
5.472280
 21
6.949800
 12
6.556000
 22
6.188600
 13
6.551160
 23
6.949800
  0
POLYLINE
  8
0
  6
CONTINUOUS
 66
     1
 40
0.000000
 41
0.000000
  0
VERTEX
  8
0
  6
CONTINUOUS
 10
5.476680
 20
6.188600
  0
VERTEX
  8
0
  6
CONTINUOUS
 10
5.472280
 20
6.949800
  0
VERTEX
  8
0
  6
CONTINUOUS
 10
6.551160
 20
6.949800
  0
VERTEX
  8
0
  6
CONTINUOUS
 10
6.556000
 20
6.188600
  0
VERTEX
  8
0
  6
CONTINUOUS
 10
5.476680
 20
6.188600
  0
SEQEND
  8
0
  0
SOLID
  8
0
 62
    15
 10
2.055680
 20
5.316960
 11
2.050840
 21
6.077720
 12
2.055680
 22
6.191680
 13
2.050840
 23
6.952440
  0
POLYLINE
  8
0
  6
CONTINUOUS
 66
     1
 40
0.000000
 41
0.000000
  0
VERTEX
  8
0
  6
CONTINUOUS
 10
2.055680
 20
5.316960
  0
VERTEX
  8
0
  6
CONTINUOUS
 10
2.050840
 20
6.077720
  0
VERTEX
  8
0
  6
CONTINUOUS
 10
2.050840
 20
6.952440
  0
VERTEX
  8
0
  6
CONTINUOUS
 10
2.055680
 20
6.191680
  0
VERTEX
  8
0
  6
CONTINUOUS
 10
2.055680
 20
5.316960
  0
SEQEND
  8
0
  0
SOLID
  8
0
 62
    15
 10
2.055680
 20
6.191680
 11
2.050840
 21
6.952440
 12
3.133680
 22
6.190800
 13
3.128840
 23
6.951560
  0
POLYLINE
  8
0
  6
CONTINUOUS
 66
     1
 40
0.000000
 41
0.000000
  0
VERTEX
  8
0
  6
CONTINUOUS
 10
2.055680
 20
6.191680
  0
VERTEX
  8
0
  6
CONTINUOUS
 10
2.050840
 20
6.952440
  0
VERTEX
  8
0
  6
CONTINUOUS
 10
3.128840
 20
6.951560
  0
VERTEX
  8
0
  6
CONTINUOUS
 10
3.133680
 20
6.190800
  0
VERTEX
  8
0
  6
CONTINUOUS
 10
2.055680
 20
6.191680
  0
SEQEND
  8
0
  0
SOLID
  8
0
 62
    15
 10
3.212440
 20
5.816800
 11
3.208040
 21
6.577560
 12
5.397040
 22
5.816800
 13
5.392640
 23
6.577560
  0
POLYLINE
  8
0
  6
CONTINUOUS
 66
     1
 40
0.000000
 41
0.000000
  0
VERTEX
  8
0
  6
CONTINUOUS
 10
3.212440
 20
5.816800
  0
VERTEX
  8
0
  6
CONTINUOUS
 10
3.208040
 20
6.577560
  0
VERTEX
  8
0
  6
CONTINUOUS
 10
5.392640
 20
6.577560
  0
VERTEX
  8
0
  6
CONTINUOUS
 10
5.397040
 20
5.816800
  0
VERTEX
  8
0
  6
CONTINUOUS
 10
3.212440
 20
5.816800
  0
SEQEND
  8
0
  0
SOLID
  8
0
 62
    15
 10
3.133680
 20
6.190800
 11
3.128840
 21
6.951560
 12
3.212440
 22
5.818560
 13
3.208040
 23
6.579320
  0
POLYLINE
  8
0
  6
CONTINUOUS
 66
     1
 40
0.000000
 41
0.000000
  0
VERTEX
  8
0
  6
CONTINUOUS
 10
3.133680
 20
6.190800
  0
VERTEX
  8
0
  6
CONTINUOUS
 10
3.128840
 20
6.951560
  0
VERTEX
  8
0
  6
CONTINUOUS
 10
3.208040
 20
6.579320
  0
VERTEX
  8
0
  6
CONTINUOUS
 10
3.212440
 20
5.818560
  0
VERTEX
  8
0
  6
CONTINUOUS
 10
3.133680
 20
6.190800
  0
SEQEND
  8
0
  0
POLYLINE
  8
0
  6
CONTINUOUS
 66
     1
 40
0.000000
 41
0.000000
  0
VERTEX
  8
0
  6
CONTINUOUS
 10
3.212440
 20
5.816800
  0
VERTEX
  8
0
  6
CONTINUOUS
 10
5.397040
 20
5.816800
  0
VERTEX
  8
0
  6
CONTINUOUS
 10
5.476680
 20
6.188600
  0
VERTEX
  8
0
  6
CONTINUOUS
 10
6.556000
 20
6.188600
  0
VERTEX
  8
0
  6
CONTINUOUS
 10
6.556000
 20
5.316960
  0
VERTEX
  8
0
  6
CONTINUOUS
 10
2.055680
 20
5.316960
  0
VERTEX
  8
0
  6
CONTINUOUS
 10
2.055680
 20
6.191680
  0
VERTEX
  8
0
  6
CONTINUOUS
 10
3.133680
 20
6.190800
  0
VERTEX
  8
0
  6
CONTINUOUS
 10
3.212440
 20
5.818560
  0
VERTEX
  8
0
  6
CONTINUOUS
 10
3.212440
 20
5.816800
  0
SEQEND
  8
0
  0
TEXT
  8
0
 10
3.961320
 20
5.079800
 40
0.137895
  1
BA  1294
 41
1.000000
  7
SN0
 71
     0
 72
     5
 11
4.643096
 21
5.079800
  0
TEXT
  8
0
 10
3.851760
 20
4.887960
 40
0.137895
  1
7/8" x 4-1/2"
 41
1.000000
  7
SN0
 71
     0
 72
     5
 11
4.752041
 21
4.887960
  0
TEXT
  8
0
 10
3.977600
 20
8.049800
 40
0.137895
  1
BA  1294
 41
1.000000
  7
SN0
 71
     0
 72
     5
 11
4.659376
 21
8.049800
  0
TEXT
  8
0
 10
3.867600
 20
7.857960
 40
0.137895
  1
7/8" x 4-1/2"
 41
1.000000
  7
SN0
 71
     0
 72
     5
 11
4.767881
 21
7.857960
  0
ENDSEC
  0
EOF
