  0
SECTION
  2
HEADER
  9
$ACADVER
  1
AC1006
  9
$EXTMIN
 10
1.833480
 20
2.392280
  9
$EXTMAX
 10
6.530040
 20
9.567360
  9
$LTSCALE
 40
0.044000
  9
$PDMODE
 70
    35
  9
$PDSIZE
 40
0.035200
  0
ENDSEC
  0
SECTION
  2
TABLES
  0
TABLE
  2
LTYPE
 70
     9
  0
LTYPE
  2
CONTINUOUS
 70
    64
  3
Solid line
 72
    65
 73
     0
 40
0.000000
  0
LTYPE
  2
DASHED
 70
    64
  3
__ __ __ __ __ __ __ __ __ __ __ __ __ __ __
 72
    65
 73
     2
 40
0.000330
 49
0.000220
 49
-0.000110
  0
LTYPE
  2
HIDDEN
 70
    64
  3
 _ _ _ _ _ _ _ _ _ _ _ _ _ _ _ _ _ _ _ _ _ _
 72
    65
 73
     2
 40
0.000165
 49
0.000110
 49
-0.000055
  0
LTYPE
  2
CENTER
 70
    64
  3
____ _ ____ _ ____ _ ____ _ ____ _ ____ _ ____
 72
    65
 73
     4
 40
0.000880
 49
0.000550
 49
-0.000110
 49
0.000110
 49
-0.000110
  0
LTYPE
  2
PHANTOM
 70
    64
  3
_____ _ _ _____ _ _ _____ _ _ _____ _ _ ____
 72
    65
 73
     6
 40
0.001100
 49
0.000550
 49
-0.000110
 49
0.000110
 49
-0.000110
 49
0.000110
 49
-0.000110
  0
LTYPE
  2
DOT
 70
    64
  3
...............................................
 72
    65
 73
     2
 40
0.000110
 49
0.000000
 49
-0.000110
  0
LTYPE
  2
DASHDOT
 70
    64
  3
__ . __ . __ . __ . __ . __ . __ . __ . __ . __
 72
    65
 73
     4
 40
0.000440
 49
0.000220
 49
-0.000110
 49
0.000000
 49
-0.000110
  0
LTYPE
  2
BORDER
 70
    64
  3
__ __ . __ __ . __ __ . __ __ . __ __ . __ __
 72
    65
 73
     6
 40
0.000770
 49
0.000220
 49
-0.000110
 49
0.000220
 49
-0.000110
 49
0.000000
 49
-0.000110
  0
LTYPE
  2
DIVIDE
 70
    64
  3
__ . . __ . . __ . . __ . . __ . . __ . . __
 72
    65
 73
     6
 40
0.000550
 49
0.000220
 49
-0.000110
 49
0.000000
 49
-0.000110
 49
0.000000
 49
-0.000110
  0
LTYPE
  2
DOTDOT
 70
    64
  3
 . .  . .  . .  . .  . .  . . 
 72
    65
 73
     5
 40
0.000242
 49
-0.000110
 49
0.000000
 49
-0.000110
 49
0.000000
 49
-0.000110
  0
ENDTAB
  0
TABLE
  2
STYLE
 70
     2
  0
STYLE
 70
     0
  2
SN0
 40
0.000000
 41
0.000440
 50
0.000000
 71
     0
 42
0.000000
  3
ROMAND
  0
STYLE
 70
    68
  2
SV0
 40
0.000000
 41
0.000440
 50
0.000000
 71
     0
 42
0.000000
  3
ROMAND
  0
ENDTAB
  0
TABLE
  2
LAYER
 70
     3
  0
LAYER
  2
FOREGROUND
 70
    64
 62
     7
  6
CONTINUOUS
  0
LAYER
  2
BACKGROUND
 70
    65
 62
    -7
  6
CONTINUOUS
  0
LAYER
  2
0
 70
    64
 62
     7
  6
CONTINUOUS
  0
ENDTAB
  0
ENDSEC
  0
SECTION
  2
ENTITIES
  0
POLYLINE
  8
FOREGROUND
  6
CONTINUOUS
 66
     1
 40
0.000000
 41
0.000000
  0
VERTEX
  8
FOREGROUND
  6
CONTINUOUS
 10
0.000000
 20
11.959640
  0
VERTEX
  8
FOREGROUND
  6
CONTINUOUS
 10
8.499920
 20
11.959640
  0
VERTEX
  8
FOREGROUND
  6
CONTINUOUS
 10
8.499920
 20
0.959640
  0
VERTEX
  8
FOREGROUND
  6
CONTINUOUS
 10
0.000000
 20
0.959640
  0
VERTEX
  8
FOREGROUND
  6
CONTINUOUS
 10
0.000000
 20
11.959640
  0
SEQEND
  8
0
  0
POLYLINE
  8
FOREGROUND
  6
CONTINUOUS
 66
     1
 40
0.000000
 41
0.000000
  0
VERTEX
  8
FOREGROUND
  6
CONTINUOUS
 10
0.000000
 20
11.959640
  0
VERTEX
  8
FOREGROUND
  6
CONTINUOUS
 10
8.499920
 20
11.959640
  0
VERTEX
  8
FOREGROUND
  6
CONTINUOUS
 10
8.499920
 20
0.959640
  0
VERTEX
  8
FOREGROUND
  6
CONTINUOUS
 10
0.000000
 20
0.959640
  0
VERTEX
  8
FOREGROUND
  6
CONTINUOUS
 10
0.000000
 20
11.959640
  0
SEQEND
  8
0
  0
POLYLINE
  8
0
  6
CONTINUOUS
 66
     1
 40
0.014080
 41
0.014080
  0
VERTEX
  8
0
  6
CONTINUOUS
 10
4.661800
 20
6.284520
  0
VERTEX
  8
0
  6
CONTINUOUS
 10
4.661800
 20
7.586920
  0
VERTEX
  8
0
  6
CONTINUOUS
 10
4.715040
 20
7.602320
  0
VERTEX
  8
0
  6
CONTINUOUS
 10
4.719440
 20
7.636640
  0
VERTEX
  8
0
  6
CONTINUOUS
 10
4.728680
 20
7.664800
  0
VERTEX
  8
0
  6
CONTINUOUS
 10
4.741880
 20
7.686800
  0
VERTEX
  8
0
  6
CONTINUOUS
 10
4.758600
 20
7.704840
  0
VERTEX
  8
0
  6
CONTINUOUS
 10
4.771360
 20
7.714520
  0
VERTEX
  8
0
  6
CONTINUOUS
 10
4.800840
 20
7.730360
  0
VERTEX
  8
0
  6
CONTINUOUS
 10
4.904680
 20
7.771280
  0
VERTEX
  8
0
  6
CONTINUOUS
 10
4.956160
 20
7.798560
  0
VERTEX
  8
0
  6
CONTINUOUS
 10
4.983880
 20
7.817480
  0
VERTEX
  8
0
  6
CONTINUOUS
 10
5.006760
 20
7.838600
  0
VERTEX
  8
0
  6
CONTINUOUS
 10
5.024800
 20
7.861920
  0
VERTEX
  8
0
  6
CONTINUOUS
 10
5.038000
 20
7.889200
  0
VERTEX
  8
0
  6
CONTINUOUS
 10
5.047240
 20
7.921320
  0
VERTEX
  8
0
  6
CONTINUOUS
 10
5.052080
 20
7.959600
  0
VERTEX
  8
0
  6
CONTINUOUS
 10
5.053400
 20
7.981160
  0
VERTEX
  8
0
  6
CONTINUOUS
 10
5.053400
 20
8.004920
  0
VERTEX
  8
0
  6
CONTINUOUS
 10
5.098720
 20
8.016360
  0
VERTEX
  8
0
  6
CONTINUOUS
 10
5.099160
 20
8.367040
  0
VERTEX
  8
0
  6
CONTINUOUS
 10
5.102240
 20
8.395200
  0
VERTEX
  8
0
  6
CONTINUOUS
 10
5.112800
 20
8.443160
  0
VERTEX
  8
0
  6
CONTINUOUS
 10
5.123800
 20
8.477920
  0
VERTEX
  8
0
  6
CONTINUOUS
 10
5.137880
 20
8.514440
  0
VERTEX
  8
0
  6
CONTINUOUS
 10
5.166040
 20
8.569880
  0
VERTEX
  8
0
  6
CONTINUOUS
 10
5.202120
 20
8.624440
  0
VERTEX
  8
0
  6
CONTINUOUS
 10
5.230720
 20
8.658760
  0
VERTEX
  8
0
  6
CONTINUOUS
 10
5.263280
 20
8.691320
  0
VERTEX
  8
0
  6
CONTINUOUS
 10
5.280880
 20
8.706720
  0
VERTEX
  8
0
  6
CONTINUOUS
 10
5.319160
 20
8.734000
  0
VERTEX
  8
0
  6
CONTINUOUS
 10
5.339840
 20
8.746760
  0
VERTEX
  8
0
  6
CONTINUOUS
 10
5.384280
 20
8.767880
  0
VERTEX
  8
0
  6
CONTINUOUS
 10
5.408040
 20
8.776680
  0
VERTEX
  8
0
  6
CONTINUOUS
 10
5.433120
 20
8.784160
  0
VERTEX
  8
0
  6
CONTINUOUS
 10
5.458640
 20
8.789880
  0
VERTEX
  8
0
  6
CONTINUOUS
 10
5.485480
 20
8.794280
  0
VERTEX
  8
0
  6
CONTINUOUS
 10
5.513640
 20
8.796920
  0
VERTEX
  8
0
  6
CONTINUOUS
 10
5.542680
 20
8.797800
  0
VERTEX
  8
0
  6
CONTINUOUS
 10
5.542680
 20
9.534800
  0
VERTEX
  8
0
  6
CONTINUOUS
 10
4.295280
 20
9.534800
  0
VERTEX
  8
0
  6
CONTINUOUS
 10
4.293960
 20
6.586800
  0
VERTEX
  8
0
  6
CONTINUOUS
 10
4.292640
 20
6.284520
  0
VERTEX
  8
0
  6
CONTINUOUS
 10
4.661800
 20
6.284520
  0
SEQEND
  8
0
  0
POLYLINE
  8
0
  6
CONTINUOUS
 66
     1
 40
0.000000
 41
0.000000
  0
VERTEX
  8
0
  6
CONTINUOUS
 10
4.734840
 20
2.392280
  0
VERTEX
  8
0
  6
CONTINUOUS
 10
4.734840
 20
3.694680
  0
VERTEX
  8
0
  6
CONTINUOUS
 10
4.681600
 20
3.710080
  0
VERTEX
  8
0
  6
CONTINUOUS
 10
4.677200
 20
3.744400
  0
VERTEX
  8
0
  6
CONTINUOUS
 10
4.667960
 20
3.772560
  0
VERTEX
  8
0
  6
CONTINUOUS
 10
4.654760
 20
3.794560
  0
VERTEX
  8
0
  6
CONTINUOUS
 10
4.638040
 20
3.812600
  0
VERTEX
  8
0
  6
CONTINUOUS
 10
4.611200
 20
3.830640
  0
VERTEX
  8
0
  6
CONTINUOUS
 10
4.563240
 20
3.851760
  0
VERTEX
  8
0
  6
CONTINUOUS
 10
4.491960
 20
3.879040
  0
VERTEX
  8
0
  6
CONTINUOUS
 10
4.440920
 20
3.906320
  0
VERTEX
  8
0
  6
CONTINUOUS
 10
4.412760
 20
3.925240
  0
VERTEX
  8
0
  6
CONTINUOUS
 10
4.390320
 20
3.946360
  0
VERTEX
  8
0
  6
CONTINUOUS
 10
4.380640
 20
3.957360
  0
VERTEX
  8
0
  6
CONTINUOUS
 10
4.365240
 20
3.982440
  0
VERTEX
  8
0
  6
CONTINUOUS
 10
4.353800
 20
4.012360
  0
VERTEX
  8
0
  6
CONTINUOUS
 10
4.349840
 20
4.029080
  0
VERTEX
  8
0
  6
CONTINUOUS
 10
4.345000
 20
4.067360
  0
VERTEX
  8
0
  6
CONTINUOUS
 10
4.343680
 20
4.088920
  0
VERTEX
  8
0
  6
CONTINUOUS
 10
4.343680
 20
4.112680
  0
VERTEX
  8
0
  6
CONTINUOUS
 10
4.297920
 20
4.124120
  0
VERTEX
  8
0
  6
CONTINUOUS
 10
4.297480
 20
4.474800
  0
VERTEX
  8
0
  6
CONTINUOUS
 10
4.294400
 20
4.502960
  0
VERTEX
  8
0
  6
CONTINUOUS
 10
4.283840
 20
4.550920
  0
VERTEX
  8
0
  6
CONTINUOUS
 10
4.266240
 20
4.603720
  0
VERTEX
  8
0
  6
CONTINUOUS
 10
4.249960
 20
4.640240
  0
VERTEX
  8
0
  6
CONTINUOUS
 10
4.230600
 20
4.677640
  0
VERTEX
  8
0
  6
CONTINUOUS
 10
4.194520
 20
4.732200
  0
VERTEX
  8
0
  6
CONTINUOUS
 10
4.165920
 20
4.766520
  0
VERTEX
  8
0
  6
CONTINUOUS
 10
4.133360
 20
4.799080
  0
VERTEX
  8
0
  6
CONTINUOUS
 10
4.096840
 20
4.828560
  0
VERTEX
  8
0
  6
CONTINUOUS
 10
4.056800
 20
4.854520
  0
VERTEX
  8
0
  6
CONTINUOUS
 10
4.012360
 20
4.875640
  0
VERTEX
  8
0
  6
CONTINUOUS
 10
3.963960
 20
4.891920
  0
VERTEX
  8
0
  6
CONTINUOUS
 10
3.911160
 20
4.902040
  0
VERTEX
  8
0
  6
CONTINUOUS
 10
3.883000
 20
4.904680
  0
VERTEX
  8
0
  6
CONTINUOUS
 10
3.853960
 20
4.905560
  0
VERTEX
  8
0
  6
CONTINUOUS
 10
3.853960
 20
5.642560
  0
VERTEX
  8
0
  6
CONTINUOUS
 10
5.101800
 20
5.642560
  0
VERTEX
  8
0
  6
CONTINUOUS
 10
5.102680
 20
2.838000
  0
VERTEX
  8
0
  6
CONTINUOUS
 10
5.104000
 20
2.392280
  0
VERTEX
  8
0
  6
CONTINUOUS
 10
4.734840
 20
2.392280
  0
SEQEND
  8
0
  0
POLYLINE
  8
0
  6
CONTINUOUS
 66
     1
 40
0.000000
 41
0.000000
  0
VERTEX
  8
0
  6
CONTINUOUS
 10
2.353120
 20
2.392280
  0
VERTEX
  8
0
  6
CONTINUOUS
 10
2.353120
 20
3.694680
  0
VERTEX
  8
0
  6
CONTINUOUS
 10
2.406360
 20
3.710080
  0
VERTEX
  8
0
  6
CONTINUOUS
 10
2.410760
 20
3.744400
  0
VERTEX
  8
0
  6
CONTINUOUS
 10
2.420000
 20
3.772560
  0
VERTEX
  8
0
  6
CONTINUOUS
 10
2.433200
 20
3.794560
  0
VERTEX
  8
0
  6
CONTINUOUS
 10
2.449920
 20
3.812600
  0
VERTEX
  8
0
  6
CONTINUOUS
 10
2.462680
 20
3.822280
  0
VERTEX
  8
0
  6
CONTINUOUS
 10
2.492160
 20
3.838120
  0
VERTEX
  8
0
  6
CONTINUOUS
 10
2.596000
 20
3.879040
  0
VERTEX
  8
0
  6
CONTINUOUS
 10
2.647480
 20
3.906320
  0
VERTEX
  8
0
  6
CONTINUOUS
 10
2.675200
 20
3.925240
  0
VERTEX
  8
0
  6
CONTINUOUS
 10
2.698080
 20
3.946360
  0
VERTEX
  8
0
  6
CONTINUOUS
 10
2.716120
 20
3.969680
  0
VERTEX
  8
0
  6
CONTINUOUS
 10
2.729320
 20
3.996960
  0
VERTEX
  8
0
  6
CONTINUOUS
 10
2.738560
 20
4.029080
  0
VERTEX
  8
0
  6
CONTINUOUS
 10
2.743400
 20
4.067360
  0
VERTEX
  8
0
  6
CONTINUOUS
 10
2.744720
 20
4.088920
  0
VERTEX
  8
0
  6
CONTINUOUS
 10
2.744720
 20
4.112680
  0
VERTEX
  8
0
  6
CONTINUOUS
 10
2.790040
 20
4.124120
  0
VERTEX
  8
0
  6
CONTINUOUS
 10
2.790480
 20
4.474800
  0
VERTEX
  8
0
  6
CONTINUOUS
 10
2.793560
 20
4.502960
  0
VERTEX
  8
0
  6
CONTINUOUS
 10
2.804120
 20
4.550920
  0
VERTEX
  8
0
  6
CONTINUOUS
 10
2.815120
 20
4.585680
  0
VERTEX
  8
0
  6
CONTINUOUS
 10
2.829200
 20
4.622200
  0
VERTEX
  8
0
  6
CONTINUOUS
 10
2.857360
 20
4.677640
  0
VERTEX
  8
0
  6
CONTINUOUS
 10
2.893440
 20
4.732200
  0
VERTEX
  8
0
  6
CONTINUOUS
 10
2.922040
 20
4.766520
  0
VERTEX
  8
0
  6
CONTINUOUS
 10
2.954600
 20
4.799080
  0
VERTEX
  8
0
  6
CONTINUOUS
 10
2.972200
 20
4.814480
  0
VERTEX
  8
0
  6
CONTINUOUS
 10
3.010480
 20
4.841760
  0
VERTEX
  8
0
  6
CONTINUOUS
 10
3.031160
 20
4.854520
  0
VERTEX
  8
0
  6
CONTINUOUS
 10
3.075600
 20
4.875640
  0
VERTEX
  8
0
  6
CONTINUOUS
 10
3.099360
 20
4.884440
  0
VERTEX
  8
0
  6
CONTINUOUS
 10
3.124440
 20
4.891920
  0
VERTEX
  8
0
  6
CONTINUOUS
 10
3.149960
 20
4.897640
  0
VERTEX
  8
0
  6
CONTINUOUS
 10
3.176800
 20
4.902040
  0
VERTEX
  8
0
  6
CONTINUOUS
 10
3.204960
 20
4.904680
  0
VERTEX
  8
0
  6
CONTINUOUS
 10
3.234000
 20
4.905560
  0
VERTEX
  8
0
  6
CONTINUOUS
 10
3.234000
 20
5.642560
  0
VERTEX
  8
0
  6
CONTINUOUS
 10
1.986160
 20
5.642560
  0
VERTEX
  8
0
  6
CONTINUOUS
 10
1.985280
 20
2.798400
  0
VERTEX
  8
0
  6
CONTINUOUS
 10
1.983960
 20
2.392280
  0
VERTEX
  8
0
  6
CONTINUOUS
 10
2.353120
 20
2.392280
  0
SEQEND
  8
0
  0
SOLID
  8
0
 62
    15
 10
2.588520
 20
7.953440
 11
3.329920
 21
7.953000
 12
2.579280
 22
7.920880
 13
3.321120
 23
7.920880
  0
POLYLINE
  8
0
  6
CONTINUOUS
 66
     1
 40
0.000000
 41
0.000000
  0
VERTEX
  8
0
  6
CONTINUOUS
 10
2.588520
 20
7.953440
  0
VERTEX
  8
0
  6
CONTINUOUS
 10
3.329920
 20
7.953000
  0
VERTEX
  8
0
  6
CONTINUOUS
 10
3.321120
 20
7.920880
  0
VERTEX
  8
0
  6
CONTINUOUS
 10
2.579280
 20
7.920880
  0
VERTEX
  8
0
  6
CONTINUOUS
 10
2.588520
 20
7.953440
  0
SEQEND
  8
0
  0
SOLID
  8
0
 62
    15
 10
3.084400
 20
8.829920
 11
3.825800
 21
8.829480
 12
3.027200
 22
8.826400
 13
3.769040
 23
8.825960
  0
POLYLINE
  8
0
  6
CONTINUOUS
 66
     1
 40
0.000000
 41
0.000000
  0
VERTEX
  8
0
  6
CONTINUOUS
 10
3.084400
 20
8.829920
  0
VERTEX
  8
0
  6
CONTINUOUS
 10
3.825800
 20
8.829480
  0
VERTEX
  8
0
  6
CONTINUOUS
 10
3.769040
 20
8.825960
  0
VERTEX
  8
0
  6
CONTINUOUS
 10
3.027200
 20
8.826400
  0
VERTEX
  8
0
  6
CONTINUOUS
 10
3.084400
 20
8.829920
  0
SEQEND
  8
0
  0
SOLID
  8
0
 62
    15
 10
3.027200
 20
8.826400
 11
3.769040
 21
8.825960
 12
2.974400
 22
8.815840
 13
3.716240
 23
8.815840
  0
POLYLINE
  8
0
  6
CONTINUOUS
 66
     1
 40
0.000000
 41
0.000000
  0
VERTEX
  8
0
  6
CONTINUOUS
 10
3.027200
 20
8.826400
  0
VERTEX
  8
0
  6
CONTINUOUS
 10
3.769040
 20
8.825960
  0
VERTEX
  8
0
  6
CONTINUOUS
 10
3.716240
 20
8.815840
  0
VERTEX
  8
0
  6
CONTINUOUS
 10
2.974400
 20
8.815840
  0
VERTEX
  8
0
  6
CONTINUOUS
 10
3.027200
 20
8.826400
  0
SEQEND
  8
0
  0
SOLID
  8
0
 62
    15
 10
2.974400
 20
8.815840
 11
3.716240
 21
8.815840
 12
2.926000
 22
8.800000
 13
3.667840
 23
8.799560
  0
POLYLINE
  8
0
  6
CONTINUOUS
 66
     1
 40
0.000000
 41
0.000000
  0
VERTEX
  8
0
  6
CONTINUOUS
 10
2.974400
 20
8.815840
  0
VERTEX
  8
0
  6
CONTINUOUS
 10
3.716240
 20
8.815840
  0
VERTEX
  8
0
  6
CONTINUOUS
 10
3.667840
 20
8.799560
  0
VERTEX
  8
0
  6
CONTINUOUS
 10
2.926000
 20
8.800000
  0
VERTEX
  8
0
  6
CONTINUOUS
 10
2.974400
 20
8.815840
  0
SEQEND
  8
0
  0
SOLID
  8
0
 62
    15
 10
2.926000
 20
8.800000
 11
3.667840
 21
8.799560
 12
2.881560
 22
8.778440
 13
3.623400
 23
8.778000
  0
POLYLINE
  8
0
  6
CONTINUOUS
 66
     1
 40
0.000000
 41
0.000000
  0
VERTEX
  8
0
  6
CONTINUOUS
 10
2.926000
 20
8.800000
  0
VERTEX
  8
0
  6
CONTINUOUS
 10
3.667840
 20
8.799560
  0
VERTEX
  8
0
  6
CONTINUOUS
 10
3.623400
 20
8.778000
  0
VERTEX
  8
0
  6
CONTINUOUS
 10
2.881560
 20
8.778440
  0
VERTEX
  8
0
  6
CONTINUOUS
 10
2.926000
 20
8.800000
  0
SEQEND
  8
0
  0
SOLID
  8
0
 62
    15
 10
2.881560
 20
8.778440
 11
3.623400
 21
8.778000
 12
2.805000
 22
8.723440
 13
3.546400
 23
8.723000
  0
POLYLINE
  8
0
  6
CONTINUOUS
 66
     1
 40
0.000000
 41
0.000000
  0
VERTEX
  8
0
  6
CONTINUOUS
 10
2.881560
 20
8.778440
  0
VERTEX
  8
0
  6
CONTINUOUS
 10
3.623400
 20
8.778000
  0
VERTEX
  8
0
  6
CONTINUOUS
 10
3.546400
 20
8.723000
  0
VERTEX
  8
0
  6
CONTINUOUS
 10
2.805000
 20
8.723440
  0
VERTEX
  8
0
  6
CONTINUOUS
 10
2.881560
 20
8.778440
  0
SEQEND
  8
0
  0
SOLID
  8
0
 62
    15
 10
2.805000
 20
8.723440
 11
3.546400
 21
8.723000
 12
2.743840
 22
8.656120
 13
3.485240
 23
8.655680
  0
POLYLINE
  8
0
  6
CONTINUOUS
 66
     1
 40
0.000000
 41
0.000000
  0
VERTEX
  8
0
  6
CONTINUOUS
 10
2.805000
 20
8.723440
  0
VERTEX
  8
0
  6
CONTINUOUS
 10
3.546400
 20
8.723000
  0
VERTEX
  8
0
  6
CONTINUOUS
 10
3.485240
 20
8.655680
  0
VERTEX
  8
0
  6
CONTINUOUS
 10
2.743840
 20
8.656120
  0
VERTEX
  8
0
  6
CONTINUOUS
 10
2.805000
 20
8.723440
  0
SEQEND
  8
0
  0
SOLID
  8
0
 62
    15
 10
2.743840
 20
8.656120
 11
3.485240
 21
8.655680
 12
2.697200
 22
8.583080
 13
3.439040
 23
8.582640
  0
POLYLINE
  8
0
  6
CONTINUOUS
 66
     1
 40
0.000000
 41
0.000000
  0
VERTEX
  8
0
  6
CONTINUOUS
 10
2.743840
 20
8.656120
  0
VERTEX
  8
0
  6
CONTINUOUS
 10
3.485240
 20
8.655680
  0
VERTEX
  8
0
  6
CONTINUOUS
 10
3.439040
 20
8.582640
  0
VERTEX
  8
0
  6
CONTINUOUS
 10
2.697200
 20
8.583080
  0
VERTEX
  8
0
  6
CONTINUOUS
 10
2.743840
 20
8.656120
  0
SEQEND
  8
0
  0
SOLID
  8
0
 62
    15
 10
2.697200
 20
8.583080
 11
3.439040
 21
8.582640
 12
2.665080
 22
8.509600
 13
3.406920
 23
8.509160
  0
POLYLINE
  8
0
  6
CONTINUOUS
 66
     1
 40
0.000000
 41
0.000000
  0
VERTEX
  8
0
  6
CONTINUOUS
 10
2.697200
 20
8.583080
  0
VERTEX
  8
0
  6
CONTINUOUS
 10
3.439040
 20
8.582640
  0
VERTEX
  8
0
  6
CONTINUOUS
 10
3.406920
 20
8.509160
  0
VERTEX
  8
0
  6
CONTINUOUS
 10
2.665080
 20
8.509600
  0
VERTEX
  8
0
  6
CONTINUOUS
 10
2.697200
 20
8.583080
  0
SEQEND
  8
0
  0
SOLID
  8
0
 62
    15
 10
2.665080
 20
8.509600
 11
3.406920
 21
8.509160
 12
2.646160
 22
8.442280
 13
3.388000
 23
8.441840
  0
POLYLINE
  8
0
  6
CONTINUOUS
 66
     1
 40
0.000000
 41
0.000000
  0
VERTEX
  8
0
  6
CONTINUOUS
 10
2.665080
 20
8.509600
  0
VERTEX
  8
0
  6
CONTINUOUS
 10
3.406920
 20
8.509160
  0
VERTEX
  8
0
  6
CONTINUOUS
 10
3.388000
 20
8.441840
  0
VERTEX
  8
0
  6
CONTINUOUS
 10
2.646160
 20
8.442280
  0
VERTEX
  8
0
  6
CONTINUOUS
 10
2.665080
 20
8.509600
  0
SEQEND
  8
0
  0
SOLID
  8
0
 62
    15
 10
2.646160
 20
8.442280
 11
3.388000
 21
8.441840
 12
2.640000
 22
8.386400
 13
3.381840
 23
8.385960
  0
POLYLINE
  8
0
  6
CONTINUOUS
 66
     1
 40
0.000000
 41
0.000000
  0
VERTEX
  8
0
  6
CONTINUOUS
 10
2.646160
 20
8.442280
  0
VERTEX
  8
0
  6
CONTINUOUS
 10
3.388000
 20
8.441840
  0
VERTEX
  8
0
  6
CONTINUOUS
 10
3.381840
 20
8.385960
  0
VERTEX
  8
0
  6
CONTINUOUS
 10
2.640000
 20
8.386400
  0
VERTEX
  8
0
  6
CONTINUOUS
 10
2.646160
 20
8.442280
  0
SEQEND
  8
0
  0
SOLID
  8
0
 62
    15
 10
2.640000
 20
8.386400
 11
3.381840
 21
8.385960
 12
2.640000
 22
8.048040
 13
3.381840
 23
8.047600
  0
POLYLINE
  8
0
  6
CONTINUOUS
 66
     1
 40
0.000000
 41
0.000000
  0
VERTEX
  8
0
  6
CONTINUOUS
 10
2.640000
 20
8.386400
  0
VERTEX
  8
0
  6
CONTINUOUS
 10
3.381840
 20
8.385960
  0
VERTEX
  8
0
  6
CONTINUOUS
 10
3.381840
 20
8.047600
  0
VERTEX
  8
0
  6
CONTINUOUS
 10
2.640000
 20
8.048040
  0
VERTEX
  8
0
  6
CONTINUOUS
 10
2.640000
 20
8.386400
  0
SEQEND
  8
0
  0
SOLID
  8
0
 62
    15
 10
2.640000
 20
8.048040
 11
3.381840
 21
8.047600
 12
2.594680
 22
8.037040
 13
3.336520
 23
8.036600
  0
POLYLINE
  8
0
  6
CONTINUOUS
 66
     1
 40
0.000000
 41
0.000000
  0
VERTEX
  8
0
  6
CONTINUOUS
 10
2.640000
 20
8.048040
  0
VERTEX
  8
0
  6
CONTINUOUS
 10
3.381840
 20
8.047600
  0
VERTEX
  8
0
  6
CONTINUOUS
 10
3.336520
 20
8.036600
  0
VERTEX
  8
0
  6
CONTINUOUS
 10
2.594680
 20
8.037040
  0
VERTEX
  8
0
  6
CONTINUOUS
 10
2.640000
 20
8.048040
  0
SEQEND
  8
0
  0
SOLID
  8
0
 62
    15
 10
2.594680
 20
8.037040
 11
3.336520
 21
8.036600
 12
2.593360
 22
7.991720
 13
3.335200
 23
7.991280
  0
POLYLINE
  8
0
  6
CONTINUOUS
 66
     1
 40
0.000000
 41
0.000000
  0
VERTEX
  8
0
  6
CONTINUOUS
 10
2.594680
 20
8.037040
  0
VERTEX
  8
0
  6
CONTINUOUS
 10
3.336520
 20
8.036600
  0
VERTEX
  8
0
  6
CONTINUOUS
 10
3.335200
 20
7.991280
  0
VERTEX
  8
0
  6
CONTINUOUS
 10
2.593360
 20
7.991720
  0
VERTEX
  8
0
  6
CONTINUOUS
 10
2.594680
 20
8.037040
  0
SEQEND
  8
0
  0
SOLID
  8
0
 62
    15
 10
2.593360
 20
7.991720
 11
3.335200
 21
7.991280
 12
2.588520
 22
7.953440
 13
3.329920
 23
7.953000
  0
POLYLINE
  8
0
  6
CONTINUOUS
 66
     1
 40
0.000000
 41
0.000000
  0
VERTEX
  8
0
  6
CONTINUOUS
 10
2.593360
 20
7.991720
  0
VERTEX
  8
0
  6
CONTINUOUS
 10
3.335200
 20
7.991280
  0
VERTEX
  8
0
  6
CONTINUOUS
 10
3.329920
 20
7.953000
  0
VERTEX
  8
0
  6
CONTINUOUS
 10
2.588520
 20
7.953440
  0
VERTEX
  8
0
  6
CONTINUOUS
 10
2.593360
 20
7.991720
  0
SEQEND
  8
0
  0
SOLID
  8
0
 62
    15
 10
3.084400
 20
9.566480
 11
3.825800
 21
9.566040
 12
3.084400
 22
8.829920
 13
3.825800
 23
8.829480
  0
POLYLINE
  8
0
  6
CONTINUOUS
 66
     1
 40
0.000000
 41
0.000000
  0
VERTEX
  8
0
  6
CONTINUOUS
 10
3.084400
 20
9.566480
  0
VERTEX
  8
0
  6
CONTINUOUS
 10
3.825800
 20
9.566040
  0
VERTEX
  8
0
  6
CONTINUOUS
 10
3.825800
 20
8.829480
  0
VERTEX
  8
0
  6
CONTINUOUS
 10
3.084400
 20
8.829920
  0
VERTEX
  8
0
  6
CONTINUOUS
 10
3.084400
 20
9.566480
  0
SEQEND
  8
0
  0
SOLID
  8
0
 62
    15
 10
2.579280
 20
7.920880
 11
3.321120
 21
7.920880
 12
2.566080
 22
7.893600
 13
3.307920
 23
7.893160
  0
POLYLINE
  8
0
  6
CONTINUOUS
 66
     1
 40
0.000000
 41
0.000000
  0
VERTEX
  8
0
  6
CONTINUOUS
 10
2.579280
 20
7.920880
  0
VERTEX
  8
0
  6
CONTINUOUS
 10
3.321120
 20
7.920880
  0
VERTEX
  8
0
  6
CONTINUOUS
 10
3.307920
 20
7.893160
  0
VERTEX
  8
0
  6
CONTINUOUS
 10
2.566080
 20
7.893600
  0
VERTEX
  8
0
  6
CONTINUOUS
 10
2.579280
 20
7.920880
  0
SEQEND
  8
0
  0
SOLID
  8
0
 62
    15
 10
2.566080
 20
7.893600
 11
3.307920
 21
7.893160
 12
2.525160
 22
7.849600
 13
3.267000
 23
7.849160
  0
POLYLINE
  8
0
  6
CONTINUOUS
 66
     1
 40
0.000000
 41
0.000000
  0
VERTEX
  8
0
  6
CONTINUOUS
 10
2.566080
 20
7.893600
  0
VERTEX
  8
0
  6
CONTINUOUS
 10
3.307920
 20
7.893160
  0
VERTEX
  8
0
  6
CONTINUOUS
 10
3.267000
 20
7.849160
  0
VERTEX
  8
0
  6
CONTINUOUS
 10
2.525160
 20
7.849600
  0
VERTEX
  8
0
  6
CONTINUOUS
 10
2.566080
 20
7.893600
  0
SEQEND
  8
0
  0
SOLID
  8
0
 62
    15
 10
2.525160
 20
7.849600
 11
3.267000
 21
7.849160
 12
2.464440
 22
7.811760
 13
3.205840
 23
7.811320
  0
POLYLINE
  8
0
  6
CONTINUOUS
 66
     1
 40
0.000000
 41
0.000000
  0
VERTEX
  8
0
  6
CONTINUOUS
 10
2.525160
 20
7.849600
  0
VERTEX
  8
0
  6
CONTINUOUS
 10
3.267000
 20
7.849160
  0
VERTEX
  8
0
  6
CONTINUOUS
 10
3.205840
 20
7.811320
  0
VERTEX
  8
0
  6
CONTINUOUS
 10
2.464440
 20
7.811760
  0
VERTEX
  8
0
  6
CONTINUOUS
 10
2.525160
 20
7.849600
  0
SEQEND
  8
0
  0
SOLID
  8
0
 62
    15
 10
2.464440
 20
7.811760
 11
3.205840
 21
7.811320
 12
2.392280
 22
7.781840
 13
3.134120
 23
7.781400
  0
POLYLINE
  8
0
  6
CONTINUOUS
 66
     1
 40
0.000000
 41
0.000000
  0
VERTEX
  8
0
  6
CONTINUOUS
 10
2.464440
 20
7.811760
  0
VERTEX
  8
0
  6
CONTINUOUS
 10
3.205840
 20
7.811320
  0
VERTEX
  8
0
  6
CONTINUOUS
 10
3.134120
 20
7.781400
  0
VERTEX
  8
0
  6
CONTINUOUS
 10
2.392280
 20
7.781840
  0
VERTEX
  8
0
  6
CONTINUOUS
 10
2.464440
 20
7.811760
  0
SEQEND
  8
0
  0
SOLID
  8
0
 62
    15
 10
2.392280
 20
7.781840
 11
3.134120
 21
7.781400
 12
2.374680
 22
7.775680
 13
3.116520
 23
7.775240
  0
POLYLINE
  8
0
  6
CONTINUOUS
 66
     1
 40
0.000000
 41
0.000000
  0
VERTEX
  8
0
  6
CONTINUOUS
 10
2.392280
 20
7.781840
  0
VERTEX
  8
0
  6
CONTINUOUS
 10
3.134120
 20
7.781400
  0
VERTEX
  8
0
  6
CONTINUOUS
 10
3.116520
 20
7.775240
  0
VERTEX
  8
0
  6
CONTINUOUS
 10
2.374680
 20
7.775680
  0
VERTEX
  8
0
  6
CONTINUOUS
 10
2.392280
 20
7.781840
  0
SEQEND
  8
0
  0
SOLID
  8
0
 62
    15
 10
2.374680
 20
7.775680
 11
3.116520
 21
7.775240
 12
2.357960
 22
7.769520
 13
3.099800
 23
7.769080
  0
POLYLINE
  8
0
  6
CONTINUOUS
 66
     1
 40
0.000000
 41
0.000000
  0
VERTEX
  8
0
  6
CONTINUOUS
 10
2.374680
 20
7.775680
  0
VERTEX
  8
0
  6
CONTINUOUS
 10
3.116520
 20
7.775240
  0
VERTEX
  8
0
  6
CONTINUOUS
 10
3.099800
 20
7.769080
  0
VERTEX
  8
0
  6
CONTINUOUS
 10
2.357960
 20
7.769520
  0
VERTEX
  8
0
  6
CONTINUOUS
 10
2.374680
 20
7.775680
  0
SEQEND
  8
0
  0
SOLID
  8
0
 62
    15
 10
2.357960
 20
7.769520
 11
3.099800
 21
7.769080
 12
2.327160
 22
7.755000
 13
3.068560
 23
7.754560
  0
POLYLINE
  8
0
  6
CONTINUOUS
 66
     1
 40
0.000000
 41
0.000000
  0
VERTEX
  8
0
  6
CONTINUOUS
 10
2.357960
 20
7.769520
  0
VERTEX
  8
0
  6
CONTINUOUS
 10
3.099800
 20
7.769080
  0
VERTEX
  8
0
  6
CONTINUOUS
 10
3.068560
 20
7.754560
  0
VERTEX
  8
0
  6
CONTINUOUS
 10
2.327160
 20
7.755000
  0
VERTEX
  8
0
  6
CONTINUOUS
 10
2.357960
 20
7.769520
  0
SEQEND
  8
0
  0
SOLID
  8
0
 62
    15
 10
2.327160
 20
7.755000
 11
3.068560
 21
7.754560
 12
2.299880
 22
7.736520
 13
3.041720
 23
7.736080
  0
POLYLINE
  8
0
  6
CONTINUOUS
 66
     1
 40
0.000000
 41
0.000000
  0
VERTEX
  8
0
  6
CONTINUOUS
 10
2.327160
 20
7.755000
  0
VERTEX
  8
0
  6
CONTINUOUS
 10
3.068560
 20
7.754560
  0
VERTEX
  8
0
  6
CONTINUOUS
 10
3.041720
 20
7.736080
  0
VERTEX
  8
0
  6
CONTINUOUS
 10
2.299880
 20
7.736520
  0
VERTEX
  8
0
  6
CONTINUOUS
 10
2.327160
 20
7.755000
  0
SEQEND
  8
0
  0
SOLID
  8
0
 62
    15
 10
2.299880
 20
7.736520
 11
3.041720
 21
7.736080
 12
2.278320
 22
7.711880
 13
3.020160
 23
7.711440
  0
POLYLINE
  8
0
  6
CONTINUOUS
 66
     1
 40
0.000000
 41
0.000000
  0
VERTEX
  8
0
  6
CONTINUOUS
 10
2.299880
 20
7.736520
  0
VERTEX
  8
0
  6
CONTINUOUS
 10
3.041720
 20
7.736080
  0
VERTEX
  8
0
  6
CONTINUOUS
 10
3.020160
 20
7.711440
  0
VERTEX
  8
0
  6
CONTINUOUS
 10
2.278320
 20
7.711880
  0
VERTEX
  8
0
  6
CONTINUOUS
 10
2.299880
 20
7.736520
  0
SEQEND
  8
0
  0
SOLID
  8
0
 62
    15
 10
2.278320
 20
7.711880
 11
3.020160
 21
7.711440
 12
2.263360
 22
7.678440
 13
3.005200
 23
7.678000
  0
POLYLINE
  8
0
  6
CONTINUOUS
 66
     1
 40
0.000000
 41
0.000000
  0
VERTEX
  8
0
  6
CONTINUOUS
 10
2.278320
 20
7.711880
  0
VERTEX
  8
0
  6
CONTINUOUS
 10
3.020160
 20
7.711440
  0
VERTEX
  8
0
  6
CONTINUOUS
 10
3.005200
 20
7.678000
  0
VERTEX
  8
0
  6
CONTINUOUS
 10
2.263360
 20
7.678440
  0
VERTEX
  8
0
  6
CONTINUOUS
 10
2.278320
 20
7.711880
  0
SEQEND
  8
0
  0
SOLID
  8
0
 62
    15
 10
2.263360
 20
7.678440
 11
3.005200
 21
7.678000
 12
2.256320
 22
7.634000
 13
2.998160
 23
7.633560
  0
POLYLINE
  8
0
  6
CONTINUOUS
 66
     1
 40
0.000000
 41
0.000000
  0
VERTEX
  8
0
  6
CONTINUOUS
 10
2.263360
 20
7.678440
  0
VERTEX
  8
0
  6
CONTINUOUS
 10
3.005200
 20
7.678000
  0
VERTEX
  8
0
  6
CONTINUOUS
 10
2.998160
 20
7.633560
  0
VERTEX
  8
0
  6
CONTINUOUS
 10
2.256320
 20
7.634000
  0
VERTEX
  8
0
  6
CONTINUOUS
 10
2.263360
 20
7.678440
  0
SEQEND
  8
0
  0
SOLID
  8
0
 62
    15
 10
2.256320
 20
7.634000
 11
2.998160
 21
7.633560
 12
2.203080
 22
7.618600
 13
2.944920
 23
7.618160
  0
POLYLINE
  8
0
  6
CONTINUOUS
 66
     1
 40
0.000000
 41
0.000000
  0
VERTEX
  8
0
  6
CONTINUOUS
 10
2.256320
 20
7.634000
  0
VERTEX
  8
0
  6
CONTINUOUS
 10
2.998160
 20
7.633560
  0
VERTEX
  8
0
  6
CONTINUOUS
 10
2.944920
 20
7.618160
  0
VERTEX
  8
0
  6
CONTINUOUS
 10
2.203080
 20
7.618600
  0
VERTEX
  8
0
  6
CONTINUOUS
 10
2.256320
 20
7.634000
  0
SEQEND
  8
0
  0
SOLID
  8
0
 62
    15
 10
2.203080
 20
6.316640
 11
2.944920
 21
6.316200
 12
1.834360
 22
6.316640
 13
2.575760
 23
6.316200
  0
POLYLINE
  8
0
  6
CONTINUOUS
 66
     1
 40
0.000000
 41
0.000000
  0
VERTEX
  8
0
  6
CONTINUOUS
 10
2.203080
 20
6.316640
  0
VERTEX
  8
0
  6
CONTINUOUS
 10
2.944920
 20
6.316200
  0
VERTEX
  8
0
  6
CONTINUOUS
 10
2.575760
 20
6.316200
  0
VERTEX
  8
0
  6
CONTINUOUS
 10
1.834360
 20
6.316640
  0
VERTEX
  8
0
  6
CONTINUOUS
 10
2.203080
 20
6.316640
  0
SEQEND
  8
0
  0
SOLID
  8
0
 62
    15
 10
2.203080
 20
7.618600
 11
2.944920
 21
7.618160
 12
2.203080
 22
6.316640
 13
2.944920
 23
6.316200
  0
POLYLINE
  8
0
  6
CONTINUOUS
 66
     1
 40
0.000000
 41
0.000000
  0
VERTEX
  8
0
  6
CONTINUOUS
 10
2.203080
 20
7.618600
  0
VERTEX
  8
0
  6
CONTINUOUS
 10
2.944920
 20
7.618160
  0
VERTEX
  8
0
  6
CONTINUOUS
 10
2.944920
 20
6.316200
  0
VERTEX
  8
0
  6
CONTINUOUS
 10
2.203080
 20
6.316640
  0
VERTEX
  8
0
  6
CONTINUOUS
 10
2.203080
 20
7.618600
  0
SEQEND
  8
0
  0
POLYLINE
  8
0
  6
CONTINUOUS
 66
     1
 40
0.000000
 41
0.000000
  0
VERTEX
  8
0
  6
CONTINUOUS
 10
1.834360
 20
6.316640
  0
VERTEX
  8
0
  6
CONTINUOUS
 10
1.834360
 20
6.367240
  0
VERTEX
  8
0
  6
CONTINUOUS
 10
1.834800
 20
6.448640
  0
VERTEX
  8
0
  6
CONTINUOUS
 10
1.835240
 20
6.722760
  0
VERTEX
  8
0
  6
CONTINUOUS
 10
1.835240
 20
6.804160
  0
VERTEX
  8
0
  6
CONTINUOUS
 10
1.835680
 20
7.109960
  0
VERTEX
  8
0
  6
CONTINUOUS
 10
1.835680
 20
7.235360
  0
VERTEX
  8
0
  6
CONTINUOUS
 10
1.836120
 20
7.687680
  0
VERTEX
  8
0
  6
CONTINUOUS
 10
1.836120
 20
7.866320
  0
VERTEX
  8
0
  6
CONTINUOUS
 10
1.836120
 20
8.493760
  0
VERTEX
  8
0
  6
CONTINUOUS
 10
1.836560
 20
9.566480
  0
VERTEX
  8
0
  6
CONTINUOUS
 10
3.084400
 20
9.566480
  0
VERTEX
  8
0
  6
CONTINUOUS
 10
3.084400
 20
8.829920
  0
VERTEX
  8
0
  6
CONTINUOUS
 10
3.027200
 20
8.826400
  0
VERTEX
  8
0
  6
CONTINUOUS
 10
2.974400
 20
8.815840
  0
VERTEX
  8
0
  6
CONTINUOUS
 10
2.926000
 20
8.800000
  0
VERTEX
  8
0
  6
CONTINUOUS
 10
2.881560
 20
8.778440
  0
VERTEX
  8
0
  6
CONTINUOUS
 10
2.805000
 20
8.723440
  0
VERTEX
  8
0
  6
CONTINUOUS
 10
2.743840
 20
8.656120
  0
VERTEX
  8
0
  6
CONTINUOUS
 10
2.697200
 20
8.583080
  0
VERTEX
  8
0
  6
CONTINUOUS
 10
2.665080
 20
8.509600
  0
VERTEX
  8
0
  6
CONTINUOUS
 10
2.646160
 20
8.442280
  0
VERTEX
  8
0
  6
CONTINUOUS
 10
2.640000
 20
8.386400
  0
VERTEX
  8
0
  6
CONTINUOUS
 10
2.640000
 20
8.048040
  0
VERTEX
  8
0
  6
CONTINUOUS
 10
2.594680
 20
8.037040
  0
VERTEX
  8
0
  6
CONTINUOUS
 10
2.593360
 20
7.991720
  0
VERTEX
  8
0
  6
CONTINUOUS
 10
2.588520
 20
7.953440
  0
VERTEX
  8
0
  6
CONTINUOUS
 10
2.579280
 20
7.920880
  0
VERTEX
  8
0
  6
CONTINUOUS
 10
2.566080
 20
7.893600
  0
VERTEX
  8
0
  6
CONTINUOUS
 10
2.525160
 20
7.849600
  0
VERTEX
  8
0
  6
CONTINUOUS
 10
2.464440
 20
7.811760
  0
VERTEX
  8
0
  6
CONTINUOUS
 10
2.392280
 20
7.781840
  0
VERTEX
  8
0
  6
CONTINUOUS
 10
2.374680
 20
7.775680
  0
VERTEX
  8
0
  6
CONTINUOUS
 10
2.357960
 20
7.769520
  0
VERTEX
  8
0
  6
CONTINUOUS
 10
2.327160
 20
7.755000
  0
VERTEX
  8
0
  6
CONTINUOUS
 10
2.299880
 20
7.736520
  0
VERTEX
  8
0
  6
CONTINUOUS
 10
2.278320
 20
7.711880
  0
VERTEX
  8
0
  6
CONTINUOUS
 10
2.263360
 20
7.678440
  0
VERTEX
  8
0
  6
CONTINUOUS
 10
2.256320
 20
7.634000
  0
VERTEX
  8
0
  6
CONTINUOUS
 10
2.203080
 20
7.618600
  0
VERTEX
  8
0
  6
CONTINUOUS
 10
2.203080
 20
6.316640
  0
VERTEX
  8
0
  6
CONTINUOUS
 10
1.834360
 20
6.316640
  0
SEQEND
  8
0
  0
TEXT
  8
0
 10
2.489080
 20
6.061000
 40
0.138125
  1
BA  1292
 41
1.000000
  7
SN0
 71
     0
 72
     5
 11
3.171071
 21
6.061000
  0
TEXT
  8
0
 10
2.305600
 20
5.859480
 40
0.138125
  1
1-1/4" x 3-1/4"
 41
1.000000
  7
SN0
 71
     0
 72
     5
 11
3.353879
 21
5.859480
  0
TEXT
  8
0
 10
5.031840
 20
6.574920
 40
0.138125
  1
BA  1292
 41
1.000000
  7
SN0
 71
     0
 72
     5
 11
5.713831
 21
6.574920
  0
TEXT
  8
0
 10
4.848360
 20
6.373400
 40
0.138125
  1
1-1/4" x 3-1/4"
 41
1.000000
  7
SN0
 71
     0
 72
     5
 11
5.896639
 21
6.373400
  0
TEXT
  8
0
 10
5.867400
 20
8.246040
 40
0.138125
  1
Chair rail
 41
1.000000
  7
SN0
 71
     0
 72
     5
 11
6.530377
 21
8.246040
  0
ENDSEC
  0
EOF
