  0
SECTION
  2
HEADER
  9
$ACADVER
  1
AC1006
  9
$EXTMIN
 10
3.165800
 20
2.002880
  9
$EXTMAX
 10
7.229640
 20
7.850480
  9
$LTSCALE
 40
0.044000
  9
$PDMODE
 70
    35
  9
$PDSIZE
 40
0.035200
  0
ENDSEC
  0
SECTION
  2
TABLES
  0
TABLE
  2
LTYPE
 70
     9
  0
LTYPE
  2
CONTINUOUS
 70
    64
  3
Solid line
 72
    65
 73
     0
 40
0.000000
  0
LTYPE
  2
DASHED
 70
    64
  3
__ __ __ __ __ __ __ __ __ __ __ __ __ __ __
 72
    65
 73
     2
 40
0.000330
 49
0.000220
 49
-0.000110
  0
LTYPE
  2
HIDDEN
 70
    64
  3
 _ _ _ _ _ _ _ _ _ _ _ _ _ _ _ _ _ _ _ _ _ _
 72
    65
 73
     2
 40
0.000165
 49
0.000110
 49
-0.000055
  0
LTYPE
  2
CENTER
 70
    64
  3
____ _ ____ _ ____ _ ____ _ ____ _ ____ _ ____
 72
    65
 73
     4
 40
0.000880
 49
0.000550
 49
-0.000110
 49
0.000110
 49
-0.000110
  0
LTYPE
  2
PHANTOM
 70
    64
  3
_____ _ _ _____ _ _ _____ _ _ _____ _ _ ____
 72
    65
 73
     6
 40
0.001100
 49
0.000550
 49
-0.000110
 49
0.000110
 49
-0.000110
 49
0.000110
 49
-0.000110
  0
LTYPE
  2
DOT
 70
    64
  3
...............................................
 72
    65
 73
     2
 40
0.000110
 49
0.000000
 49
-0.000110
  0
LTYPE
  2
DASHDOT
 70
    64
  3
__ . __ . __ . __ . __ . __ . __ . __ . __ . __
 72
    65
 73
     4
 40
0.000440
 49
0.000220
 49
-0.000110
 49
0.000000
 49
-0.000110
  0
LTYPE
  2
BORDER
 70
    64
  3
__ __ . __ __ . __ __ . __ __ . __ __ . __ __
 72
    65
 73
     6
 40
0.000770
 49
0.000220
 49
-0.000110
 49
0.000220
 49
-0.000110
 49
0.000000
 49
-0.000110
  0
LTYPE
  2
DIVIDE
 70
    64
  3
__ . . __ . . __ . . __ . . __ . . __ . . __
 72
    65
 73
     6
 40
0.000550
 49
0.000220
 49
-0.000110
 49
0.000000
 49
-0.000110
 49
0.000000
 49
-0.000110
  0
LTYPE
  2
DOTDOT
 70
    64
  3
 . .  . .  . .  . .  . .  . . 
 72
    65
 73
     5
 40
0.000242
 49
-0.000110
 49
0.000000
 49
-0.000110
 49
0.000000
 49
-0.000110
  0
ENDTAB
  0
TABLE
  2
STYLE
 70
     2
  0
STYLE
 70
     0
  2
SN0
 40
0.000000
 41
0.000440
 50
0.000000
 71
     0
 42
0.000000
  3
ROMAND
  0
STYLE
 70
    68
  2
SV0
 40
0.000000
 41
0.000440
 50
0.000000
 71
     0
 42
0.000000
  3
ROMAND
  0
ENDTAB
  0
TABLE
  2
LAYER
 70
     3
  0
LAYER
  2
FOREGROUND
 70
    64
 62
     7
  6
CONTINUOUS
  0
LAYER
  2
BACKGROUND
 70
    65
 62
    -7
  6
CONTINUOUS
  0
LAYER
  2
0
 70
    64
 62
     7
  6
CONTINUOUS
  0
ENDTAB
  0
ENDSEC
  0
SECTION
  2
ENTITIES
  0
POLYLINE
  8
FOREGROUND
  6
CONTINUOUS
 66
     1
 40
0.000000
 41
0.000000
  0
VERTEX
  8
FOREGROUND
  6
CONTINUOUS
 10
0.000000
 20
9.853360
  0
VERTEX
  8
FOREGROUND
  6
CONTINUOUS
 10
8.499920
 20
9.853360
  0
VERTEX
  8
FOREGROUND
  6
CONTINUOUS
 10
8.499920
 20
-1.146640
  0
VERTEX
  8
FOREGROUND
  6
CONTINUOUS
 10
0.000000
 20
-1.146640
  0
VERTEX
  8
FOREGROUND
  6
CONTINUOUS
 10
0.000000
 20
9.853360
  0
SEQEND
  8
0
  0
POLYLINE
  8
FOREGROUND
  6
CONTINUOUS
 66
     1
 40
0.000000
 41
0.000000
  0
VERTEX
  8
FOREGROUND
  6
CONTINUOUS
 10
0.000000
 20
9.853360
  0
VERTEX
  8
FOREGROUND
  6
CONTINUOUS
 10
8.499920
 20
9.853360
  0
VERTEX
  8
FOREGROUND
  6
CONTINUOUS
 10
8.499920
 20
-1.146640
  0
VERTEX
  8
FOREGROUND
  6
CONTINUOUS
 10
0.000000
 20
-1.146640
  0
VERTEX
  8
FOREGROUND
  6
CONTINUOUS
 10
0.000000
 20
9.853360
  0
SEQEND
  8
0
  0
POLYLINE
  8
0
  6
CONTINUOUS
 66
     1
 40
0.014080
 41
0.014080
  0
VERTEX
  8
0
  6
CONTINUOUS
 10
3.324200
 20
3.817440
  0
VERTEX
  8
0
  6
CONTINUOUS
 10
3.324200
 20
3.384480
  0
VERTEX
  8
0
  6
CONTINUOUS
 10
3.173280
 20
3.384480
  0
VERTEX
  8
0
  6
CONTINUOUS
 10
3.173280
 20
4.574680
  0
VERTEX
  8
0
  6
CONTINUOUS
 10
3.933600
 20
4.574680
  0
VERTEX
  8
0
  6
CONTINUOUS
 10
3.933600
 20
4.374920
  0
VERTEX
  8
0
  6
CONTINUOUS
 10
3.862320
 20
4.370080
  0
VERTEX
  8
0
  6
CONTINUOUS
 10
3.872000
 20
4.333560
  0
VERTEX
  8
0
  6
CONTINUOUS
 10
3.875080
 20
4.316840
  0
VERTEX
  8
0
  6
CONTINUOUS
 10
3.877280
 20
4.286040
  0
VERTEX
  8
0
  6
CONTINUOUS
 10
3.875080
 20
4.258760
  0
VERTEX
  8
0
  6
CONTINUOUS
 10
3.868920
 20
4.234120
  0
VERTEX
  8
0
  6
CONTINUOUS
 10
3.859680
 20
4.213000
  0
VERTEX
  8
0
  6
CONTINUOUS
 10
3.840760
 20
4.185720
  0
VERTEX
  8
0
  6
CONTINUOUS
 10
3.825360
 20
4.170760
  0
VERTEX
  8
0
  6
CONTINUOUS
 10
3.808640
 20
4.158000
  0
VERTEX
  8
0
  6
CONTINUOUS
 10
3.773440
 20
4.137320
  0
VERTEX
  8
0
  6
CONTINUOUS
 10
3.671360
 20
4.095080
  0
VERTEX
  8
0
  6
CONTINUOUS
 10
3.618120
 20
4.067800
  0
VERTEX
  8
0
  6
CONTINUOUS
 10
3.578520
 20
4.041840
  0
VERTEX
  8
0
  6
CONTINUOUS
 10
3.539360
 20
4.008400
  0
VERTEX
  8
0
  6
CONTINUOUS
 10
3.512960
 20
3.978480
  0
VERTEX
  8
0
  6
CONTINUOUS
 10
3.490520
 20
3.943280
  0
VERTEX
  8
0
  6
CONTINUOUS
 10
3.478200
 20
3.917320
  0
VERTEX
  8
0
  6
CONTINUOUS
 10
3.468960
 20
3.888720
  0
VERTEX
  8
0
  6
CONTINUOUS
 10
3.463240
 20
3.857480
  0
VERTEX
  8
0
  6
CONTINUOUS
 10
3.461040
 20
3.824040
  0
VERTEX
  8
0
  6
CONTINUOUS
 10
3.324200
 20
3.817440
  0
SEQEND
  8
0
  0
POLYLINE
  8
0
  6
CONTINUOUS
 66
     1
 40
0.000000
 41
0.000000
  0
VERTEX
  8
0
  6
CONTINUOUS
 10
4.803480
 20
2.455200
  0
VERTEX
  8
0
  6
CONTINUOUS
 10
4.803480
 20
2.022240
  0
VERTEX
  8
0
  6
CONTINUOUS
 10
4.954400
 20
2.022240
  0
VERTEX
  8
0
  6
CONTINUOUS
 10
4.954400
 20
3.212000
  0
VERTEX
  8
0
  6
CONTINUOUS
 10
4.194520
 20
3.212000
  0
VERTEX
  8
0
  6
CONTINUOUS
 10
4.194520
 20
3.012680
  0
VERTEX
  8
0
  6
CONTINUOUS
 10
4.265360
 20
3.007840
  0
VERTEX
  8
0
  6
CONTINUOUS
 10
4.255680
 20
2.971320
  0
VERTEX
  8
0
  6
CONTINUOUS
 10
4.252600
 20
2.954600
  0
VERTEX
  8
0
  6
CONTINUOUS
 10
4.250400
 20
2.923800
  0
VERTEX
  8
0
  6
CONTINUOUS
 10
4.252600
 20
2.896080
  0
VERTEX
  8
0
  6
CONTINUOUS
 10
4.258760
 20
2.871880
  0
VERTEX
  8
0
  6
CONTINUOUS
 10
4.268000
 20
2.850320
  0
VERTEX
  8
0
  6
CONTINUOUS
 10
4.286920
 20
2.823480
  0
VERTEX
  8
0
  6
CONTINUOUS
 10
4.302320
 20
2.808080
  0
VERTEX
  8
0
  6
CONTINUOUS
 10
4.319040
 20
2.795320
  0
VERTEX
  8
0
  6
CONTINUOUS
 10
4.354240
 20
2.774640
  0
VERTEX
  8
0
  6
CONTINUOUS
 10
4.442240
 20
2.739000
  0
VERTEX
  8
0
  6
CONTINUOUS
 10
4.490640
 20
2.716120
  0
VERTEX
  8
0
  6
CONTINUOUS
 10
4.529360
 20
2.693240
  0
VERTEX
  8
0
  6
CONTINUOUS
 10
4.568960
 20
2.663760
  0
VERTEX
  8
0
  6
CONTINUOUS
 10
4.588320
 20
2.646160
  0
VERTEX
  8
0
  6
CONTINUOUS
 10
4.614720
 20
2.615800
  0
VERTEX
  8
0
  6
CONTINUOUS
 10
4.637160
 20
2.581040
  0
VERTEX
  8
0
  6
CONTINUOUS
 10
4.649480
 20
2.555080
  0
VERTEX
  8
0
  6
CONTINUOUS
 10
4.658720
 20
2.526480
  0
VERTEX
  8
0
  6
CONTINUOUS
 10
4.664440
 20
2.495240
  0
VERTEX
  8
0
  6
CONTINUOUS
 10
4.666640
 20
2.461800
  0
VERTEX
  8
0
  6
CONTINUOUS
 10
4.803480
 20
2.455200
  0
SEQEND
  8
0
  0
POLYLINE
  8
0
  6
CONTINUOUS
 66
     1
 40
0.000000
 41
0.000000
  0
VERTEX
  8
0
  6
CONTINUOUS
 10
3.334320
 20
2.435840
  0
VERTEX
  8
0
  6
CONTINUOUS
 10
3.334320
 20
2.002880
  0
VERTEX
  8
0
  6
CONTINUOUS
 10
3.182960
 20
2.002880
  0
VERTEX
  8
0
  6
CONTINUOUS
 10
3.182960
 20
3.193080
  0
VERTEX
  8
0
  6
CONTINUOUS
 10
3.943280
 20
3.193080
  0
VERTEX
  8
0
  6
CONTINUOUS
 10
3.943280
 20
2.993320
  0
VERTEX
  8
0
  6
CONTINUOUS
 10
3.872000
 20
2.988480
  0
VERTEX
  8
0
  6
CONTINUOUS
 10
3.881680
 20
2.951960
  0
VERTEX
  8
0
  6
CONTINUOUS
 10
3.886520
 20
2.919400
  0
VERTEX
  8
0
  6
CONTINUOUS
 10
3.886520
 20
2.890360
  0
VERTEX
  8
0
  6
CONTINUOUS
 10
3.882120
 20
2.864400
  0
VERTEX
  8
0
  6
CONTINUOUS
 10
3.874640
 20
2.841520
  0
VERTEX
  8
0
  6
CONTINUOUS
 10
3.857480
 20
2.812480
  0
VERTEX
  8
0
  6
CONTINUOUS
 10
3.835480
 20
2.789160
  0
VERTEX
  8
0
  6
CONTINUOUS
 10
3.818760
 20
2.776400
  0
VERTEX
  8
0
  6
CONTINUOUS
 10
3.783120
 20
2.755720
  0
VERTEX
  8
0
  6
CONTINUOUS
 10
3.681040
 20
2.713480
  0
VERTEX
  8
0
  6
CONTINUOUS
 10
3.627800
 20
2.686200
  0
VERTEX
  8
0
  6
CONTINUOUS
 10
3.588200
 20
2.660240
  0
VERTEX
  8
0
  6
CONTINUOUS
 10
3.568400
 20
2.644400
  0
VERTEX
  8
0
  6
CONTINUOUS
 10
3.531440
 20
2.607440
  0
VERTEX
  8
0
  6
CONTINUOUS
 10
3.514720
 20
2.585880
  0
VERTEX
  8
0
  6
CONTINUOUS
 10
3.494040
 20
2.548920
  0
VERTEX
  8
0
  6
CONTINUOUS
 10
3.483040
 20
2.521640
  0
VERTEX
  8
0
  6
CONTINUOUS
 10
3.475560
 20
2.491720
  0
VERTEX
  8
0
  6
CONTINUOUS
 10
3.471600
 20
2.459600
  0
VERTEX
  8
0
  6
CONTINUOUS
 10
3.471160
 20
2.442440
  0
VERTEX
  8
0
  6
CONTINUOUS
 10
3.334320
 20
2.435840
  0
SEQEND
  8
0
  0
SOLID
  8
0
 62
    15
 10
5.740240
 20
4.104760
 11
6.382640
 21
3.735160
 12
5.710760
 22
4.093760
 13
6.353160
 23
3.723720
  0
POLYLINE
  8
0
  6
CONTINUOUS
 66
     1
 40
0.000000
 41
0.000000
  0
VERTEX
  8
0
  6
CONTINUOUS
 10
5.740240
 20
4.104760
  0
VERTEX
  8
0
  6
CONTINUOUS
 10
6.382640
 20
3.735160
  0
VERTEX
  8
0
  6
CONTINUOUS
 10
6.353160
 20
3.723720
  0
VERTEX
  8
0
  6
CONTINUOUS
 10
5.710760
 20
4.093760
  0
VERTEX
  8
0
  6
CONTINUOUS
 10
5.740240
 20
4.104760
  0
SEQEND
  8
0
  0
SOLID
  8
0
 62
    15
 10
5.325760
 20
3.366880
 11
5.968160
 21
2.997280
 12
5.174840
 22
3.366880
 13
5.817240
 23
2.997280
  0
POLYLINE
  8
0
  6
CONTINUOUS
 66
     1
 40
0.000000
 41
0.000000
  0
VERTEX
  8
0
  6
CONTINUOUS
 10
5.325760
 20
3.366880
  0
VERTEX
  8
0
  6
CONTINUOUS
 10
5.968160
 20
2.997280
  0
VERTEX
  8
0
  6
CONTINUOUS
 10
5.817240
 20
2.997280
  0
VERTEX
  8
0
  6
CONTINUOUS
 10
5.174840
 20
3.366880
  0
VERTEX
  8
0
  6
CONTINUOUS
 10
5.325760
 20
3.366880
  0
SEQEND
  8
0
  0
SOLID
  8
0
 62
     7
 10
5.934720
 20
4.557080
 11
6.577120
 21
4.187040
 12
5.934720
 22
4.357320
 13
6.577120
 23
3.987720
  0
POLYLINE
  8
0
  6
CONTINUOUS
 66
     1
 40
0.000000
 41
0.000000
  0
VERTEX
  8
0
  6
CONTINUOUS
 10
5.934720
 20
4.557080
  0
VERTEX
  8
0
  6
CONTINUOUS
 10
6.577120
 20
4.187040
  0
VERTEX
  8
0
  6
CONTINUOUS
 10
6.577120
 20
3.987720
  0
VERTEX
  8
0
  6
CONTINUOUS
 10
5.934720
 20
4.357320
  0
VERTEX
  8
0
  6
CONTINUOUS
 10
5.934720
 20
4.557080
  0
SEQEND
  8
0
  0
SOLID
  8
0
 62
    15
 10
5.934720
 20
4.357320
 11
6.577120
 21
3.987720
 12
5.863880
 22
4.352480
 13
6.506280
 23
3.982880
  0
POLYLINE
  8
0
  6
CONTINUOUS
 66
     1
 40
0.000000
 41
0.000000
  0
VERTEX
  8
0
  6
CONTINUOUS
 10
5.934720
 20
4.357320
  0
VERTEX
  8
0
  6
CONTINUOUS
 10
6.577120
 20
3.987720
  0
VERTEX
  8
0
  6
CONTINUOUS
 10
6.506280
 20
3.982880
  0
VERTEX
  8
0
  6
CONTINUOUS
 10
5.863880
 20
4.352480
  0
VERTEX
  8
0
  6
CONTINUOUS
 10
5.934720
 20
4.357320
  0
SEQEND
  8
0
  0
SOLID
  8
0
 62
    15
 10
5.863880
 20
4.352480
 11
6.506280
 21
3.982880
 12
5.873560
 22
4.315960
 13
6.515960
 23
3.946360
  0
POLYLINE
  8
0
  6
CONTINUOUS
 66
     1
 40
0.000000
 41
0.000000
  0
VERTEX
  8
0
  6
CONTINUOUS
 10
5.863880
 20
4.352480
  0
VERTEX
  8
0
  6
CONTINUOUS
 10
6.506280
 20
3.982880
  0
VERTEX
  8
0
  6
CONTINUOUS
 10
6.515960
 20
3.946360
  0
VERTEX
  8
0
  6
CONTINUOUS
 10
5.873560
 20
4.315960
  0
VERTEX
  8
0
  6
CONTINUOUS
 10
5.863880
 20
4.352480
  0
SEQEND
  8
0
  0
SOLID
  8
0
 62
    15
 10
5.873560
 20
4.315960
 11
6.515960
 21
3.946360
 12
5.877960
 22
4.283400
 13
6.520360
 23
3.913800
  0
POLYLINE
  8
0
  6
CONTINUOUS
 66
     1
 40
0.000000
 41
0.000000
  0
VERTEX
  8
0
  6
CONTINUOUS
 10
5.873560
 20
4.315960
  0
VERTEX
  8
0
  6
CONTINUOUS
 10
6.515960
 20
3.946360
  0
VERTEX
  8
0
  6
CONTINUOUS
 10
6.520360
 20
3.913800
  0
VERTEX
  8
0
  6
CONTINUOUS
 10
5.877960
 20
4.283400
  0
VERTEX
  8
0
  6
CONTINUOUS
 10
5.873560
 20
4.315960
  0
SEQEND
  8
0
  0
SOLID
  8
0
 62
     7
 10
5.877960
 20
4.283400
 11
6.520360
 21
3.913800
 12
5.877960
 22
4.254360
 13
6.520360
 23
3.884320
  0
POLYLINE
  8
0
  6
CONTINUOUS
 66
     1
 40
0.000000
 41
0.000000
  0
VERTEX
  8
0
  6
CONTINUOUS
 10
5.877960
 20
4.283400
  0
VERTEX
  8
0
  6
CONTINUOUS
 10
6.520360
 20
3.913800
  0
VERTEX
  8
0
  6
CONTINUOUS
 10
6.520360
 20
3.884320
  0
VERTEX
  8
0
  6
CONTINUOUS
 10
5.877960
 20
4.254360
  0
VERTEX
  8
0
  6
CONTINUOUS
 10
5.877960
 20
4.283400
  0
SEQEND
  8
0
  0
SOLID
  8
0
 62
     7
 10
5.877960
 20
4.254360
 11
6.520360
 21
3.884320
 12
5.874000
 22
4.228400
 13
6.516400
 23
3.858360
  0
POLYLINE
  8
0
  6
CONTINUOUS
 66
     1
 40
0.000000
 41
0.000000
  0
VERTEX
  8
0
  6
CONTINUOUS
 10
5.877960
 20
4.254360
  0
VERTEX
  8
0
  6
CONTINUOUS
 10
6.520360
 20
3.884320
  0
VERTEX
  8
0
  6
CONTINUOUS
 10
6.516400
 20
3.858360
  0
VERTEX
  8
0
  6
CONTINUOUS
 10
5.874000
 20
4.228400
  0
VERTEX
  8
0
  6
CONTINUOUS
 10
5.877960
 20
4.254360
  0
SEQEND
  8
0
  0
SOLID
  8
0
 62
     7
 10
5.874000
 20
4.228400
 11
6.516400
 21
3.858360
 12
5.866080
 22
4.205520
 13
6.508480
 23
3.835920
  0
POLYLINE
  8
0
  6
CONTINUOUS
 66
     1
 40
0.000000
 41
0.000000
  0
VERTEX
  8
0
  6
CONTINUOUS
 10
5.874000
 20
4.228400
  0
VERTEX
  8
0
  6
CONTINUOUS
 10
6.516400
 20
3.858360
  0
VERTEX
  8
0
  6
CONTINUOUS
 10
6.508480
 20
3.835920
  0
VERTEX
  8
0
  6
CONTINUOUS
 10
5.866080
 20
4.205520
  0
VERTEX
  8
0
  6
CONTINUOUS
 10
5.874000
 20
4.228400
  0
SEQEND
  8
0
  0
SOLID
  8
0
 62
     7
 10
5.866080
 20
4.205520
 11
6.508480
 21
3.835920
 12
5.855520
 22
4.185720
 13
6.497920
 23
3.815680
  0
POLYLINE
  8
0
  6
CONTINUOUS
 66
     1
 40
0.000000
 41
0.000000
  0
VERTEX
  8
0
  6
CONTINUOUS
 10
5.866080
 20
4.205520
  0
VERTEX
  8
0
  6
CONTINUOUS
 10
6.508480
 20
3.835920
  0
VERTEX
  8
0
  6
CONTINUOUS
 10
6.497920
 20
3.815680
  0
VERTEX
  8
0
  6
CONTINUOUS
 10
5.855520
 20
4.185720
  0
VERTEX
  8
0
  6
CONTINUOUS
 10
5.866080
 20
4.205520
  0
SEQEND
  8
0
  0
SOLID
  8
0
 62
    15
 10
5.855520
 20
4.185720
 11
6.497920
 21
3.815680
 12
5.826920
 22
4.153160
 13
6.469320
 23
3.783120
  0
POLYLINE
  8
0
  6
CONTINUOUS
 66
     1
 40
0.000000
 41
0.000000
  0
VERTEX
  8
0
  6
CONTINUOUS
 10
5.855520
 20
4.185720
  0
VERTEX
  8
0
  6
CONTINUOUS
 10
6.497920
 20
3.815680
  0
VERTEX
  8
0
  6
CONTINUOUS
 10
6.469320
 20
3.783120
  0
VERTEX
  8
0
  6
CONTINUOUS
 10
5.826920
 20
4.153160
  0
VERTEX
  8
0
  6
CONTINUOUS
 10
5.855520
 20
4.185720
  0
SEQEND
  8
0
  0
SOLID
  8
0
 62
    15
 10
5.826920
 20
4.153160
 11
6.469320
 21
3.783120
 12
5.793040
 22
4.128960
 13
6.435440
 23
3.759360
  0
POLYLINE
  8
0
  6
CONTINUOUS
 66
     1
 40
0.000000
 41
0.000000
  0
VERTEX
  8
0
  6
CONTINUOUS
 10
5.826920
 20
4.153160
  0
VERTEX
  8
0
  6
CONTINUOUS
 10
6.469320
 20
3.783120
  0
VERTEX
  8
0
  6
CONTINUOUS
 10
6.435440
 20
3.759360
  0
VERTEX
  8
0
  6
CONTINUOUS
 10
5.793040
 20
4.128960
  0
VERTEX
  8
0
  6
CONTINUOUS
 10
5.826920
 20
4.153160
  0
SEQEND
  8
0
  0
SOLID
  8
0
 62
    15
 10
5.793040
 20
4.128960
 11
6.435440
 21
3.759360
 12
5.757400
 22
4.111800
 13
6.399800
 23
3.741760
  0
POLYLINE
  8
0
  6
CONTINUOUS
 66
     1
 40
0.000000
 41
0.000000
  0
VERTEX
  8
0
  6
CONTINUOUS
 10
5.793040
 20
4.128960
  0
VERTEX
  8
0
  6
CONTINUOUS
 10
6.435440
 20
3.759360
  0
VERTEX
  8
0
  6
CONTINUOUS
 10
6.399800
 20
3.741760
  0
VERTEX
  8
0
  6
CONTINUOUS
 10
5.757400
 20
4.111800
  0
VERTEX
  8
0
  6
CONTINUOUS
 10
5.793040
 20
4.128960
  0
SEQEND
  8
0
  0
SOLID
  8
0
 62
    15
 10
5.757400
 20
4.111800
 11
6.399800
 21
3.741760
 12
5.740240
 22
4.104760
 13
6.382640
 23
3.735160
  0
POLYLINE
  8
0
  6
CONTINUOUS
 66
     1
 40
0.000000
 41
0.000000
  0
VERTEX
  8
0
  6
CONTINUOUS
 10
5.757400
 20
4.111800
  0
VERTEX
  8
0
  6
CONTINUOUS
 10
6.399800
 20
3.741760
  0
VERTEX
  8
0
  6
CONTINUOUS
 10
6.382640
 20
3.735160
  0
VERTEX
  8
0
  6
CONTINUOUS
 10
5.740240
 20
4.104760
  0
VERTEX
  8
0
  6
CONTINUOUS
 10
5.757400
 20
4.111800
  0
SEQEND
  8
0
  0
SOLID
  8
0
 62
     7
 10
5.325760
 20
3.799840
 11
5.968160
 21
3.430240
 12
5.325760
 22
3.366880
 13
5.968160
 23
2.997280
  0
POLYLINE
  8
0
  6
CONTINUOUS
 66
     1
 40
0.000000
 41
0.000000
  0
VERTEX
  8
0
  6
CONTINUOUS
 10
5.325760
 20
3.799840
  0
VERTEX
  8
0
  6
CONTINUOUS
 10
5.968160
 20
3.430240
  0
VERTEX
  8
0
  6
CONTINUOUS
 10
5.968160
 20
2.997280
  0
VERTEX
  8
0
  6
CONTINUOUS
 10
5.325760
 20
3.366880
  0
VERTEX
  8
0
  6
CONTINUOUS
 10
5.325760
 20
3.799840
  0
SEQEND
  8
0
  0
SOLID
  8
0
 62
    15
 10
5.710760
 20
4.093760
 11
6.353160
 21
3.723720
 12
5.698880
 22
4.088920
 13
6.341280
 23
3.718880
  0
POLYLINE
  8
0
  6
CONTINUOUS
 66
     1
 40
0.000000
 41
0.000000
  0
VERTEX
  8
0
  6
CONTINUOUS
 10
5.710760
 20
4.093760
  0
VERTEX
  8
0
  6
CONTINUOUS
 10
6.353160
 20
3.723720
  0
VERTEX
  8
0
  6
CONTINUOUS
 10
6.341280
 20
3.718880
  0
VERTEX
  8
0
  6
CONTINUOUS
 10
5.698880
 20
4.088920
  0
VERTEX
  8
0
  6
CONTINUOUS
 10
5.710760
 20
4.093760
  0
SEQEND
  8
0
  0
SOLID
  8
0
 62
    15
 10
5.698880
 20
4.088920
 11
6.341280
 21
3.718880
 12
5.672920
 22
4.077480
 13
6.315320
 23
3.707440
  0
POLYLINE
  8
0
  6
CONTINUOUS
 66
     1
 40
0.000000
 41
0.000000
  0
VERTEX
  8
0
  6
CONTINUOUS
 10
5.698880
 20
4.088920
  0
VERTEX
  8
0
  6
CONTINUOUS
 10
6.341280
 20
3.718880
  0
VERTEX
  8
0
  6
CONTINUOUS
 10
6.315320
 20
3.707440
  0
VERTEX
  8
0
  6
CONTINUOUS
 10
5.672920
 20
4.077480
  0
VERTEX
  8
0
  6
CONTINUOUS
 10
5.698880
 20
4.088920
  0
SEQEND
  8
0
  0
SOLID
  8
0
 62
    15
 10
5.672920
 20
4.077480
 11
6.315320
 21
3.707440
 12
5.638600
 22
4.060760
 13
6.281000
 23
3.690720
  0
POLYLINE
  8
0
  6
CONTINUOUS
 66
     1
 40
0.000000
 41
0.000000
  0
VERTEX
  8
0
  6
CONTINUOUS
 10
5.672920
 20
4.077480
  0
VERTEX
  8
0
  6
CONTINUOUS
 10
6.315320
 20
3.707440
  0
VERTEX
  8
0
  6
CONTINUOUS
 10
6.281000
 20
3.690720
  0
VERTEX
  8
0
  6
CONTINUOUS
 10
5.638600
 20
4.060760
  0
VERTEX
  8
0
  6
CONTINUOUS
 10
5.672920
 20
4.077480
  0
SEQEND
  8
0
  0
SOLID
  8
0
 62
    15
 10
5.638600
 20
4.060760
 11
6.281000
 21
3.690720
 12
5.599880
 22
4.037880
 13
6.242280
 23
3.667840
  0
POLYLINE
  8
0
  6
CONTINUOUS
 66
     1
 40
0.000000
 41
0.000000
  0
VERTEX
  8
0
  6
CONTINUOUS
 10
5.638600
 20
4.060760
  0
VERTEX
  8
0
  6
CONTINUOUS
 10
6.281000
 20
3.690720
  0
VERTEX
  8
0
  6
CONTINUOUS
 10
6.242280
 20
3.667840
  0
VERTEX
  8
0
  6
CONTINUOUS
 10
5.599880
 20
4.037880
  0
VERTEX
  8
0
  6
CONTINUOUS
 10
5.638600
 20
4.060760
  0
SEQEND
  8
0
  0
SOLID
  8
0
 62
    15
 10
5.599880
 20
4.037880
 11
6.242280
 21
3.667840
 12
5.560280
 22
4.008400
 13
6.202680
 23
3.638360
  0
POLYLINE
  8
0
  6
CONTINUOUS
 66
     1
 40
0.000000
 41
0.000000
  0
VERTEX
  8
0
  6
CONTINUOUS
 10
5.599880
 20
4.037880
  0
VERTEX
  8
0
  6
CONTINUOUS
 10
6.242280
 20
3.667840
  0
VERTEX
  8
0
  6
CONTINUOUS
 10
6.202680
 20
3.638360
  0
VERTEX
  8
0
  6
CONTINUOUS
 10
5.560280
 20
4.008400
  0
VERTEX
  8
0
  6
CONTINUOUS
 10
5.599880
 20
4.037880
  0
SEQEND
  8
0
  0
SOLID
  8
0
 62
    15
 10
5.560280
 20
4.008400
 11
6.202680
 21
3.638360
 12
5.523320
 22
3.971440
 13
6.165720
 23
3.601400
  0
POLYLINE
  8
0
  6
CONTINUOUS
 66
     1
 40
0.000000
 41
0.000000
  0
VERTEX
  8
0
  6
CONTINUOUS
 10
5.560280
 20
4.008400
  0
VERTEX
  8
0
  6
CONTINUOUS
 10
6.202680
 20
3.638360
  0
VERTEX
  8
0
  6
CONTINUOUS
 10
6.165720
 20
3.601400
  0
VERTEX
  8
0
  6
CONTINUOUS
 10
5.523320
 20
3.971440
  0
VERTEX
  8
0
  6
CONTINUOUS
 10
5.560280
 20
4.008400
  0
SEQEND
  8
0
  0
SOLID
  8
0
 62
     7
 10
5.523320
 20
3.971440
 11
6.165720
 21
3.601400
 12
5.492080
 22
3.925680
 13
6.134480
 23
3.556080
  0
POLYLINE
  8
0
  6
CONTINUOUS
 66
     1
 40
0.000000
 41
0.000000
  0
VERTEX
  8
0
  6
CONTINUOUS
 10
5.523320
 20
3.971440
  0
VERTEX
  8
0
  6
CONTINUOUS
 10
6.165720
 20
3.601400
  0
VERTEX
  8
0
  6
CONTINUOUS
 10
6.134480
 20
3.556080
  0
VERTEX
  8
0
  6
CONTINUOUS
 10
5.492080
 20
3.925680
  0
VERTEX
  8
0
  6
CONTINUOUS
 10
5.523320
 20
3.971440
  0
SEQEND
  8
0
  0
SOLID
  8
0
 62
     7
 10
5.492080
 20
3.925680
 11
6.134480
 21
3.556080
 12
5.480200
 22
3.899720
 13
6.122600
 23
3.529680
  0
POLYLINE
  8
0
  6
CONTINUOUS
 66
     1
 40
0.000000
 41
0.000000
  0
VERTEX
  8
0
  6
CONTINUOUS
 10
5.492080
 20
3.925680
  0
VERTEX
  8
0
  6
CONTINUOUS
 10
6.134480
 20
3.556080
  0
VERTEX
  8
0
  6
CONTINUOUS
 10
6.122600
 20
3.529680
  0
VERTEX
  8
0
  6
CONTINUOUS
 10
5.480200
 20
3.899720
  0
VERTEX
  8
0
  6
CONTINUOUS
 10
5.492080
 20
3.925680
  0
SEQEND
  8
0
  0
SOLID
  8
0
 62
     7
 10
5.480200
 20
3.899720
 11
6.122600
 21
3.529680
 12
5.470960
 22
3.871120
 13
6.113360
 23
3.501520
  0
POLYLINE
  8
0
  6
CONTINUOUS
 66
     1
 40
0.000000
 41
0.000000
  0
VERTEX
  8
0
  6
CONTINUOUS
 10
5.480200
 20
3.899720
  0
VERTEX
  8
0
  6
CONTINUOUS
 10
6.122600
 20
3.529680
  0
VERTEX
  8
0
  6
CONTINUOUS
 10
6.113360
 20
3.501520
  0
VERTEX
  8
0
  6
CONTINUOUS
 10
5.470960
 20
3.871120
  0
VERTEX
  8
0
  6
CONTINUOUS
 10
5.480200
 20
3.899720
  0
SEQEND
  8
0
  0
SOLID
  8
0
 62
     7
 10
5.470960
 20
3.871120
 11
6.113360
 21
3.501520
 12
5.464800
 22
3.840320
 13
6.107200
 23
3.470280
  0
POLYLINE
  8
0
  6
CONTINUOUS
 66
     1
 40
0.000000
 41
0.000000
  0
VERTEX
  8
0
  6
CONTINUOUS
 10
5.470960
 20
3.871120
  0
VERTEX
  8
0
  6
CONTINUOUS
 10
6.113360
 20
3.501520
  0
VERTEX
  8
0
  6
CONTINUOUS
 10
6.107200
 20
3.470280
  0
VERTEX
  8
0
  6
CONTINUOUS
 10
5.464800
 20
3.840320
  0
VERTEX
  8
0
  6
CONTINUOUS
 10
5.470960
 20
3.871120
  0
SEQEND
  8
0
  0
SOLID
  8
0
 62
     7
 10
5.464800
 20
3.840320
 11
6.107200
 21
3.470280
 12
5.462600
 22
3.806440
 13
6.105000
 23
3.436840
  0
POLYLINE
  8
0
  6
CONTINUOUS
 66
     1
 40
0.000000
 41
0.000000
  0
VERTEX
  8
0
  6
CONTINUOUS
 10
5.464800
 20
3.840320
  0
VERTEX
  8
0
  6
CONTINUOUS
 10
6.107200
 20
3.470280
  0
VERTEX
  8
0
  6
CONTINUOUS
 10
6.105000
 20
3.436840
  0
VERTEX
  8
0
  6
CONTINUOUS
 10
5.462600
 20
3.806440
  0
VERTEX
  8
0
  6
CONTINUOUS
 10
5.464800
 20
3.840320
  0
SEQEND
  8
0
  0
SOLID
  8
0
 62
    15
 10
5.462600
 20
3.806440
 11
6.105000
 21
3.436840
 12
5.360080
 22
3.801600
 13
6.002480
 23
3.432000
  0
POLYLINE
  8
0
  6
CONTINUOUS
 66
     1
 40
0.000000
 41
0.000000
  0
VERTEX
  8
0
  6
CONTINUOUS
 10
5.462600
 20
3.806440
  0
VERTEX
  8
0
  6
CONTINUOUS
 10
6.105000
 20
3.436840
  0
VERTEX
  8
0
  6
CONTINUOUS
 10
6.002480
 20
3.432000
  0
VERTEX
  8
0
  6
CONTINUOUS
 10
5.360080
 20
3.801600
  0
VERTEX
  8
0
  6
CONTINUOUS
 10
5.462600
 20
3.806440
  0
SEQEND
  8
0
  0
SOLID
  8
0
 62
    15
 10
5.360080
 20
3.801600
 11
6.002480
 21
3.432000
 12
5.325760
 22
3.799840
 13
5.968160
 23
3.430240
  0
POLYLINE
  8
0
  6
CONTINUOUS
 66
     1
 40
0.000000
 41
0.000000
  0
VERTEX
  8
0
  6
CONTINUOUS
 10
5.360080
 20
3.801600
  0
VERTEX
  8
0
  6
CONTINUOUS
 10
6.002480
 20
3.432000
  0
VERTEX
  8
0
  6
CONTINUOUS
 10
5.968160
 20
3.430240
  0
VERTEX
  8
0
  6
CONTINUOUS
 10
5.325760
 20
3.799840
  0
VERTEX
  8
0
  6
CONTINUOUS
 10
5.360080
 20
3.801600
  0
SEQEND
  8
0
  0
POLYLINE
  8
0
  6
CONTINUOUS
 66
     1
 40
0.000000
 41
0.000000
  0
VERTEX
  8
0
  6
CONTINUOUS
 10
5.325760
 20
3.799840
  0
VERTEX
  8
0
  6
CONTINUOUS
 10
5.325760
 20
3.366880
  0
VERTEX
  8
0
  6
CONTINUOUS
 10
5.174840
 20
3.366880
  0
VERTEX
  8
0
  6
CONTINUOUS
 10
5.174840
 20
4.557080
  0
VERTEX
  8
0
  6
CONTINUOUS
 10
5.934720
 20
4.557080
  0
VERTEX
  8
0
  6
CONTINUOUS
 10
5.934720
 20
4.357320
  0
VERTEX
  8
0
  6
CONTINUOUS
 10
5.863880
 20
4.352480
  0
VERTEX
  8
0
  6
CONTINUOUS
 10
5.873560
 20
4.315960
  0
VERTEX
  8
0
  6
CONTINUOUS
 10
5.877960
 20
4.283400
  0
VERTEX
  8
0
  6
CONTINUOUS
 10
5.877960
 20
4.254360
  0
VERTEX
  8
0
  6
CONTINUOUS
 10
5.874000
 20
4.228400
  0
VERTEX
  8
0
  6
CONTINUOUS
 10
5.866080
 20
4.205520
  0
VERTEX
  8
0
  6
CONTINUOUS
 10
5.855520
 20
4.185720
  0
VERTEX
  8
0
  6
CONTINUOUS
 10
5.826920
 20
4.153160
  0
VERTEX
  8
0
  6
CONTINUOUS
 10
5.793040
 20
4.128960
  0
VERTEX
  8
0
  6
CONTINUOUS
 10
5.757400
 20
4.111800
  0
VERTEX
  8
0
  6
CONTINUOUS
 10
5.740240
 20
4.104760
  0
VERTEX
  8
0
  6
CONTINUOUS
 10
5.710760
 20
4.093760
  0
VERTEX
  8
0
  6
CONTINUOUS
 10
5.698880
 20
4.088920
  0
VERTEX
  8
0
  6
CONTINUOUS
 10
5.672920
 20
4.077480
  0
VERTEX
  8
0
  6
CONTINUOUS
 10
5.638600
 20
4.060760
  0
VERTEX
  8
0
  6
CONTINUOUS
 10
5.599880
 20
4.037880
  0
VERTEX
  8
0
  6
CONTINUOUS
 10
5.560280
 20
4.008400
  0
VERTEX
  8
0
  6
CONTINUOUS
 10
5.523320
 20
3.971440
  0
VERTEX
  8
0
  6
CONTINUOUS
 10
5.492080
 20
3.925680
  0
VERTEX
  8
0
  6
CONTINUOUS
 10
5.480200
 20
3.899720
  0
VERTEX
  8
0
  6
CONTINUOUS
 10
5.470960
 20
3.871120
  0
VERTEX
  8
0
  6
CONTINUOUS
 10
5.464800
 20
3.840320
  0
VERTEX
  8
0
  6
CONTINUOUS
 10
5.462600
 20
3.806440
  0
VERTEX
  8
0
  6
CONTINUOUS
 10
5.360080
 20
3.801600
  0
VERTEX
  8
0
  6
CONTINUOUS
 10
5.325760
 20
3.799840
  0
SEQEND
  8
0
  0
TEXT
  8
0
 10
6.283640
 20
3.256880
 40
0.138033
  1
BA  1291
 41
1.000000
  7
SN0
 71
     0
 72
     5
 11
6.965763
 21
3.256880
  0
TEXT
  8
0
 10
6.127440
 20
3.055800
 40
0.138033
  1
3/4" x 1-3/16"
 41
1.000000
  7
SN0
 71
     0
 72
     5
 11
7.119485
 21
3.055800
  0
TEXT
  8
0
 10
3.784000
 20
3.633080
 40
0.138033
  1
BA  1291
 41
1.000000
  7
SN0
 71
     0
 72
     5
 11
4.466123
 21
3.633080
  0
TEXT
  8
0
 10
3.628240
 20
3.431560
 40
0.138033
  1
3/4" x 1-3/16"
 41
1.000000
  7
SN0
 71
     0
 72
     5
 11
4.620285
 21
3.431560
  0
POLYLINE
  8
0
  6
CONTINUOUS
 66
     1
 40
0.000000
 41
0.000000
  0
VERTEX
  8
0
  6
CONTINUOUS
 10
3.811280
 20
6.900520
  0
VERTEX
  8
0
  6
CONTINUOUS
 10
3.811280
 20
7.333480
  0
VERTEX
  8
0
  6
CONTINUOUS
 10
3.660360
 20
7.333480
  0
VERTEX
  8
0
  6
CONTINUOUS
 10
3.660360
 20
6.143280
  0
VERTEX
  8
0
  6
CONTINUOUS
 10
4.420240
 20
6.143280
  0
VERTEX
  8
0
  6
CONTINUOUS
 10
4.420240
 20
6.343040
  0
VERTEX
  8
0
  6
CONTINUOUS
 10
4.348960
 20
6.347880
  0
VERTEX
  8
0
  6
CONTINUOUS
 10
4.358640
 20
6.384400
  0
VERTEX
  8
0
  6
CONTINUOUS
 10
4.363480
 20
6.416960
  0
VERTEX
  8
0
  6
CONTINUOUS
 10
4.363480
 20
6.446000
  0
VERTEX
  8
0
  6
CONTINUOUS
 10
4.359080
 20
6.471960
  0
VERTEX
  8
0
  6
CONTINUOUS
 10
4.351600
 20
6.494840
  0
VERTEX
  8
0
  6
CONTINUOUS
 10
4.334440
 20
6.523880
  0
VERTEX
  8
0
  6
CONTINUOUS
 10
4.312440
 20
6.547200
  0
VERTEX
  8
0
  6
CONTINUOUS
 10
4.295720
 20
6.559960
  0
VERTEX
  8
0
  6
CONTINUOUS
 10
4.260080
 20
6.580640
  0
VERTEX
  8
0
  6
CONTINUOUS
 10
4.158000
 20
6.622880
  0
VERTEX
  8
0
  6
CONTINUOUS
 10
4.104760
 20
6.650160
  0
VERTEX
  8
0
  6
CONTINUOUS
 10
4.065160
 20
6.676120
  0
VERTEX
  8
0
  6
CONTINUOUS
 10
4.026440
 20
6.709560
  0
VERTEX
  8
0
  6
CONTINUOUS
 10
4.000040
 20
6.739480
  0
VERTEX
  8
0
  6
CONTINUOUS
 10
3.984200
 20
6.762360
  0
VERTEX
  8
0
  6
CONTINUOUS
 10
3.965280
 20
6.800640
  0
VERTEX
  8
0
  6
CONTINUOUS
 10
3.956040
 20
6.829240
  0
VERTEX
  8
0
  6
CONTINUOUS
 10
3.950320
 20
6.860480
  0
VERTEX
  8
0
  6
CONTINUOUS
 10
3.948120
 20
6.893920
  0
VERTEX
  8
0
  6
CONTINUOUS
 10
3.811280
 20
6.900520
  0
SEQEND
  8
0
  0
POLYLINE
  8
0
  6
CONTINUOUS
 66
     1
 40
0.000000
 41
0.000000
  0
VERTEX
  8
0
  6
CONTINUOUS
 10
3.510320
 20
6.127440
  0
VERTEX
  8
0
  6
CONTINUOUS
 10
4.515720
 20
6.127440
  0
VERTEX
  8
0
  6
CONTINUOUS
 10
4.515720
 20
7.849600
  0
VERTEX
  8
0
  6
CONTINUOUS
 10
4.876960
 20
7.849600
  0
VERTEX
  8
0
  6
CONTINUOUS
 10
4.876960
 20
6.127440
  0
VERTEX
  8
0
  6
CONTINUOUS
 10
4.981680
 20
6.127440
  0
SEQEND
  8
0
  0
ENDSEC
  0
EOF
