  0
SECTION
  2
HEADER
  9
$ACADVER
  1
AC1006
  9
$EXTMIN
 10
1.870440
 20
1.529880
  9
$EXTMAX
 10
6.529160
 20
5.876640
  9
$LTSCALE
 40
0.044000
  9
$PDMODE
 70
    35
  9
$PDSIZE
 40
0.035200
  0
ENDSEC
  0
SECTION
  2
TABLES
  0
TABLE
  2
LTYPE
 70
     9
  0
LTYPE
  2
CONTINUOUS
 70
    64
  3
Solid line
 72
    65
 73
     0
 40
0.000000
  0
LTYPE
  2
DASHED
 70
    64
  3
__ __ __ __ __ __ __ __ __ __ __ __ __ __ __
 72
    65
 73
     2
 40
0.000330
 49
0.000220
 49
-0.000110
  0
LTYPE
  2
HIDDEN
 70
    64
  3
 _ _ _ _ _ _ _ _ _ _ _ _ _ _ _ _ _ _ _ _ _ _
 72
    65
 73
     2
 40
0.000165
 49
0.000110
 49
-0.000055
  0
LTYPE
  2
CENTER
 70
    64
  3
____ _ ____ _ ____ _ ____ _ ____ _ ____ _ ____
 72
    65
 73
     4
 40
0.000880
 49
0.000550
 49
-0.000110
 49
0.000110
 49
-0.000110
  0
LTYPE
  2
PHANTOM
 70
    64
  3
_____ _ _ _____ _ _ _____ _ _ _____ _ _ ____
 72
    65
 73
     6
 40
0.001100
 49
0.000550
 49
-0.000110
 49
0.000110
 49
-0.000110
 49
0.000110
 49
-0.000110
  0
LTYPE
  2
DOT
 70
    64
  3
...............................................
 72
    65
 73
     2
 40
0.000110
 49
0.000000
 49
-0.000110
  0
LTYPE
  2
DASHDOT
 70
    64
  3
__ . __ . __ . __ . __ . __ . __ . __ . __ . __
 72
    65
 73
     4
 40
0.000440
 49
0.000220
 49
-0.000110
 49
0.000000
 49
-0.000110
  0
LTYPE
  2
BORDER
 70
    64
  3
__ __ . __ __ . __ __ . __ __ . __ __ . __ __
 72
    65
 73
     6
 40
0.000770
 49
0.000220
 49
-0.000110
 49
0.000220
 49
-0.000110
 49
0.000000
 49
-0.000110
  0
LTYPE
  2
DIVIDE
 70
    64
  3
__ . . __ . . __ . . __ . . __ . . __ . . __
 72
    65
 73
     6
 40
0.000550
 49
0.000220
 49
-0.000110
 49
0.000000
 49
-0.000110
 49
0.000000
 49
-0.000110
  0
LTYPE
  2
DOTDOT
 70
    64
  3
 . .  . .  . .  . .  . .  . . 
 72
    65
 73
     5
 40
0.000242
 49
-0.000110
 49
0.000000
 49
-0.000110
 49
0.000000
 49
-0.000110
  0
ENDTAB
  0
TABLE
  2
STYLE
 70
     2
  0
STYLE
 70
     0
  2
SN0
 40
0.000000
 41
0.000440
 50
0.000000
 71
     0
 42
0.000000
  3
ROMAND
  0
STYLE
 70
    68
  2
SV0
 40
0.000000
 41
0.000440
 50
0.000000
 71
     0
 42
0.000000
  3
ROMAND
  0
ENDTAB
  0
TABLE
  2
LAYER
 70
     3
  0
LAYER
  2
FOREGROUND
 70
    64
 62
     7
  6
CONTINUOUS
  0
LAYER
  2
BACKGROUND
 70
    65
 62
    -7
  6
CONTINUOUS
  0
LAYER
  2
0
 70
    64
 62
     7
  6
CONTINUOUS
  0
ENDTAB
  0
ENDSEC
  0
SECTION
  2
ENTITIES
  0
POLYLINE
  8
FOREGROUND
  6
CONTINUOUS
 66
     1
 40
0.000000
 41
0.000000
  0
VERTEX
  8
FOREGROUND
  6
CONTINUOUS
 10
0.000000
 20
7.406520
  0
VERTEX
  8
FOREGROUND
  6
CONTINUOUS
 10
8.499920
 20
7.406520
  0
VERTEX
  8
FOREGROUND
  6
CONTINUOUS
 10
8.499920
 20
-3.593480
  0
VERTEX
  8
FOREGROUND
  6
CONTINUOUS
 10
0.000000
 20
-3.593480
  0
VERTEX
  8
FOREGROUND
  6
CONTINUOUS
 10
0.000000
 20
7.406520
  0
SEQEND
  8
0
  0
POLYLINE
  8
FOREGROUND
  6
CONTINUOUS
 66
     1
 40
0.000000
 41
0.000000
  0
VERTEX
  8
FOREGROUND
  6
CONTINUOUS
 10
0.000000
 20
7.406520
  0
VERTEX
  8
FOREGROUND
  6
CONTINUOUS
 10
8.499920
 20
7.406520
  0
VERTEX
  8
FOREGROUND
  6
CONTINUOUS
 10
8.499920
 20
-3.593480
  0
VERTEX
  8
FOREGROUND
  6
CONTINUOUS
 10
0.000000
 20
-3.593480
  0
VERTEX
  8
FOREGROUND
  6
CONTINUOUS
 10
0.000000
 20
7.406520
  0
SEQEND
  8
0
  0
POLYLINE
  8
0
  6
CONTINUOUS
 66
     1
 40
0.014080
 41
0.014080
  0
VERTEX
  8
0
  6
CONTINUOUS
 10
6.478560
 20
5.115880
  0
VERTEX
  8
0
  6
CONTINUOUS
 10
6.478560
 20
5.863880
  0
VERTEX
  8
0
  6
CONTINUOUS
 10
5.763120
 20
5.863880
  0
VERTEX
  8
0
  6
CONTINUOUS
 10
5.740240
 20
5.747720
  0
VERTEX
  8
0
  6
CONTINUOUS
 10
5.588000
 20
5.747720
  0
VERTEX
  8
0
  6
CONTINUOUS
 10
5.577880
 20
5.717800
  0
VERTEX
  8
0
  6
CONTINUOUS
 10
5.561600
 20
5.692280
  0
VERTEX
  8
0
  6
CONTINUOUS
 10
5.539600
 20
5.670720
  0
VERTEX
  8
0
  6
CONTINUOUS
 10
5.513640
 20
5.653120
  0
VERTEX
  8
0
  6
CONTINUOUS
 10
5.483280
 20
5.638600
  0
VERTEX
  8
0
  6
CONTINUOUS
 10
5.450720
 20
5.627160
  0
VERTEX
  8
0
  6
CONTINUOUS
 10
5.415520
 20
5.617920
  0
VERTEX
  8
0
  6
CONTINUOUS
 10
5.343360
 20
5.606920
  0
VERTEX
  8
0
  6
CONTINUOUS
 10
5.272520
 20
5.602520
  0
VERTEX
  8
0
  6
CONTINUOUS
 10
5.197280
 20
5.602520
  0
VERTEX
  8
0
  6
CONTINUOUS
 10
5.148440
 20
5.603840
  0
VERTEX
  8
0
  6
CONTINUOUS
 10
5.096520
 20
5.689640
  0
VERTEX
  8
0
  6
CONTINUOUS
 10
5.061320
 20
5.738920
  0
VERTEX
  8
0
  6
CONTINUOUS
 10
5.038000
 20
5.765760
  0
VERTEX
  8
0
  6
CONTINUOUS
 10
5.003240
 20
5.796120
  0
VERTEX
  8
0
  6
CONTINUOUS
 10
4.978600
 20
5.810200
  0
VERTEX
  8
0
  6
CONTINUOUS
 10
4.952200
 20
5.819880
  0
VERTEX
  8
0
  6
CONTINUOUS
 10
4.923160
 20
5.825600
  0
VERTEX
  8
0
  6
CONTINUOUS
 10
4.891480
 20
5.826920
  0
VERTEX
  8
0
  6
CONTINUOUS
 10
4.855840
 20
5.824280
  0
VERTEX
  8
0
  6
CONTINUOUS
 10
4.794680
 20
5.813720
  0
VERTEX
  8
0
  6
CONTINUOUS
 10
4.694360
 20
5.787760
  0
VERTEX
  8
0
  6
CONTINUOUS
 10
4.438280
 20
5.711640
  0
VERTEX
  8
0
  6
CONTINUOUS
 10
4.307160
 20
5.677320
  0
VERTEX
  8
0
  6
CONTINUOUS
 10
4.254800
 20
5.667640
  0
VERTEX
  8
0
  6
CONTINUOUS
 10
4.216080
 20
5.665000
  0
VERTEX
  8
0
  6
CONTINUOUS
 10
4.199800
 20
5.665000
  0
VERTEX
  8
0
  6
CONTINUOUS
 10
4.199800
 20
5.669840
  0
VERTEX
  8
0
  6
CONTINUOUS
 10
4.156680
 20
5.671160
  0
VERTEX
  8
0
  6
CONTINUOUS
 10
4.103440
 20
5.680400
  0
VERTEX
  8
0
  6
CONTINUOUS
 10
4.037440
 20
5.696240
  0
VERTEX
  8
0
  6
CONTINUOUS
 10
3.886960
 20
5.738040
  0
VERTEX
  8
0
  6
CONTINUOUS
 10
3.677520
 20
5.800080
  0
VERTEX
  8
0
  6
CONTINUOUS
 10
3.604920
 20
5.818560
  0
VERTEX
  8
0
  6
CONTINUOUS
 10
3.543320
 20
5.829120
  0
VERTEX
  8
0
  6
CONTINUOUS
 10
3.508120
 20
5.831760
  0
VERTEX
  8
0
  6
CONTINUOUS
 10
3.476440
 20
5.830440
  0
VERTEX
  8
0
  6
CONTINUOUS
 10
3.447400
 20
5.824720
  0
VERTEX
  8
0
  6
CONTINUOUS
 10
3.421000
 20
5.815040
  0
VERTEX
  8
0
  6
CONTINUOUS
 10
3.396360
 20
5.800960
  0
VERTEX
  8
0
  6
CONTINUOUS
 10
3.361600
 20
5.770600
  0
VERTEX
  8
0
  6
CONTINUOUS
 10
3.326840
 20
5.728800
  0
VERTEX
  8
0
  6
CONTINUOUS
 10
3.290760
 20
5.675120
  0
VERTEX
  8
0
  6
CONTINUOUS
 10
3.251160
 20
5.608680
  0
VERTEX
  8
0
  6
CONTINUOUS
 10
3.202320
 20
5.607360
  0
VERTEX
  8
0
  6
CONTINUOUS
 10
3.127080
 20
5.607800
  0
VERTEX
  8
0
  6
CONTINUOUS
 10
3.092320
 20
5.609120
  0
VERTEX
  8
0
  6
CONTINUOUS
 10
3.020160
 20
5.616600
  0
VERTEX
  8
0
  6
CONTINUOUS
 10
2.966480
 20
5.627160
  0
VERTEX
  8
0
  6
CONTINUOUS
 10
2.932160
 20
5.637720
  0
VERTEX
  8
0
  6
CONTINUOUS
 10
2.900920
 20
5.650480
  0
VERTEX
  8
0
  6
CONTINUOUS
 10
2.872320
 20
5.666760
  0
VERTEX
  8
0
  6
CONTINUOUS
 10
2.848560
 20
5.686560
  0
VERTEX
  8
0
  6
CONTINUOUS
 10
2.838000
 20
5.697560
  0
VERTEX
  8
0
  6
CONTINUOUS
 10
2.821720
 20
5.723080
  0
VERTEX
  8
0
  6
CONTINUOUS
 10
2.811600
 20
5.753000
  0
VERTEX
  8
0
  6
CONTINUOUS
 10
2.659360
 20
5.753000
  0
VERTEX
  8
0
  6
CONTINUOUS
 10
2.636480
 20
5.869160
  0
VERTEX
  8
0
  6
CONTINUOUS
 10
1.921040
 20
5.869160
  0
VERTEX
  8
0
  6
CONTINUOUS
 10
1.921040
 20
5.115880
  0
VERTEX
  8
0
  6
CONTINUOUS
 10
6.478560
 20
5.115880
  0
SEQEND
  8
0
  0
POLYLINE
  8
0
  6
CONTINUOUS
 66
     1
 40
0.000000
 41
0.000000
  0
VERTEX
  8
0
  6
CONTINUOUS
 10
6.528720
 20
1.529880
  0
VERTEX
  8
0
  6
CONTINUOUS
 10
6.528720
 20
2.277880
  0
VERTEX
  8
0
  6
CONTINUOUS
 10
5.813280
 20
2.277880
  0
VERTEX
  8
0
  6
CONTINUOUS
 10
5.790400
 20
2.161720
  0
VERTEX
  8
0
  6
CONTINUOUS
 10
5.638160
 20
2.161720
  0
VERTEX
  8
0
  6
CONTINUOUS
 10
5.628040
 20
2.131800
  0
VERTEX
  8
0
  6
CONTINUOUS
 10
5.611760
 20
2.106280
  0
VERTEX
  8
0
  6
CONTINUOUS
 10
5.589760
 20
2.084720
  0
VERTEX
  8
0
  6
CONTINUOUS
 10
5.563800
 20
2.067120
  0
VERTEX
  8
0
  6
CONTINUOUS
 10
5.533440
 20
2.052600
  0
VERTEX
  8
0
  6
CONTINUOUS
 10
5.500880
 20
2.041160
  0
VERTEX
  8
0
  6
CONTINUOUS
 10
5.465680
 20
2.031920
  0
VERTEX
  8
0
  6
CONTINUOUS
 10
5.393520
 20
2.020920
  0
VERTEX
  8
0
  6
CONTINUOUS
 10
5.322680
 20
2.016520
  0
VERTEX
  8
0
  6
CONTINUOUS
 10
5.247440
 20
2.016520
  0
VERTEX
  8
0
  6
CONTINUOUS
 10
5.198600
 20
2.017840
  0
VERTEX
  8
0
  6
CONTINUOUS
 10
5.146680
 20
2.103640
  0
VERTEX
  8
0
  6
CONTINUOUS
 10
5.111480
 20
2.152920
  0
VERTEX
  8
0
  6
CONTINUOUS
 10
5.088160
 20
2.179760
  0
VERTEX
  8
0
  6
CONTINUOUS
 10
5.053400
 20
2.210120
  0
VERTEX
  8
0
  6
CONTINUOUS
 10
5.028760
 20
2.224200
  0
VERTEX
  8
0
  6
CONTINUOUS
 10
5.002360
 20
2.233880
  0
VERTEX
  8
0
  6
CONTINUOUS
 10
4.973320
 20
2.239600
  0
VERTEX
  8
0
  6
CONTINUOUS
 10
4.941640
 20
2.240920
  0
VERTEX
  8
0
  6
CONTINUOUS
 10
4.906440
 20
2.238280
  0
VERTEX
  8
0
  6
CONTINUOUS
 10
4.844840
 20
2.227720
  0
VERTEX
  8
0
  6
CONTINUOUS
 10
4.744960
 20
2.201760
  0
VERTEX
  8
0
  6
CONTINUOUS
 10
4.488880
 20
2.125640
  0
VERTEX
  8
0
  6
CONTINUOUS
 10
4.357320
 20
2.091320
  0
VERTEX
  8
0
  6
CONTINUOUS
 10
4.304960
 20
2.081640
  0
VERTEX
  8
0
  6
CONTINUOUS
 10
4.266240
 20
2.079000
  0
VERTEX
  8
0
  6
CONTINUOUS
 10
4.249960
 20
2.079000
  0
VERTEX
  8
0
  6
CONTINUOUS
 10
4.249960
 20
2.083840
  0
VERTEX
  8
0
  6
CONTINUOUS
 10
4.206840
 20
2.085160
  0
VERTEX
  8
0
  6
CONTINUOUS
 10
4.153600
 20
2.094400
  0
VERTEX
  8
0
  6
CONTINUOUS
 10
4.087600
 20
2.110240
  0
VERTEX
  8
0
  6
CONTINUOUS
 10
3.937560
 20
2.152040
  0
VERTEX
  8
0
  6
CONTINUOUS
 10
3.728120
 20
2.214080
  0
VERTEX
  8
0
  6
CONTINUOUS
 10
3.655520
 20
2.232560
  0
VERTEX
  8
0
  6
CONTINUOUS
 10
3.593920
 20
2.243120
  0
VERTEX
  8
0
  6
CONTINUOUS
 10
3.558720
 20
2.245760
  0
VERTEX
  8
0
  6
CONTINUOUS
 10
3.526600
 20
2.244440
  0
VERTEX
  8
0
  6
CONTINUOUS
 10
3.498000
 20
2.238720
  0
VERTEX
  8
0
  6
CONTINUOUS
 10
3.471600
 20
2.229040
  0
VERTEX
  8
0
  6
CONTINUOUS
 10
3.446520
 20
2.214960
  0
VERTEX
  8
0
  6
CONTINUOUS
 10
3.411760
 20
2.184600
  0
VERTEX
  8
0
  6
CONTINUOUS
 10
3.377000
 20
2.142800
  0
VERTEX
  8
0
  6
CONTINUOUS
 10
3.340920
 20
2.089120
  0
VERTEX
  8
0
  6
CONTINUOUS
 10
3.301320
 20
2.022680
  0
VERTEX
  8
0
  6
CONTINUOUS
 10
3.252480
 20
2.021360
  0
VERTEX
  8
0
  6
CONTINUOUS
 10
3.177240
 20
2.021800
  0
VERTEX
  8
0
  6
CONTINUOUS
 10
3.142480
 20
2.023120
  0
VERTEX
  8
0
  6
CONTINUOUS
 10
3.070320
 20
2.030600
  0
VERTEX
  8
0
  6
CONTINUOUS
 10
3.016640
 20
2.041160
  0
VERTEX
  8
0
  6
CONTINUOUS
 10
2.982320
 20
2.051720
  0
VERTEX
  8
0
  6
CONTINUOUS
 10
2.951080
 20
2.064480
  0
VERTEX
  8
0
  6
CONTINUOUS
 10
2.922480
 20
2.080760
  0
VERTEX
  8
0
  6
CONTINUOUS
 10
2.898720
 20
2.100560
  0
VERTEX
  8
0
  6
CONTINUOUS
 10
2.888160
 20
2.111560
  0
VERTEX
  8
0
  6
CONTINUOUS
 10
2.871880
 20
2.137080
  0
VERTEX
  8
0
  6
CONTINUOUS
 10
2.861760
 20
2.167000
  0
VERTEX
  8
0
  6
CONTINUOUS
 10
2.709520
 20
2.167000
  0
VERTEX
  8
0
  6
CONTINUOUS
 10
2.686640
 20
2.283160
  0
VERTEX
  8
0
  6
CONTINUOUS
 10
1.971200
 20
2.283160
  0
VERTEX
  8
0
  6
CONTINUOUS
 10
1.971200
 20
1.529880
  0
VERTEX
  8
0
  6
CONTINUOUS
 10
6.528720
 20
1.529880
  0
SEQEND
  8
0
  0
SOLID
  8
0
 62
    15
 10
4.151400
 20
3.512520
 11
4.149640
 21
4.252160
 12
4.151400
 22
3.507680
 13
4.149640
 23
4.246880
  0
POLYLINE
  8
0
  6
CONTINUOUS
 66
     1
 40
0.000000
 41
0.000000
  0
VERTEX
  8
0
  6
CONTINUOUS
 10
4.151400
 20
3.512520
  0
VERTEX
  8
0
  6
CONTINUOUS
 10
4.149640
 20
4.252160
  0
VERTEX
  8
0
  6
CONTINUOUS
 10
4.149640
 20
4.246880
  0
VERTEX
  8
0
  6
CONTINUOUS
 10
4.151400
 20
3.507680
  0
VERTEX
  8
0
  6
CONTINUOUS
 10
4.151400
 20
3.512520
  0
SEQEND
  8
0
  0
SOLID
  8
0
 62
    15
 10
1.872640
 20
2.958560
 11
1.870880
 21
3.698200
 12
1.872640
 22
3.711840
 13
1.870880
 23
4.451040
  0
POLYLINE
  8
0
  6
CONTINUOUS
 66
     1
 40
0.000000
 41
0.000000
  0
VERTEX
  8
0
  6
CONTINUOUS
 10
1.872640
 20
2.958560
  0
VERTEX
  8
0
  6
CONTINUOUS
 10
1.870880
 20
3.698200
  0
VERTEX
  8
0
  6
CONTINUOUS
 10
1.870880
 20
4.451040
  0
VERTEX
  8
0
  6
CONTINUOUS
 10
1.872640
 20
3.711840
  0
VERTEX
  8
0
  6
CONTINUOUS
 10
1.872640
 20
2.958560
  0
SEQEND
  8
0
  0
SOLID
  8
0
 62
    15
 10
2.588080
 20
3.711840
 11
2.586320
 21
4.451040
 12
2.610960
 22
3.595680
 13
2.609200
 23
4.335320
  0
POLYLINE
  8
0
  6
CONTINUOUS
 66
     1
 40
0.000000
 41
0.000000
  0
VERTEX
  8
0
  6
CONTINUOUS
 10
2.588080
 20
3.711840
  0
VERTEX
  8
0
  6
CONTINUOUS
 10
2.586320
 20
4.451040
  0
VERTEX
  8
0
  6
CONTINUOUS
 10
2.609200
 20
4.335320
  0
VERTEX
  8
0
  6
CONTINUOUS
 10
2.610960
 20
3.595680
  0
VERTEX
  8
0
  6
CONTINUOUS
 10
2.588080
 20
3.711840
  0
SEQEND
  8
0
  0
SOLID
  8
0
 62
    15
 10
2.610960
 20
3.595680
 11
2.609200
 21
4.335320
 12
2.763200
 22
3.595680
 13
2.761440
 23
4.335320
  0
POLYLINE
  8
0
  6
CONTINUOUS
 66
     1
 40
0.000000
 41
0.000000
  0
VERTEX
  8
0
  6
CONTINUOUS
 10
2.610960
 20
3.595680
  0
VERTEX
  8
0
  6
CONTINUOUS
 10
2.609200
 20
4.335320
  0
VERTEX
  8
0
  6
CONTINUOUS
 10
2.761440
 20
4.335320
  0
VERTEX
  8
0
  6
CONTINUOUS
 10
2.763200
 20
3.595680
  0
VERTEX
  8
0
  6
CONTINUOUS
 10
2.610960
 20
3.595680
  0
SEQEND
  8
0
  0
SOLID
  8
0
 62
    15
 10
2.763200
 20
3.595680
 11
2.761440
 21
4.335320
 12
2.773320
 22
3.565760
 13
2.771560
 23
4.305400
  0
POLYLINE
  8
0
  6
CONTINUOUS
 66
     1
 40
0.000000
 41
0.000000
  0
VERTEX
  8
0
  6
CONTINUOUS
 10
2.763200
 20
3.595680
  0
VERTEX
  8
0
  6
CONTINUOUS
 10
2.761440
 20
4.335320
  0
VERTEX
  8
0
  6
CONTINUOUS
 10
2.771560
 20
4.305400
  0
VERTEX
  8
0
  6
CONTINUOUS
 10
2.773320
 20
3.565760
  0
VERTEX
  8
0
  6
CONTINUOUS
 10
2.763200
 20
3.595680
  0
SEQEND
  8
0
  0
SOLID
  8
0
 62
    15
 10
2.773320
 20
3.565760
 11
2.771560
 21
4.305400
 12
2.789600
 22
3.540240
 13
2.787840
 23
4.279880
  0
POLYLINE
  8
0
  6
CONTINUOUS
 66
     1
 40
0.000000
 41
0.000000
  0
VERTEX
  8
0
  6
CONTINUOUS
 10
2.773320
 20
3.565760
  0
VERTEX
  8
0
  6
CONTINUOUS
 10
2.771560
 20
4.305400
  0
VERTEX
  8
0
  6
CONTINUOUS
 10
2.787840
 20
4.279880
  0
VERTEX
  8
0
  6
CONTINUOUS
 10
2.789600
 20
3.540240
  0
VERTEX
  8
0
  6
CONTINUOUS
 10
2.773320
 20
3.565760
  0
SEQEND
  8
0
  0
SOLID
  8
0
 62
    15
 10
2.789600
 20
3.540240
 11
2.787840
 21
4.279880
 12
2.811160
 22
3.518680
 13
2.809840
 23
4.258320
  0
POLYLINE
  8
0
  6
CONTINUOUS
 66
     1
 40
0.000000
 41
0.000000
  0
VERTEX
  8
0
  6
CONTINUOUS
 10
2.789600
 20
3.540240
  0
VERTEX
  8
0
  6
CONTINUOUS
 10
2.787840
 20
4.279880
  0
VERTEX
  8
0
  6
CONTINUOUS
 10
2.809840
 20
4.258320
  0
VERTEX
  8
0
  6
CONTINUOUS
 10
2.811160
 20
3.518680
  0
VERTEX
  8
0
  6
CONTINUOUS
 10
2.789600
 20
3.540240
  0
SEQEND
  8
0
  0
SOLID
  8
0
 62
    15
 10
2.811160
 20
3.518680
 11
2.809840
 21
4.258320
 12
2.837560
 22
3.500640
 13
2.836240
 23
4.240280
  0
POLYLINE
  8
0
  6
CONTINUOUS
 66
     1
 40
0.000000
 41
0.000000
  0
VERTEX
  8
0
  6
CONTINUOUS
 10
2.811160
 20
3.518680
  0
VERTEX
  8
0
  6
CONTINUOUS
 10
2.809840
 20
4.258320
  0
VERTEX
  8
0
  6
CONTINUOUS
 10
2.836240
 20
4.240280
  0
VERTEX
  8
0
  6
CONTINUOUS
 10
2.837560
 20
3.500640
  0
VERTEX
  8
0
  6
CONTINUOUS
 10
2.811160
 20
3.518680
  0
SEQEND
  8
0
  0
SOLID
  8
0
 62
    15
 10
2.837560
 20
3.500640
 11
2.836240
 21
4.240280
 12
2.867480
 22
3.486120
 13
2.866160
 23
4.225760
  0
POLYLINE
  8
0
  6
CONTINUOUS
 66
     1
 40
0.000000
 41
0.000000
  0
VERTEX
  8
0
  6
CONTINUOUS
 10
2.837560
 20
3.500640
  0
VERTEX
  8
0
  6
CONTINUOUS
 10
2.836240
 20
4.240280
  0
VERTEX
  8
0
  6
CONTINUOUS
 10
2.866160
 20
4.225760
  0
VERTEX
  8
0
  6
CONTINUOUS
 10
2.867480
 20
3.486120
  0
VERTEX
  8
0
  6
CONTINUOUS
 10
2.837560
 20
3.500640
  0
SEQEND
  8
0
  0
SOLID
  8
0
 62
    15
 10
2.867480
 20
3.486120
 11
2.866160
 21
4.225760
 12
2.900480
 22
3.474680
 13
2.898720
 23
4.214320
  0
POLYLINE
  8
0
  6
CONTINUOUS
 66
     1
 40
0.000000
 41
0.000000
  0
VERTEX
  8
0
  6
CONTINUOUS
 10
2.867480
 20
3.486120
  0
VERTEX
  8
0
  6
CONTINUOUS
 10
2.866160
 20
4.225760
  0
VERTEX
  8
0
  6
CONTINUOUS
 10
2.898720
 20
4.214320
  0
VERTEX
  8
0
  6
CONTINUOUS
 10
2.900480
 20
3.474680
  0
VERTEX
  8
0
  6
CONTINUOUS
 10
2.867480
 20
3.486120
  0
SEQEND
  8
0
  0
SOLID
  8
0
 62
    15
 10
2.900480
 20
3.474680
 11
2.898720
 21
4.214320
 12
2.971320
 22
3.459280
 13
2.970000
 23
4.198920
  0
POLYLINE
  8
0
  6
CONTINUOUS
 66
     1
 40
0.000000
 41
0.000000
  0
VERTEX
  8
0
  6
CONTINUOUS
 10
2.900480
 20
3.474680
  0
VERTEX
  8
0
  6
CONTINUOUS
 10
2.898720
 20
4.214320
  0
VERTEX
  8
0
  6
CONTINUOUS
 10
2.970000
 20
4.198920
  0
VERTEX
  8
0
  6
CONTINUOUS
 10
2.971320
 20
3.459280
  0
VERTEX
  8
0
  6
CONTINUOUS
 10
2.900480
 20
3.474680
  0
SEQEND
  8
0
  0
SOLID
  8
0
 62
    15
 10
2.971320
 20
3.459280
 11
2.970000
 21
4.198920
 12
3.043920
 22
3.451800
 13
3.042160
 23
4.191440
  0
POLYLINE
  8
0
  6
CONTINUOUS
 66
     1
 40
0.000000
 41
0.000000
  0
VERTEX
  8
0
  6
CONTINUOUS
 10
2.971320
 20
3.459280
  0
VERTEX
  8
0
  6
CONTINUOUS
 10
2.970000
 20
4.198920
  0
VERTEX
  8
0
  6
CONTINUOUS
 10
3.042160
 20
4.191440
  0
VERTEX
  8
0
  6
CONTINUOUS
 10
3.043920
 20
3.451800
  0
VERTEX
  8
0
  6
CONTINUOUS
 10
2.971320
 20
3.459280
  0
SEQEND
  8
0
  0
SOLID
  8
0
 62
    15
 10
3.043920
 20
3.451800
 11
3.042160
 21
4.191440
 12
3.110800
 22
3.450040
 13
3.109480
 23
4.189240
  0
POLYLINE
  8
0
  6
CONTINUOUS
 66
     1
 40
0.000000
 41
0.000000
  0
VERTEX
  8
0
  6
CONTINUOUS
 10
3.043920
 20
3.451800
  0
VERTEX
  8
0
  6
CONTINUOUS
 10
3.042160
 20
4.191440
  0
VERTEX
  8
0
  6
CONTINUOUS
 10
3.109480
 20
4.189240
  0
VERTEX
  8
0
  6
CONTINUOUS
 10
3.110800
 20
3.450040
  0
VERTEX
  8
0
  6
CONTINUOUS
 10
3.043920
 20
3.451800
  0
SEQEND
  8
0
  0
SOLID
  8
0
 62
    15
 10
3.110800
 20
3.450040
 11
3.109480
 21
4.189240
 12
3.140280
 22
3.450040
 13
3.138960
 23
4.189680
  0
POLYLINE
  8
0
  6
CONTINUOUS
 66
     1
 40
0.000000
 41
0.000000
  0
VERTEX
  8
0
  6
CONTINUOUS
 10
3.110800
 20
3.450040
  0
VERTEX
  8
0
  6
CONTINUOUS
 10
3.109480
 20
4.189240
  0
VERTEX
  8
0
  6
CONTINUOUS
 10
3.138960
 20
4.189680
  0
VERTEX
  8
0
  6
CONTINUOUS
 10
3.140280
 20
3.450040
  0
VERTEX
  8
0
  6
CONTINUOUS
 10
3.110800
 20
3.450040
  0
SEQEND
  8
0
  0
SOLID
  8
0
 62
    15
 10
3.140280
 20
3.450040
 11
3.138960
 21
4.189680
 12
3.166240
 22
3.450480
 13
3.164480
 23
4.190120
  0
POLYLINE
  8
0
  6
CONTINUOUS
 66
     1
 40
0.000000
 41
0.000000
  0
VERTEX
  8
0
  6
CONTINUOUS
 10
3.140280
 20
3.450040
  0
VERTEX
  8
0
  6
CONTINUOUS
 10
3.138960
 20
4.189680
  0
VERTEX
  8
0
  6
CONTINUOUS
 10
3.164480
 20
4.190120
  0
VERTEX
  8
0
  6
CONTINUOUS
 10
3.166240
 20
3.450480
  0
VERTEX
  8
0
  6
CONTINUOUS
 10
3.140280
 20
3.450040
  0
SEQEND
  8
0
  0
SOLID
  8
0
 62
    15
 10
3.166240
 20
3.450480
 11
3.164480
 21
4.190120
 12
3.186920
 22
3.450920
 13
3.185600
 23
4.190560
  0
POLYLINE
  8
0
  6
CONTINUOUS
 66
     1
 40
0.000000
 41
0.000000
  0
VERTEX
  8
0
  6
CONTINUOUS
 10
3.166240
 20
3.450480
  0
VERTEX
  8
0
  6
CONTINUOUS
 10
3.164480
 20
4.190120
  0
VERTEX
  8
0
  6
CONTINUOUS
 10
3.185600
 20
4.190560
  0
VERTEX
  8
0
  6
CONTINUOUS
 10
3.186920
 20
3.450920
  0
VERTEX
  8
0
  6
CONTINUOUS
 10
3.166240
 20
3.450480
  0
SEQEND
  8
0
  0
SOLID
  8
0
 62
    15
 10
3.186920
 20
3.450920
 11
3.185600
 21
4.190560
 12
3.202760
 22
3.451360
 13
3.201000
 23
4.191000
  0
POLYLINE
  8
0
  6
CONTINUOUS
 66
     1
 40
0.000000
 41
0.000000
  0
VERTEX
  8
0
  6
CONTINUOUS
 10
3.186920
 20
3.450920
  0
VERTEX
  8
0
  6
CONTINUOUS
 10
3.185600
 20
4.190560
  0
VERTEX
  8
0
  6
CONTINUOUS
 10
3.201000
 20
4.191000
  0
VERTEX
  8
0
  6
CONTINUOUS
 10
3.202760
 20
3.451360
  0
VERTEX
  8
0
  6
CONTINUOUS
 10
3.186920
 20
3.450920
  0
SEQEND
  8
0
  0
SOLID
  8
0
 62
    15
 10
3.202760
 20
3.451360
 11
3.201000
 21
4.191000
 12
3.229600
 22
3.497120
 13
3.228280
 23
4.236760
  0
POLYLINE
  8
0
  6
CONTINUOUS
 66
     1
 40
0.000000
 41
0.000000
  0
VERTEX
  8
0
  6
CONTINUOUS
 10
3.202760
 20
3.451360
  0
VERTEX
  8
0
  6
CONTINUOUS
 10
3.201000
 20
4.191000
  0
VERTEX
  8
0
  6
CONTINUOUS
 10
3.228280
 20
4.236760
  0
VERTEX
  8
0
  6
CONTINUOUS
 10
3.229600
 20
3.497120
  0
VERTEX
  8
0
  6
CONTINUOUS
 10
3.202760
 20
3.451360
  0
SEQEND
  8
0
  0
SOLID
  8
0
 62
    15
 10
3.229600
 20
3.497120
 11
3.228280
 21
4.236760
 12
3.254680
 22
3.537160
 13
3.253360
 23
4.276800
  0
POLYLINE
  8
0
  6
CONTINUOUS
 66
     1
 40
0.000000
 41
0.000000
  0
VERTEX
  8
0
  6
CONTINUOUS
 10
3.229600
 20
3.497120
  0
VERTEX
  8
0
  6
CONTINUOUS
 10
3.228280
 20
4.236760
  0
VERTEX
  8
0
  6
CONTINUOUS
 10
3.253360
 20
4.276800
  0
VERTEX
  8
0
  6
CONTINUOUS
 10
3.254680
 20
3.537160
  0
VERTEX
  8
0
  6
CONTINUOUS
 10
3.229600
 20
3.497120
  0
SEQEND
  8
0
  0
SOLID
  8
0
 62
    15
 10
3.254680
 20
3.537160
 11
3.253360
 21
4.276800
 12
3.278440
 22
3.571480
 13
3.276680
 23
4.311120
  0
POLYLINE
  8
0
  6
CONTINUOUS
 66
     1
 40
0.000000
 41
0.000000
  0
VERTEX
  8
0
  6
CONTINUOUS
 10
3.254680
 20
3.537160
  0
VERTEX
  8
0
  6
CONTINUOUS
 10
3.253360
 20
4.276800
  0
VERTEX
  8
0
  6
CONTINUOUS
 10
3.276680
 20
4.311120
  0
VERTEX
  8
0
  6
CONTINUOUS
 10
3.278440
 20
3.571480
  0
VERTEX
  8
0
  6
CONTINUOUS
 10
3.254680
 20
3.537160
  0
SEQEND
  8
0
  0
SOLID
  8
0
 62
    15
 10
3.278440
 20
3.571480
 11
3.276680
 21
4.311120
 12
3.301320
 22
3.600520
 13
3.300000
 23
4.340160
  0
POLYLINE
  8
0
  6
CONTINUOUS
 66
     1
 40
0.000000
 41
0.000000
  0
VERTEX
  8
0
  6
CONTINUOUS
 10
3.278440
 20
3.571480
  0
VERTEX
  8
0
  6
CONTINUOUS
 10
3.276680
 20
4.311120
  0
VERTEX
  8
0
  6
CONTINUOUS
 10
3.300000
 20
4.340160
  0
VERTEX
  8
0
  6
CONTINUOUS
 10
3.301320
 20
3.600520
  0
VERTEX
  8
0
  6
CONTINUOUS
 10
3.278440
 20
3.571480
  0
SEQEND
  8
0
  0
SOLID
  8
0
 62
    15
 10
3.301320
 20
3.600520
 11
3.300000
 21
4.340160
 12
3.324640
 22
3.624720
 13
3.322880
 23
4.363920
  0
POLYLINE
  8
0
  6
CONTINUOUS
 66
     1
 40
0.000000
 41
0.000000
  0
VERTEX
  8
0
  6
CONTINUOUS
 10
3.301320
 20
3.600520
  0
VERTEX
  8
0
  6
CONTINUOUS
 10
3.300000
 20
4.340160
  0
VERTEX
  8
0
  6
CONTINUOUS
 10
3.322880
 20
4.363920
  0
VERTEX
  8
0
  6
CONTINUOUS
 10
3.324640
 20
3.624720
  0
VERTEX
  8
0
  6
CONTINUOUS
 10
3.301320
 20
3.600520
  0
SEQEND
  8
0
  0
SOLID
  8
0
 62
    15
 10
3.324640
 20
3.624720
 11
3.322880
 21
4.363920
 12
3.347960
 22
3.643640
 13
3.346200
 23
4.383280
  0
POLYLINE
  8
0
  6
CONTINUOUS
 66
     1
 40
0.000000
 41
0.000000
  0
VERTEX
  8
0
  6
CONTINUOUS
 10
3.324640
 20
3.624720
  0
VERTEX
  8
0
  6
CONTINUOUS
 10
3.322880
 20
4.363920
  0
VERTEX
  8
0
  6
CONTINUOUS
 10
3.346200
 20
4.383280
  0
VERTEX
  8
0
  6
CONTINUOUS
 10
3.347960
 20
3.643640
  0
VERTEX
  8
0
  6
CONTINUOUS
 10
3.324640
 20
3.624720
  0
SEQEND
  8
0
  0
SOLID
  8
0
 62
    15
 10
3.347960
 20
3.643640
 11
3.346200
 21
4.383280
 12
3.372600
 22
3.657720
 13
3.371280
 23
4.397360
  0
POLYLINE
  8
0
  6
CONTINUOUS
 66
     1
 40
0.000000
 41
0.000000
  0
VERTEX
  8
0
  6
CONTINUOUS
 10
3.347960
 20
3.643640
  0
VERTEX
  8
0
  6
CONTINUOUS
 10
3.346200
 20
4.383280
  0
VERTEX
  8
0
  6
CONTINUOUS
 10
3.371280
 20
4.397360
  0
VERTEX
  8
0
  6
CONTINUOUS
 10
3.372600
 20
3.657720
  0
VERTEX
  8
0
  6
CONTINUOUS
 10
3.347960
 20
3.643640
  0
SEQEND
  8
0
  0
SOLID
  8
0
 62
    15
 10
3.372600
 20
3.657720
 11
3.371280
 21
4.397360
 12
3.399000
 22
3.667400
 13
3.397680
 23
4.407040
  0
POLYLINE
  8
0
  6
CONTINUOUS
 66
     1
 40
0.000000
 41
0.000000
  0
VERTEX
  8
0
  6
CONTINUOUS
 10
3.372600
 20
3.657720
  0
VERTEX
  8
0
  6
CONTINUOUS
 10
3.371280
 20
4.397360
  0
VERTEX
  8
0
  6
CONTINUOUS
 10
3.397680
 20
4.407040
  0
VERTEX
  8
0
  6
CONTINUOUS
 10
3.399000
 20
3.667400
  0
VERTEX
  8
0
  6
CONTINUOUS
 10
3.372600
 20
3.657720
  0
SEQEND
  8
0
  0
SOLID
  8
0
 62
    15
 10
3.399000
 20
3.667400
 11
3.397680
 21
4.407040
 12
3.428040
 22
3.673120
 13
3.426280
 23
4.412760
  0
POLYLINE
  8
0
  6
CONTINUOUS
 66
     1
 40
0.000000
 41
0.000000
  0
VERTEX
  8
0
  6
CONTINUOUS
 10
3.399000
 20
3.667400
  0
VERTEX
  8
0
  6
CONTINUOUS
 10
3.397680
 20
4.407040
  0
VERTEX
  8
0
  6
CONTINUOUS
 10
3.426280
 20
4.412760
  0
VERTEX
  8
0
  6
CONTINUOUS
 10
3.428040
 20
3.673120
  0
VERTEX
  8
0
  6
CONTINUOUS
 10
3.399000
 20
3.667400
  0
SEQEND
  8
0
  0
SOLID
  8
0
 62
    15
 10
3.428040
 20
3.673120
 11
3.426280
 21
4.412760
 12
3.459720
 22
3.674440
 13
3.457960
 23
4.414080
  0
POLYLINE
  8
0
  6
CONTINUOUS
 66
     1
 40
0.000000
 41
0.000000
  0
VERTEX
  8
0
  6
CONTINUOUS
 10
3.428040
 20
3.673120
  0
VERTEX
  8
0
  6
CONTINUOUS
 10
3.426280
 20
4.412760
  0
VERTEX
  8
0
  6
CONTINUOUS
 10
3.457960
 20
4.414080
  0
VERTEX
  8
0
  6
CONTINUOUS
 10
3.459720
 20
3.674440
  0
VERTEX
  8
0
  6
CONTINUOUS
 10
3.428040
 20
3.673120
  0
SEQEND
  8
0
  0
SOLID
  8
0
 62
    15
 10
3.459720
 20
3.674440
 11
3.457960
 21
4.414080
 12
3.495360
 22
3.671800
 13
3.493600
 23
4.411440
  0
POLYLINE
  8
0
  6
CONTINUOUS
 66
     1
 40
0.000000
 41
0.000000
  0
VERTEX
  8
0
  6
CONTINUOUS
 10
3.459720
 20
3.674440
  0
VERTEX
  8
0
  6
CONTINUOUS
 10
3.457960
 20
4.414080
  0
VERTEX
  8
0
  6
CONTINUOUS
 10
3.493600
 20
4.411440
  0
VERTEX
  8
0
  6
CONTINUOUS
 10
3.495360
 20
3.671800
  0
VERTEX
  8
0
  6
CONTINUOUS
 10
3.459720
 20
3.674440
  0
SEQEND
  8
0
  0
SOLID
  8
0
 62
    15
 10
3.495360
 20
3.671800
 11
3.493600
 21
4.411440
 12
3.534960
 22
3.665640
 13
3.533200
 23
4.405280
  0
POLYLINE
  8
0
  6
CONTINUOUS
 66
     1
 40
0.000000
 41
0.000000
  0
VERTEX
  8
0
  6
CONTINUOUS
 10
3.495360
 20
3.671800
  0
VERTEX
  8
0
  6
CONTINUOUS
 10
3.493600
 20
4.411440
  0
VERTEX
  8
0
  6
CONTINUOUS
 10
3.533200
 20
4.405280
  0
VERTEX
  8
0
  6
CONTINUOUS
 10
3.534960
 20
3.665640
  0
VERTEX
  8
0
  6
CONTINUOUS
 10
3.495360
 20
3.671800
  0
SEQEND
  8
0
  0
SOLID
  8
0
 62
    15
 10
3.534960
 20
3.665640
 11
3.533200
 21
4.405280
 12
3.579400
 22
3.655960
 13
3.577640
 23
4.395600
  0
POLYLINE
  8
0
  6
CONTINUOUS
 66
     1
 40
0.000000
 41
0.000000
  0
VERTEX
  8
0
  6
CONTINUOUS
 10
3.534960
 20
3.665640
  0
VERTEX
  8
0
  6
CONTINUOUS
 10
3.533200
 20
4.405280
  0
VERTEX
  8
0
  6
CONTINUOUS
 10
3.577640
 20
4.395600
  0
VERTEX
  8
0
  6
CONTINUOUS
 10
3.579400
 20
3.655960
  0
VERTEX
  8
0
  6
CONTINUOUS
 10
3.534960
 20
3.665640
  0
SEQEND
  8
0
  0
SOLID
  8
0
 62
    15
 10
3.579400
 20
3.655960
 11
3.577640
 21
4.395600
 12
3.629120
 22
3.642760
 13
3.627800
 23
4.382400
  0
POLYLINE
  8
0
  6
CONTINUOUS
 66
     1
 40
0.000000
 41
0.000000
  0
VERTEX
  8
0
  6
CONTINUOUS
 10
3.579400
 20
3.655960
  0
VERTEX
  8
0
  6
CONTINUOUS
 10
3.577640
 20
4.395600
  0
VERTEX
  8
0
  6
CONTINUOUS
 10
3.627800
 20
4.382400
  0
VERTEX
  8
0
  6
CONTINUOUS
 10
3.629120
 20
3.642760
  0
VERTEX
  8
0
  6
CONTINUOUS
 10
3.579400
 20
3.655960
  0
SEQEND
  8
0
  0
SOLID
  8
0
 62
    15
 10
3.629120
 20
3.642760
 11
3.627800
 21
4.382400
 12
3.685440
 22
3.626920
 13
3.683680
 23
4.366560
  0
POLYLINE
  8
0
  6
CONTINUOUS
 66
     1
 40
0.000000
 41
0.000000
  0
VERTEX
  8
0
  6
CONTINUOUS
 10
3.629120
 20
3.642760
  0
VERTEX
  8
0
  6
CONTINUOUS
 10
3.627800
 20
4.382400
  0
VERTEX
  8
0
  6
CONTINUOUS
 10
3.683680
 20
4.366560
  0
VERTEX
  8
0
  6
CONTINUOUS
 10
3.685440
 20
3.626920
  0
VERTEX
  8
0
  6
CONTINUOUS
 10
3.629120
 20
3.642760
  0
SEQEND
  8
0
  0
SOLID
  8
0
 62
    15
 10
3.685440
 20
3.626920
 11
3.683680
 21
4.366560
 12
3.747920
 22
3.608000
 13
3.746600
 23
4.347640
  0
POLYLINE
  8
0
  6
CONTINUOUS
 66
     1
 40
0.000000
 41
0.000000
  0
VERTEX
  8
0
  6
CONTINUOUS
 10
3.685440
 20
3.626920
  0
VERTEX
  8
0
  6
CONTINUOUS
 10
3.683680
 20
4.366560
  0
VERTEX
  8
0
  6
CONTINUOUS
 10
3.746600
 20
4.347640
  0
VERTEX
  8
0
  6
CONTINUOUS
 10
3.747920
 20
3.608000
  0
VERTEX
  8
0
  6
CONTINUOUS
 10
3.685440
 20
3.626920
  0
SEQEND
  8
0
  0
SOLID
  8
0
 62
    15
 10
3.747920
 20
3.608000
 11
3.746600
 21
4.347640
 12
3.810400
 22
3.589520
 13
3.808640
 23
4.329160
  0
POLYLINE
  8
0
  6
CONTINUOUS
 66
     1
 40
0.000000
 41
0.000000
  0
VERTEX
  8
0
  6
CONTINUOUS
 10
3.747920
 20
3.608000
  0
VERTEX
  8
0
  6
CONTINUOUS
 10
3.746600
 20
4.347640
  0
VERTEX
  8
0
  6
CONTINUOUS
 10
3.808640
 20
4.329160
  0
VERTEX
  8
0
  6
CONTINUOUS
 10
3.810400
 20
3.589520
  0
VERTEX
  8
0
  6
CONTINUOUS
 10
3.747920
 20
3.608000
  0
SEQEND
  8
0
  0
SOLID
  8
0
 62
    15
 10
3.810400
 20
3.589520
 11
3.808640
 21
4.329160
 12
3.864960
 22
3.573240
 13
3.863200
 23
4.312880
  0
POLYLINE
  8
0
  6
CONTINUOUS
 66
     1
 40
0.000000
 41
0.000000
  0
VERTEX
  8
0
  6
CONTINUOUS
 10
3.810400
 20
3.589520
  0
VERTEX
  8
0
  6
CONTINUOUS
 10
3.808640
 20
4.329160
  0
VERTEX
  8
0
  6
CONTINUOUS
 10
3.863200
 20
4.312880
  0
VERTEX
  8
0
  6
CONTINUOUS
 10
3.864960
 20
3.573240
  0
VERTEX
  8
0
  6
CONTINUOUS
 10
3.810400
 20
3.589520
  0
SEQEND
  8
0
  0
SOLID
  8
0
 62
    15
 10
3.864960
 20
3.573240
 11
3.863200
 21
4.312880
 12
3.912480
 22
3.559600
 13
3.910720
 23
4.299240
  0
POLYLINE
  8
0
  6
CONTINUOUS
 66
     1
 40
0.000000
 41
0.000000
  0
VERTEX
  8
0
  6
CONTINUOUS
 10
3.864960
 20
3.573240
  0
VERTEX
  8
0
  6
CONTINUOUS
 10
3.863200
 20
4.312880
  0
VERTEX
  8
0
  6
CONTINUOUS
 10
3.910720
 20
4.299240
  0
VERTEX
  8
0
  6
CONTINUOUS
 10
3.912480
 20
3.559600
  0
VERTEX
  8
0
  6
CONTINUOUS
 10
3.864960
 20
3.573240
  0
SEQEND
  8
0
  0
SOLID
  8
0
 62
    15
 10
3.912480
 20
3.559600
 11
3.910720
 21
4.299240
 12
3.953400
 22
3.548160
 13
3.952080
 23
4.287800
  0
POLYLINE
  8
0
  6
CONTINUOUS
 66
     1
 40
0.000000
 41
0.000000
  0
VERTEX
  8
0
  6
CONTINUOUS
 10
3.912480
 20
3.559600
  0
VERTEX
  8
0
  6
CONTINUOUS
 10
3.910720
 20
4.299240
  0
VERTEX
  8
0
  6
CONTINUOUS
 10
3.952080
 20
4.287800
  0
VERTEX
  8
0
  6
CONTINUOUS
 10
3.953400
 20
3.548160
  0
VERTEX
  8
0
  6
CONTINUOUS
 10
3.912480
 20
3.559600
  0
SEQEND
  8
0
  0
SOLID
  8
0
 62
    15
 10
3.953400
 20
3.548160
 11
3.952080
 21
4.287800
 12
3.988600
 22
3.538920
 13
3.987280
 23
4.278120
  0
POLYLINE
  8
0
  6
CONTINUOUS
 66
     1
 40
0.000000
 41
0.000000
  0
VERTEX
  8
0
  6
CONTINUOUS
 10
3.953400
 20
3.548160
  0
VERTEX
  8
0
  6
CONTINUOUS
 10
3.952080
 20
4.287800
  0
VERTEX
  8
0
  6
CONTINUOUS
 10
3.987280
 20
4.278120
  0
VERTEX
  8
0
  6
CONTINUOUS
 10
3.988600
 20
3.538920
  0
VERTEX
  8
0
  6
CONTINUOUS
 10
3.953400
 20
3.548160
  0
SEQEND
  8
0
  0
SOLID
  8
0
 62
    15
 10
3.988600
 20
3.538920
 11
3.987280
 21
4.278120
 12
4.018520
 22
3.531000
 13
4.017200
 23
4.270640
  0
POLYLINE
  8
0
  6
CONTINUOUS
 66
     1
 40
0.000000
 41
0.000000
  0
VERTEX
  8
0
  6
CONTINUOUS
 10
3.988600
 20
3.538920
  0
VERTEX
  8
0
  6
CONTINUOUS
 10
3.987280
 20
4.278120
  0
VERTEX
  8
0
  6
CONTINUOUS
 10
4.017200
 20
4.270640
  0
VERTEX
  8
0
  6
CONTINUOUS
 10
4.018520
 20
3.531000
  0
VERTEX
  8
0
  6
CONTINUOUS
 10
3.988600
 20
3.538920
  0
SEQEND
  8
0
  0
SOLID
  8
0
 62
    15
 10
4.018520
 20
3.531000
 11
4.017200
 21
4.270640
 12
4.043600
 22
3.525280
 13
4.042280
 23
4.264920
  0
POLYLINE
  8
0
  6
CONTINUOUS
 66
     1
 40
0.000000
 41
0.000000
  0
VERTEX
  8
0
  6
CONTINUOUS
 10
4.018520
 20
3.531000
  0
VERTEX
  8
0
  6
CONTINUOUS
 10
4.017200
 20
4.270640
  0
VERTEX
  8
0
  6
CONTINUOUS
 10
4.042280
 20
4.264920
  0
VERTEX
  8
0
  6
CONTINUOUS
 10
4.043600
 20
3.525280
  0
VERTEX
  8
0
  6
CONTINUOUS
 10
4.018520
 20
3.531000
  0
SEQEND
  8
0
  0
SOLID
  8
0
 62
    15
 10
4.043600
 20
3.525280
 11
4.042280
 21
4.264920
 12
4.064720
 22
3.520880
 13
4.062960
 23
4.260520
  0
POLYLINE
  8
0
  6
CONTINUOUS
 66
     1
 40
0.000000
 41
0.000000
  0
VERTEX
  8
0
  6
CONTINUOUS
 10
4.043600
 20
3.525280
  0
VERTEX
  8
0
  6
CONTINUOUS
 10
4.042280
 20
4.264920
  0
VERTEX
  8
0
  6
CONTINUOUS
 10
4.062960
 20
4.260520
  0
VERTEX
  8
0
  6
CONTINUOUS
 10
4.064720
 20
3.520880
  0
VERTEX
  8
0
  6
CONTINUOUS
 10
4.043600
 20
3.525280
  0
SEQEND
  8
0
  0
SOLID
  8
0
 62
    15
 10
4.064720
 20
3.520880
 11
4.062960
 21
4.260520
 12
4.096400
 22
3.515160
 13
4.094640
 23
4.254800
  0
POLYLINE
  8
0
  6
CONTINUOUS
 66
     1
 40
0.000000
 41
0.000000
  0
VERTEX
  8
0
  6
CONTINUOUS
 10
4.064720
 20
3.520880
  0
VERTEX
  8
0
  6
CONTINUOUS
 10
4.062960
 20
4.260520
  0
VERTEX
  8
0
  6
CONTINUOUS
 10
4.094640
 20
4.254800
  0
VERTEX
  8
0
  6
CONTINUOUS
 10
4.096400
 20
3.515160
  0
VERTEX
  8
0
  6
CONTINUOUS
 10
4.064720
 20
3.520880
  0
SEQEND
  8
0
  0
SOLID
  8
0
 62
    15
 10
4.096400
 20
3.515160
 11
4.094640
 21
4.254800
 12
4.118400
 22
3.513400
 13
4.116640
 23
4.252600
  0
POLYLINE
  8
0
  6
CONTINUOUS
 66
     1
 40
0.000000
 41
0.000000
  0
VERTEX
  8
0
  6
CONTINUOUS
 10
4.096400
 20
3.515160
  0
VERTEX
  8
0
  6
CONTINUOUS
 10
4.094640
 20
4.254800
  0
VERTEX
  8
0
  6
CONTINUOUS
 10
4.116640
 20
4.252600
  0
VERTEX
  8
0
  6
CONTINUOUS
 10
4.118400
 20
3.513400
  0
VERTEX
  8
0
  6
CONTINUOUS
 10
4.096400
 20
3.515160
  0
SEQEND
  8
0
  0
SOLID
  8
0
 62
    15
 10
4.118400
 20
3.513400
 11
4.116640
 21
4.252600
 12
4.127200
 22
3.512960
 13
4.125440
 23
4.252600
  0
POLYLINE
  8
0
  6
CONTINUOUS
 66
     1
 40
0.000000
 41
0.000000
  0
VERTEX
  8
0
  6
CONTINUOUS
 10
4.118400
 20
3.513400
  0
VERTEX
  8
0
  6
CONTINUOUS
 10
4.116640
 20
4.252600
  0
VERTEX
  8
0
  6
CONTINUOUS
 10
4.125440
 20
4.252600
  0
VERTEX
  8
0
  6
CONTINUOUS
 10
4.127200
 20
3.512960
  0
VERTEX
  8
0
  6
CONTINUOUS
 10
4.118400
 20
3.513400
  0
SEQEND
  8
0
  0
SOLID
  8
0
 62
    15
 10
4.127200
 20
3.512960
 11
4.125440
 21
4.252600
 12
4.143040
 22
3.512520
 13
4.141280
 23
4.252160
  0
POLYLINE
  8
0
  6
CONTINUOUS
 66
     1
 40
0.000000
 41
0.000000
  0
VERTEX
  8
0
  6
CONTINUOUS
 10
4.127200
 20
3.512960
  0
VERTEX
  8
0
  6
CONTINUOUS
 10
4.125440
 20
4.252600
  0
VERTEX
  8
0
  6
CONTINUOUS
 10
4.141280
 20
4.252160
  0
VERTEX
  8
0
  6
CONTINUOUS
 10
4.143040
 20
3.512520
  0
VERTEX
  8
0
  6
CONTINUOUS
 10
4.127200
 20
3.512960
  0
SEQEND
  8
0
  0
SOLID
  8
0
 62
    15
 10
4.143040
 20
3.512520
 11
4.141280
 21
4.252160
 12
4.151400
 22
3.512520
 13
4.149640
 23
4.252160
  0
POLYLINE
  8
0
  6
CONTINUOUS
 66
     1
 40
0.000000
 41
0.000000
  0
VERTEX
  8
0
  6
CONTINUOUS
 10
4.143040
 20
3.512520
  0
VERTEX
  8
0
  6
CONTINUOUS
 10
4.141280
 20
4.252160
  0
VERTEX
  8
0
  6
CONTINUOUS
 10
4.149640
 20
4.252160
  0
VERTEX
  8
0
  6
CONTINUOUS
 10
4.151400
 20
3.512520
  0
VERTEX
  8
0
  6
CONTINUOUS
 10
4.143040
 20
3.512520
  0
SEQEND
  8
0
  0
SOLID
  8
0
 62
    15
 10
1.872640
 20
3.711840
 11
1.870880
 21
4.451040
 12
2.588080
 22
3.711840
 13
2.586320
 23
4.451040
  0
POLYLINE
  8
0
  6
CONTINUOUS
 66
     1
 40
0.000000
 41
0.000000
  0
VERTEX
  8
0
  6
CONTINUOUS
 10
1.872640
 20
3.711840
  0
VERTEX
  8
0
  6
CONTINUOUS
 10
1.870880
 20
4.451040
  0
VERTEX
  8
0
  6
CONTINUOUS
 10
2.586320
 20
4.451040
  0
VERTEX
  8
0
  6
CONTINUOUS
 10
2.588080
 20
3.711840
  0
VERTEX
  8
0
  6
CONTINUOUS
 10
1.872640
 20
3.711840
  0
SEQEND
  8
0
  0
SOLID
  8
0
 62
    15
 10
4.151400
 20
3.507680
 11
4.149640
 21
4.246880
 12
4.159760
 22
3.507680
 13
4.158000
 23
4.247320
  0
POLYLINE
  8
0
  6
CONTINUOUS
 66
     1
 40
0.000000
 41
0.000000
  0
VERTEX
  8
0
  6
CONTINUOUS
 10
4.151400
 20
3.507680
  0
VERTEX
  8
0
  6
CONTINUOUS
 10
4.149640
 20
4.246880
  0
VERTEX
  8
0
  6
CONTINUOUS
 10
4.158000
 20
4.247320
  0
VERTEX
  8
0
  6
CONTINUOUS
 10
4.159760
 20
3.507680
  0
VERTEX
  8
0
  6
CONTINUOUS
 10
4.151400
 20
3.507680
  0
SEQEND
  8
0
  0
SOLID
  8
0
 62
    15
 10
4.159760
 20
3.507680
 11
4.158000
 21
4.247320
 12
4.175600
 22
3.507680
 13
4.173840
 23
4.247320
  0
POLYLINE
  8
0
  6
CONTINUOUS
 66
     1
 40
0.000000
 41
0.000000
  0
VERTEX
  8
0
  6
CONTINUOUS
 10
4.159760
 20
3.507680
  0
VERTEX
  8
0
  6
CONTINUOUS
 10
4.158000
 20
4.247320
  0
VERTEX
  8
0
  6
CONTINUOUS
 10
4.173840
 20
4.247320
  0
VERTEX
  8
0
  6
CONTINUOUS
 10
4.175600
 20
3.507680
  0
VERTEX
  8
0
  6
CONTINUOUS
 10
4.159760
 20
3.507680
  0
SEQEND
  8
0
  0
SOLID
  8
0
 62
    15
 10
4.175600
 20
3.507680
 11
4.173840
 21
4.247320
 12
4.184400
 22
3.508120
 13
4.182640
 23
4.247760
  0
POLYLINE
  8
0
  6
CONTINUOUS
 66
     1
 40
0.000000
 41
0.000000
  0
VERTEX
  8
0
  6
CONTINUOUS
 10
4.175600
 20
3.507680
  0
VERTEX
  8
0
  6
CONTINUOUS
 10
4.173840
 20
4.247320
  0
VERTEX
  8
0
  6
CONTINUOUS
 10
4.182640
 20
4.247760
  0
VERTEX
  8
0
  6
CONTINUOUS
 10
4.184400
 20
3.508120
  0
VERTEX
  8
0
  6
CONTINUOUS
 10
4.175600
 20
3.507680
  0
SEQEND
  8
0
  0
SOLID
  8
0
 62
    15
 10
4.184400
 20
3.508120
 11
4.182640
 21
4.247760
 12
4.205960
 22
3.510320
 13
4.204640
 23
4.249960
  0
POLYLINE
  8
0
  6
CONTINUOUS
 66
     1
 40
0.000000
 41
0.000000
  0
VERTEX
  8
0
  6
CONTINUOUS
 10
4.184400
 20
3.508120
  0
VERTEX
  8
0
  6
CONTINUOUS
 10
4.182640
 20
4.247760
  0
VERTEX
  8
0
  6
CONTINUOUS
 10
4.204640
 20
4.249960
  0
VERTEX
  8
0
  6
CONTINUOUS
 10
4.205960
 20
3.510320
  0
VERTEX
  8
0
  6
CONTINUOUS
 10
4.184400
 20
3.508120
  0
SEQEND
  8
0
  0
SOLID
  8
0
 62
    15
 10
4.205960
 20
3.510320
 11
4.204640
 21
4.249960
 12
4.237640
 22
3.515600
 13
4.236320
 23
4.255240
  0
POLYLINE
  8
0
  6
CONTINUOUS
 66
     1
 40
0.000000
 41
0.000000
  0
VERTEX
  8
0
  6
CONTINUOUS
 10
4.205960
 20
3.510320
  0
VERTEX
  8
0
  6
CONTINUOUS
 10
4.204640
 20
4.249960
  0
VERTEX
  8
0
  6
CONTINUOUS
 10
4.236320
 20
4.255240
  0
VERTEX
  8
0
  6
CONTINUOUS
 10
4.237640
 20
3.515600
  0
VERTEX
  8
0
  6
CONTINUOUS
 10
4.205960
 20
3.510320
  0
SEQEND
  8
0
  0
SOLID
  8
0
 62
    15
 10
4.237640
 20
3.515600
 11
4.236320
 21
4.255240
 12
4.258760
 22
3.520440
 13
4.257000
 23
4.259640
  0
POLYLINE
  8
0
  6
CONTINUOUS
 66
     1
 40
0.000000
 41
0.000000
  0
VERTEX
  8
0
  6
CONTINUOUS
 10
4.237640
 20
3.515600
  0
VERTEX
  8
0
  6
CONTINUOUS
 10
4.236320
 20
4.255240
  0
VERTEX
  8
0
  6
CONTINUOUS
 10
4.257000
 20
4.259640
  0
VERTEX
  8
0
  6
CONTINUOUS
 10
4.258760
 20
3.520440
  0
VERTEX
  8
0
  6
CONTINUOUS
 10
4.237640
 20
3.515600
  0
SEQEND
  8
0
  0
SOLID
  8
0
 62
    15
 10
4.258760
 20
3.520440
 11
4.257000
 21
4.259640
 12
4.283840
 22
3.526160
 13
4.282520
 23
4.265800
  0
POLYLINE
  8
0
  6
CONTINUOUS
 66
     1
 40
0.000000
 41
0.000000
  0
VERTEX
  8
0
  6
CONTINUOUS
 10
4.258760
 20
3.520440
  0
VERTEX
  8
0
  6
CONTINUOUS
 10
4.257000
 20
4.259640
  0
VERTEX
  8
0
  6
CONTINUOUS
 10
4.282520
 20
4.265800
  0
VERTEX
  8
0
  6
CONTINUOUS
 10
4.283840
 20
3.526160
  0
VERTEX
  8
0
  6
CONTINUOUS
 10
4.258760
 20
3.520440
  0
SEQEND
  8
0
  0
SOLID
  8
0
 62
    15
 10
4.283840
 20
3.526160
 11
4.282520
 21
4.265800
 12
4.313760
 22
3.533640
 13
4.312000
 23
4.273280
  0
POLYLINE
  8
0
  6
CONTINUOUS
 66
     1
 40
0.000000
 41
0.000000
  0
VERTEX
  8
0
  6
CONTINUOUS
 10
4.283840
 20
3.526160
  0
VERTEX
  8
0
  6
CONTINUOUS
 10
4.282520
 20
4.265800
  0
VERTEX
  8
0
  6
CONTINUOUS
 10
4.312000
 20
4.273280
  0
VERTEX
  8
0
  6
CONTINUOUS
 10
4.313760
 20
3.533640
  0
VERTEX
  8
0
  6
CONTINUOUS
 10
4.283840
 20
3.526160
  0
SEQEND
  8
0
  0
SOLID
  8
0
 62
    15
 10
4.313760
 20
3.533640
 11
4.312000
 21
4.273280
 12
4.348960
 22
3.542880
 13
4.347200
 23
4.282520
  0
POLYLINE
  8
0
  6
CONTINUOUS
 66
     1
 40
0.000000
 41
0.000000
  0
VERTEX
  8
0
  6
CONTINUOUS
 10
4.313760
 20
3.533640
  0
VERTEX
  8
0
  6
CONTINUOUS
 10
4.312000
 20
4.273280
  0
VERTEX
  8
0
  6
CONTINUOUS
 10
4.347200
 20
4.282520
  0
VERTEX
  8
0
  6
CONTINUOUS
 10
4.348960
 20
3.542880
  0
VERTEX
  8
0
  6
CONTINUOUS
 10
4.313760
 20
3.533640
  0
SEQEND
  8
0
  0
SOLID
  8
0
 62
    15
 10
4.348960
 20
3.542880
 11
4.347200
 21
4.282520
 12
4.389880
 22
3.554760
 13
4.388560
 23
4.293960
  0
POLYLINE
  8
0
  6
CONTINUOUS
 66
     1
 40
0.000000
 41
0.000000
  0
VERTEX
  8
0
  6
CONTINUOUS
 10
4.348960
 20
3.542880
  0
VERTEX
  8
0
  6
CONTINUOUS
 10
4.347200
 20
4.282520
  0
VERTEX
  8
0
  6
CONTINUOUS
 10
4.388560
 20
4.293960
  0
VERTEX
  8
0
  6
CONTINUOUS
 10
4.389880
 20
3.554760
  0
VERTEX
  8
0
  6
CONTINUOUS
 10
4.348960
 20
3.542880
  0
SEQEND
  8
0
  0
SOLID
  8
0
 62
    15
 10
4.389880
 20
3.554760
 11
4.388560
 21
4.293960
 12
4.437400
 22
3.568400
 13
4.436080
 23
4.307600
  0
POLYLINE
  8
0
  6
CONTINUOUS
 66
     1
 40
0.000000
 41
0.000000
  0
VERTEX
  8
0
  6
CONTINUOUS
 10
4.389880
 20
3.554760
  0
VERTEX
  8
0
  6
CONTINUOUS
 10
4.388560
 20
4.293960
  0
VERTEX
  8
0
  6
CONTINUOUS
 10
4.436080
 20
4.307600
  0
VERTEX
  8
0
  6
CONTINUOUS
 10
4.437400
 20
3.568400
  0
VERTEX
  8
0
  6
CONTINUOUS
 10
4.389880
 20
3.554760
  0
SEQEND
  8
0
  0
SOLID
  8
0
 62
    15
 10
4.437400
 20
3.568400
 11
4.436080
 21
4.307600
 12
4.492400
 22
3.584240
 13
4.490640
 23
4.323880
  0
POLYLINE
  8
0
  6
CONTINUOUS
 66
     1
 40
0.000000
 41
0.000000
  0
VERTEX
  8
0
  6
CONTINUOUS
 10
4.437400
 20
3.568400
  0
VERTEX
  8
0
  6
CONTINUOUS
 10
4.436080
 20
4.307600
  0
VERTEX
  8
0
  6
CONTINUOUS
 10
4.490640
 20
4.323880
  0
VERTEX
  8
0
  6
CONTINUOUS
 10
4.492400
 20
3.584240
  0
VERTEX
  8
0
  6
CONTINUOUS
 10
4.437400
 20
3.568400
  0
SEQEND
  8
0
  0
SOLID
  8
0
 62
    15
 10
4.492400
 20
3.584240
 11
4.490640
 21
4.323880
 12
4.554440
 22
3.603160
 13
4.553120
 23
4.342800
  0
POLYLINE
  8
0
  6
CONTINUOUS
 66
     1
 40
0.000000
 41
0.000000
  0
VERTEX
  8
0
  6
CONTINUOUS
 10
4.492400
 20
3.584240
  0
VERTEX
  8
0
  6
CONTINUOUS
 10
4.490640
 20
4.323880
  0
VERTEX
  8
0
  6
CONTINUOUS
 10
4.553120
 20
4.342800
  0
VERTEX
  8
0
  6
CONTINUOUS
 10
4.554440
 20
3.603160
  0
VERTEX
  8
0
  6
CONTINUOUS
 10
4.492400
 20
3.584240
  0
SEQEND
  8
0
  0
SOLID
  8
0
 62
    15
 10
4.554440
 20
3.603160
 11
4.553120
 21
4.342800
 12
4.617360
 22
3.622080
 13
4.615600
 23
4.361720
  0
POLYLINE
  8
0
  6
CONTINUOUS
 66
     1
 40
0.000000
 41
0.000000
  0
VERTEX
  8
0
  6
CONTINUOUS
 10
4.554440
 20
3.603160
  0
VERTEX
  8
0
  6
CONTINUOUS
 10
4.553120
 20
4.342800
  0
VERTEX
  8
0
  6
CONTINUOUS
 10
4.615600
 20
4.361720
  0
VERTEX
  8
0
  6
CONTINUOUS
 10
4.617360
 20
3.622080
  0
VERTEX
  8
0
  6
CONTINUOUS
 10
4.554440
 20
3.603160
  0
SEQEND
  8
0
  0
SOLID
  8
0
 62
    15
 10
4.617360
 20
3.622080
 11
4.615600
 21
4.361720
 12
4.673240
 22
3.637920
 13
4.671480
 23
4.377560
  0
POLYLINE
  8
0
  6
CONTINUOUS
 66
     1
 40
0.000000
 41
0.000000
  0
VERTEX
  8
0
  6
CONTINUOUS
 10
4.617360
 20
3.622080
  0
VERTEX
  8
0
  6
CONTINUOUS
 10
4.615600
 20
4.361720
  0
VERTEX
  8
0
  6
CONTINUOUS
 10
4.671480
 20
4.377560
  0
VERTEX
  8
0
  6
CONTINUOUS
 10
4.673240
 20
3.637920
  0
VERTEX
  8
0
  6
CONTINUOUS
 10
4.617360
 20
3.622080
  0
SEQEND
  8
0
  0
SOLID
  8
0
 62
    15
 10
4.673240
 20
3.637920
 11
4.671480
 21
4.377560
 12
4.723400
 22
3.651120
 13
4.721640
 23
4.390320
  0
POLYLINE
  8
0
  6
CONTINUOUS
 66
     1
 40
0.000000
 41
0.000000
  0
VERTEX
  8
0
  6
CONTINUOUS
 10
4.673240
 20
3.637920
  0
VERTEX
  8
0
  6
CONTINUOUS
 10
4.671480
 20
4.377560
  0
VERTEX
  8
0
  6
CONTINUOUS
 10
4.721640
 20
4.390320
  0
VERTEX
  8
0
  6
CONTINUOUS
 10
4.723400
 20
3.651120
  0
VERTEX
  8
0
  6
CONTINUOUS
 10
4.673240
 20
3.637920
  0
SEQEND
  8
0
  0
SOLID
  8
0
 62
    15
 10
4.723400
 20
3.651120
 11
4.721640
 21
4.390320
 12
4.767840
 22
3.660800
 13
4.766080
 23
4.400000
  0
POLYLINE
  8
0
  6
CONTINUOUS
 66
     1
 40
0.000000
 41
0.000000
  0
VERTEX
  8
0
  6
CONTINUOUS
 10
4.723400
 20
3.651120
  0
VERTEX
  8
0
  6
CONTINUOUS
 10
4.721640
 20
4.390320
  0
VERTEX
  8
0
  6
CONTINUOUS
 10
4.766080
 20
4.400000
  0
VERTEX
  8
0
  6
CONTINUOUS
 10
4.767840
 20
3.660800
  0
VERTEX
  8
0
  6
CONTINUOUS
 10
4.723400
 20
3.651120
  0
SEQEND
  8
0
  0
SOLID
  8
0
 62
    15
 10
4.767840
 20
3.660800
 11
4.766080
 21
4.400000
 12
4.807440
 22
3.666960
 13
4.805680
 23
4.406600
  0
POLYLINE
  8
0
  6
CONTINUOUS
 66
     1
 40
0.000000
 41
0.000000
  0
VERTEX
  8
0
  6
CONTINUOUS
 10
4.767840
 20
3.660800
  0
VERTEX
  8
0
  6
CONTINUOUS
 10
4.766080
 20
4.400000
  0
VERTEX
  8
0
  6
CONTINUOUS
 10
4.805680
 20
4.406600
  0
VERTEX
  8
0
  6
CONTINUOUS
 10
4.807440
 20
3.666960
  0
VERTEX
  8
0
  6
CONTINUOUS
 10
4.767840
 20
3.660800
  0
SEQEND
  8
0
  0
SOLID
  8
0
 62
    15
 10
4.807440
 20
3.666960
 11
4.805680
 21
4.406600
 12
4.842640
 22
3.669160
 13
4.841320
 23
4.408800
  0
POLYLINE
  8
0
  6
CONTINUOUS
 66
     1
 40
0.000000
 41
0.000000
  0
VERTEX
  8
0
  6
CONTINUOUS
 10
4.807440
 20
3.666960
  0
VERTEX
  8
0
  6
CONTINUOUS
 10
4.805680
 20
4.406600
  0
VERTEX
  8
0
  6
CONTINUOUS
 10
4.841320
 20
4.408800
  0
VERTEX
  8
0
  6
CONTINUOUS
 10
4.842640
 20
3.669160
  0
VERTEX
  8
0
  6
CONTINUOUS
 10
4.807440
 20
3.666960
  0
SEQEND
  8
0
  0
SOLID
  8
0
 62
    15
 10
4.842640
 20
3.669160
 11
4.841320
 21
4.408800
 12
4.874760
 22
3.667840
 13
4.873000
 23
4.407480
  0
POLYLINE
  8
0
  6
CONTINUOUS
 66
     1
 40
0.000000
 41
0.000000
  0
VERTEX
  8
0
  6
CONTINUOUS
 10
4.842640
 20
3.669160
  0
VERTEX
  8
0
  6
CONTINUOUS
 10
4.841320
 20
4.408800
  0
VERTEX
  8
0
  6
CONTINUOUS
 10
4.873000
 20
4.407480
  0
VERTEX
  8
0
  6
CONTINUOUS
 10
4.874760
 20
3.667840
  0
VERTEX
  8
0
  6
CONTINUOUS
 10
4.842640
 20
3.669160
  0
SEQEND
  8
0
  0
SOLID
  8
0
 62
    15
 10
4.874760
 20
3.667840
 11
4.873000
 21
4.407480
 12
4.903360
 22
3.662560
 13
4.902040
 23
4.402200
  0
POLYLINE
  8
0
  6
CONTINUOUS
 66
     1
 40
0.000000
 41
0.000000
  0
VERTEX
  8
0
  6
CONTINUOUS
 10
4.874760
 20
3.667840
  0
VERTEX
  8
0
  6
CONTINUOUS
 10
4.873000
 20
4.407480
  0
VERTEX
  8
0
  6
CONTINUOUS
 10
4.902040
 20
4.402200
  0
VERTEX
  8
0
  6
CONTINUOUS
 10
4.903360
 20
3.662560
  0
VERTEX
  8
0
  6
CONTINUOUS
 10
4.874760
 20
3.667840
  0
SEQEND
  8
0
  0
SOLID
  8
0
 62
    15
 10
4.903360
 20
3.662560
 11
4.902040
 21
4.402200
 12
4.929760
 22
3.652880
 13
4.928440
 23
4.392520
  0
POLYLINE
  8
0
  6
CONTINUOUS
 66
     1
 40
0.000000
 41
0.000000
  0
VERTEX
  8
0
  6
CONTINUOUS
 10
4.903360
 20
3.662560
  0
VERTEX
  8
0
  6
CONTINUOUS
 10
4.902040
 20
4.402200
  0
VERTEX
  8
0
  6
CONTINUOUS
 10
4.928440
 20
4.392520
  0
VERTEX
  8
0
  6
CONTINUOUS
 10
4.929760
 20
3.652880
  0
VERTEX
  8
0
  6
CONTINUOUS
 10
4.903360
 20
3.662560
  0
SEQEND
  8
0
  0
SOLID
  8
0
 62
    15
 10
4.929760
 20
3.652880
 11
4.928440
 21
4.392520
 12
4.954400
 22
3.638360
 13
4.953080
 23
4.378000
  0
POLYLINE
  8
0
  6
CONTINUOUS
 66
     1
 40
0.000000
 41
0.000000
  0
VERTEX
  8
0
  6
CONTINUOUS
 10
4.929760
 20
3.652880
  0
VERTEX
  8
0
  6
CONTINUOUS
 10
4.928440
 20
4.392520
  0
VERTEX
  8
0
  6
CONTINUOUS
 10
4.953080
 20
4.378000
  0
VERTEX
  8
0
  6
CONTINUOUS
 10
4.954400
 20
3.638360
  0
VERTEX
  8
0
  6
CONTINUOUS
 10
4.929760
 20
3.652880
  0
SEQEND
  8
0
  0
SOLID
  8
0
 62
    15
 10
4.954400
 20
3.638360
 11
4.953080
 21
4.378000
 12
4.978160
 22
3.619440
 13
4.976400
 23
4.359080
  0
POLYLINE
  8
0
  6
CONTINUOUS
 66
     1
 40
0.000000
 41
0.000000
  0
VERTEX
  8
0
  6
CONTINUOUS
 10
4.954400
 20
3.638360
  0
VERTEX
  8
0
  6
CONTINUOUS
 10
4.953080
 20
4.378000
  0
VERTEX
  8
0
  6
CONTINUOUS
 10
4.976400
 20
4.359080
  0
VERTEX
  8
0
  6
CONTINUOUS
 10
4.978160
 20
3.619440
  0
VERTEX
  8
0
  6
CONTINUOUS
 10
4.954400
 20
3.638360
  0
SEQEND
  8
0
  0
SOLID
  8
0
 62
    15
 10
4.978160
 20
3.619440
 11
4.976400
 21
4.359080
 12
5.001040
 22
3.595680
 13
4.999280
 23
4.335320
  0
POLYLINE
  8
0
  6
CONTINUOUS
 66
     1
 40
0.000000
 41
0.000000
  0
VERTEX
  8
0
  6
CONTINUOUS
 10
4.978160
 20
3.619440
  0
VERTEX
  8
0
  6
CONTINUOUS
 10
4.976400
 20
4.359080
  0
VERTEX
  8
0
  6
CONTINUOUS
 10
4.999280
 20
4.335320
  0
VERTEX
  8
0
  6
CONTINUOUS
 10
5.001040
 20
3.595680
  0
VERTEX
  8
0
  6
CONTINUOUS
 10
4.978160
 20
3.619440
  0
SEQEND
  8
0
  0
SOLID
  8
0
 62
    15
 10
5.001040
 20
3.595680
 11
4.999280
 21
4.335320
 12
5.023920
 22
3.566640
 13
5.022600
 23
4.306280
  0
POLYLINE
  8
0
  6
CONTINUOUS
 66
     1
 40
0.000000
 41
0.000000
  0
VERTEX
  8
0
  6
CONTINUOUS
 10
5.001040
 20
3.595680
  0
VERTEX
  8
0
  6
CONTINUOUS
 10
4.999280
 20
4.335320
  0
VERTEX
  8
0
  6
CONTINUOUS
 10
5.022600
 20
4.306280
  0
VERTEX
  8
0
  6
CONTINUOUS
 10
5.023920
 20
3.566640
  0
VERTEX
  8
0
  6
CONTINUOUS
 10
5.001040
 20
3.595680
  0
SEQEND
  8
0
  0
SOLID
  8
0
 62
    15
 10
5.023920
 20
3.566640
 11
5.022600
 21
4.306280
 12
5.047680
 22
3.532320
 13
5.046360
 23
4.271520
  0
POLYLINE
  8
0
  6
CONTINUOUS
 66
     1
 40
0.000000
 41
0.000000
  0
VERTEX
  8
0
  6
CONTINUOUS
 10
5.023920
 20
3.566640
  0
VERTEX
  8
0
  6
CONTINUOUS
 10
5.022600
 20
4.306280
  0
VERTEX
  8
0
  6
CONTINUOUS
 10
5.046360
 20
4.271520
  0
VERTEX
  8
0
  6
CONTINUOUS
 10
5.047680
 20
3.532320
  0
VERTEX
  8
0
  6
CONTINUOUS
 10
5.023920
 20
3.566640
  0
SEQEND
  8
0
  0
SOLID
  8
0
 62
    15
 10
5.047680
 20
3.532320
 11
5.046360
 21
4.271520
 12
5.072760
 22
3.492280
 13
5.071440
 23
4.231480
  0
POLYLINE
  8
0
  6
CONTINUOUS
 66
     1
 40
0.000000
 41
0.000000
  0
VERTEX
  8
0
  6
CONTINUOUS
 10
5.047680
 20
3.532320
  0
VERTEX
  8
0
  6
CONTINUOUS
 10
5.046360
 20
4.271520
  0
VERTEX
  8
0
  6
CONTINUOUS
 10
5.071440
 20
4.231480
  0
VERTEX
  8
0
  6
CONTINUOUS
 10
5.072760
 20
3.492280
  0
VERTEX
  8
0
  6
CONTINUOUS
 10
5.047680
 20
3.532320
  0
SEQEND
  8
0
  0
SOLID
  8
0
 62
    15
 10
5.072760
 20
3.492280
 11
5.071440
 21
4.231480
 12
5.099600
 22
3.446520
 13
5.098280
 23
4.185720
  0
POLYLINE
  8
0
  6
CONTINUOUS
 66
     1
 40
0.000000
 41
0.000000
  0
VERTEX
  8
0
  6
CONTINUOUS
 10
5.072760
 20
3.492280
  0
VERTEX
  8
0
  6
CONTINUOUS
 10
5.071440
 20
4.231480
  0
VERTEX
  8
0
  6
CONTINUOUS
 10
5.098280
 20
4.185720
  0
VERTEX
  8
0
  6
CONTINUOUS
 10
5.099600
 20
3.446520
  0
VERTEX
  8
0
  6
CONTINUOUS
 10
5.072760
 20
3.492280
  0
SEQEND
  8
0
  0
SOLID
  8
0
 62
    15
 10
5.099600
 20
3.446520
 11
5.098280
 21
4.185720
 12
5.115440
 22
3.446080
 13
5.113680
 23
4.185720
  0
POLYLINE
  8
0
  6
CONTINUOUS
 66
     1
 40
0.000000
 41
0.000000
  0
VERTEX
  8
0
  6
CONTINUOUS
 10
5.099600
 20
3.446520
  0
VERTEX
  8
0
  6
CONTINUOUS
 10
5.098280
 20
4.185720
  0
VERTEX
  8
0
  6
CONTINUOUS
 10
5.113680
 20
4.185720
  0
VERTEX
  8
0
  6
CONTINUOUS
 10
5.115440
 20
3.446080
  0
VERTEX
  8
0
  6
CONTINUOUS
 10
5.099600
 20
3.446520
  0
SEQEND
  8
0
  0
SOLID
  8
0
 62
    15
 10
5.115440
 20
3.446080
 11
5.113680
 21
4.185720
 12
5.136120
 22
3.445640
 13
5.134800
 23
4.185280
  0
POLYLINE
  8
0
  6
CONTINUOUS
 66
     1
 40
0.000000
 41
0.000000
  0
VERTEX
  8
0
  6
CONTINUOUS
 10
5.115440
 20
3.446080
  0
VERTEX
  8
0
  6
CONTINUOUS
 10
5.113680
 20
4.185720
  0
VERTEX
  8
0
  6
CONTINUOUS
 10
5.134800
 20
4.185280
  0
VERTEX
  8
0
  6
CONTINUOUS
 10
5.136120
 20
3.445640
  0
VERTEX
  8
0
  6
CONTINUOUS
 10
5.115440
 20
3.446080
  0
SEQEND
  8
0
  0
SOLID
  8
0
 62
    15
 10
5.136120
 20
3.445640
 11
5.134800
 21
4.185280
 12
5.162080
 22
3.445200
 13
5.160320
 23
4.184840
  0
POLYLINE
  8
0
  6
CONTINUOUS
 66
     1
 40
0.000000
 41
0.000000
  0
VERTEX
  8
0
  6
CONTINUOUS
 10
5.136120
 20
3.445640
  0
VERTEX
  8
0
  6
CONTINUOUS
 10
5.134800
 20
4.185280
  0
VERTEX
  8
0
  6
CONTINUOUS
 10
5.160320
 20
4.184840
  0
VERTEX
  8
0
  6
CONTINUOUS
 10
5.162080
 20
3.445200
  0
VERTEX
  8
0
  6
CONTINUOUS
 10
5.136120
 20
3.445640
  0
SEQEND
  8
0
  0
SOLID
  8
0
 62
    15
 10
5.162080
 20
3.445200
 11
5.160320
 21
4.184840
 12
5.191560
 22
3.444760
 13
5.189800
 23
4.184400
  0
POLYLINE
  8
0
  6
CONTINUOUS
 66
     1
 40
0.000000
 41
0.000000
  0
VERTEX
  8
0
  6
CONTINUOUS
 10
5.162080
 20
3.445200
  0
VERTEX
  8
0
  6
CONTINUOUS
 10
5.160320
 20
4.184840
  0
VERTEX
  8
0
  6
CONTINUOUS
 10
5.189800
 20
4.184400
  0
VERTEX
  8
0
  6
CONTINUOUS
 10
5.191560
 20
3.444760
  0
VERTEX
  8
0
  6
CONTINUOUS
 10
5.162080
 20
3.445200
  0
SEQEND
  8
0
  0
SOLID
  8
0
 62
    15
 10
5.191560
 20
3.444760
 11
5.189800
 21
4.184400
 12
5.258440
 22
3.446960
 13
5.257120
 23
4.186600
  0
POLYLINE
  8
0
  6
CONTINUOUS
 66
     1
 40
0.000000
 41
0.000000
  0
VERTEX
  8
0
  6
CONTINUOUS
 10
5.191560
 20
3.444760
  0
VERTEX
  8
0
  6
CONTINUOUS
 10
5.189800
 20
4.184400
  0
VERTEX
  8
0
  6
CONTINUOUS
 10
5.257120
 20
4.186600
  0
VERTEX
  8
0
  6
CONTINUOUS
 10
5.258440
 20
3.446960
  0
VERTEX
  8
0
  6
CONTINUOUS
 10
5.191560
 20
3.444760
  0
SEQEND
  8
0
  0
SOLID
  8
0
 62
    15
 10
5.258440
 20
3.446960
 11
5.257120
 21
4.186600
 12
5.331040
 22
3.454440
 13
5.329280
 23
4.193640
  0
POLYLINE
  8
0
  6
CONTINUOUS
 66
     1
 40
0.000000
 41
0.000000
  0
VERTEX
  8
0
  6
CONTINUOUS
 10
5.258440
 20
3.446960
  0
VERTEX
  8
0
  6
CONTINUOUS
 10
5.257120
 20
4.186600
  0
VERTEX
  8
0
  6
CONTINUOUS
 10
5.329280
 20
4.193640
  0
VERTEX
  8
0
  6
CONTINUOUS
 10
5.331040
 20
3.454440
  0
VERTEX
  8
0
  6
CONTINUOUS
 10
5.258440
 20
3.446960
  0
SEQEND
  8
0
  0
SOLID
  8
0
 62
    15
 10
5.331040
 20
3.454440
 11
5.329280
 21
4.193640
 12
5.401880
 22
3.469840
 13
5.400560
 23
4.209480
  0
POLYLINE
  8
0
  6
CONTINUOUS
 66
     1
 40
0.000000
 41
0.000000
  0
VERTEX
  8
0
  6
CONTINUOUS
 10
5.331040
 20
3.454440
  0
VERTEX
  8
0
  6
CONTINUOUS
 10
5.329280
 20
4.193640
  0
VERTEX
  8
0
  6
CONTINUOUS
 10
5.400560
 20
4.209480
  0
VERTEX
  8
0
  6
CONTINUOUS
 10
5.401880
 20
3.469840
  0
VERTEX
  8
0
  6
CONTINUOUS
 10
5.331040
 20
3.454440
  0
SEQEND
  8
0
  0
SOLID
  8
0
 62
    15
 10
5.401880
 20
3.469840
 11
5.400560
 21
4.209480
 12
5.434880
 22
3.481280
 13
5.433120
 23
4.220920
  0
POLYLINE
  8
0
  6
CONTINUOUS
 66
     1
 40
0.000000
 41
0.000000
  0
VERTEX
  8
0
  6
CONTINUOUS
 10
5.401880
 20
3.469840
  0
VERTEX
  8
0
  6
CONTINUOUS
 10
5.400560
 20
4.209480
  0
VERTEX
  8
0
  6
CONTINUOUS
 10
5.433120
 20
4.220920
  0
VERTEX
  8
0
  6
CONTINUOUS
 10
5.434880
 20
3.481280
  0
VERTEX
  8
0
  6
CONTINUOUS
 10
5.401880
 20
3.469840
  0
SEQEND
  8
0
  0
SOLID
  8
0
 62
    15
 10
5.434880
 20
3.481280
 11
5.433120
 21
4.220920
 12
5.464800
 22
3.495800
 13
5.463040
 23
4.235440
  0
POLYLINE
  8
0
  6
CONTINUOUS
 66
     1
 40
0.000000
 41
0.000000
  0
VERTEX
  8
0
  6
CONTINUOUS
 10
5.434880
 20
3.481280
  0
VERTEX
  8
0
  6
CONTINUOUS
 10
5.433120
 20
4.220920
  0
VERTEX
  8
0
  6
CONTINUOUS
 10
5.463040
 20
4.235440
  0
VERTEX
  8
0
  6
CONTINUOUS
 10
5.464800
 20
3.495800
  0
VERTEX
  8
0
  6
CONTINUOUS
 10
5.434880
 20
3.481280
  0
SEQEND
  8
0
  0
SOLID
  8
0
 62
    15
 10
5.464800
 20
3.495800
 11
5.463040
 21
4.235440
 12
5.491200
 22
3.513840
 13
5.489440
 23
4.253480
  0
POLYLINE
  8
0
  6
CONTINUOUS
 66
     1
 40
0.000000
 41
0.000000
  0
VERTEX
  8
0
  6
CONTINUOUS
 10
5.464800
 20
3.495800
  0
VERTEX
  8
0
  6
CONTINUOUS
 10
5.463040
 20
4.235440
  0
VERTEX
  8
0
  6
CONTINUOUS
 10
5.489440
 20
4.253480
  0
VERTEX
  8
0
  6
CONTINUOUS
 10
5.491200
 20
3.513840
  0
VERTEX
  8
0
  6
CONTINUOUS
 10
5.464800
 20
3.495800
  0
SEQEND
  8
0
  0
SOLID
  8
0
 62
    15
 10
5.491200
 20
3.513840
 11
5.489440
 21
4.253480
 12
5.512760
 22
3.535400
 13
5.511440
 23
4.275040
  0
POLYLINE
  8
0
  6
CONTINUOUS
 66
     1
 40
0.000000
 41
0.000000
  0
VERTEX
  8
0
  6
CONTINUOUS
 10
5.491200
 20
3.513840
  0
VERTEX
  8
0
  6
CONTINUOUS
 10
5.489440
 20
4.253480
  0
VERTEX
  8
0
  6
CONTINUOUS
 10
5.511440
 20
4.275040
  0
VERTEX
  8
0
  6
CONTINUOUS
 10
5.512760
 20
3.535400
  0
VERTEX
  8
0
  6
CONTINUOUS
 10
5.491200
 20
3.513840
  0
SEQEND
  8
0
  0
SOLID
  8
0
 62
    15
 10
5.512760
 20
3.535400
 11
5.511440
 21
4.275040
 12
5.529040
 22
3.560920
 13
5.527720
 23
4.300560
  0
POLYLINE
  8
0
  6
CONTINUOUS
 66
     1
 40
0.000000
 41
0.000000
  0
VERTEX
  8
0
  6
CONTINUOUS
 10
5.512760
 20
3.535400
  0
VERTEX
  8
0
  6
CONTINUOUS
 10
5.511440
 20
4.275040
  0
VERTEX
  8
0
  6
CONTINUOUS
 10
5.527720
 20
4.300560
  0
VERTEX
  8
0
  6
CONTINUOUS
 10
5.529040
 20
3.560920
  0
VERTEX
  8
0
  6
CONTINUOUS
 10
5.512760
 20
3.535400
  0
SEQEND
  8
0
  0
SOLID
  8
0
 62
    15
 10
5.529040
 20
3.560920
 11
5.527720
 21
4.300560
 12
5.539600
 22
3.590400
 13
5.537840
 23
4.330040
  0
POLYLINE
  8
0
  6
CONTINUOUS
 66
     1
 40
0.000000
 41
0.000000
  0
VERTEX
  8
0
  6
CONTINUOUS
 10
5.529040
 20
3.560920
  0
VERTEX
  8
0
  6
CONTINUOUS
 10
5.527720
 20
4.300560
  0
VERTEX
  8
0
  6
CONTINUOUS
 10
5.537840
 20
4.330040
  0
VERTEX
  8
0
  6
CONTINUOUS
 10
5.539600
 20
3.590400
  0
VERTEX
  8
0
  6
CONTINUOUS
 10
5.529040
 20
3.560920
  0
SEQEND
  8
0
  0
SOLID
  8
0
 62
    15
 10
5.539600
 20
3.590400
 11
5.537840
 21
4.330040
 12
5.691840
 22
3.590400
 13
5.690080
 23
4.330040
  0
POLYLINE
  8
0
  6
CONTINUOUS
 66
     1
 40
0.000000
 41
0.000000
  0
VERTEX
  8
0
  6
CONTINUOUS
 10
5.539600
 20
3.590400
  0
VERTEX
  8
0
  6
CONTINUOUS
 10
5.537840
 20
4.330040
  0
VERTEX
  8
0
  6
CONTINUOUS
 10
5.690080
 20
4.330040
  0
VERTEX
  8
0
  6
CONTINUOUS
 10
5.691840
 20
3.590400
  0
VERTEX
  8
0
  6
CONTINUOUS
 10
5.539600
 20
3.590400
  0
SEQEND
  8
0
  0
SOLID
  8
0
 62
    15
 10
5.691840
 20
3.590400
 11
5.690080
 21
4.330040
 12
5.714280
 22
3.706560
 13
5.712960
 23
4.446200
  0
POLYLINE
  8
0
  6
CONTINUOUS
 66
     1
 40
0.000000
 41
0.000000
  0
VERTEX
  8
0
  6
CONTINUOUS
 10
5.691840
 20
3.590400
  0
VERTEX
  8
0
  6
CONTINUOUS
 10
5.690080
 20
4.330040
  0
VERTEX
  8
0
  6
CONTINUOUS
 10
5.712960
 20
4.446200
  0
VERTEX
  8
0
  6
CONTINUOUS
 10
5.714280
 20
3.706560
  0
VERTEX
  8
0
  6
CONTINUOUS
 10
5.691840
 20
3.590400
  0
SEQEND
  8
0
  0
SOLID
  8
0
 62
    15
 10
5.714280
 20
3.706560
 11
5.712960
 21
4.446200
 12
6.430160
 22
3.706560
 13
6.428400
 23
4.446200
  0
POLYLINE
  8
0
  6
CONTINUOUS
 66
     1
 40
0.000000
 41
0.000000
  0
VERTEX
  8
0
  6
CONTINUOUS
 10
5.714280
 20
3.706560
  0
VERTEX
  8
0
  6
CONTINUOUS
 10
5.712960
 20
4.446200
  0
VERTEX
  8
0
  6
CONTINUOUS
 10
6.428400
 20
4.446200
  0
VERTEX
  8
0
  6
CONTINUOUS
 10
6.430160
 20
3.706560
  0
VERTEX
  8
0
  6
CONTINUOUS
 10
5.714280
 20
3.706560
  0
SEQEND
  8
0
  0
POLYLINE
  8
0
  6
CONTINUOUS
 66
     1
 40
0.000000
 41
0.000000
  0
VERTEX
  8
0
  6
CONTINUOUS
 10
1.872640
 20
2.958560
  0
VERTEX
  8
0
  6
CONTINUOUS
 10
1.872640
 20
3.711840
  0
VERTEX
  8
0
  6
CONTINUOUS
 10
2.588080
 20
3.711840
  0
VERTEX
  8
0
  6
CONTINUOUS
 10
2.610960
 20
3.595680
  0
VERTEX
  8
0
  6
CONTINUOUS
 10
2.763200
 20
3.595680
  0
VERTEX
  8
0
  6
CONTINUOUS
 10
2.773320
 20
3.565760
  0
VERTEX
  8
0
  6
CONTINUOUS
 10
2.789600
 20
3.540240
  0
VERTEX
  8
0
  6
CONTINUOUS
 10
2.811160
 20
3.518680
  0
VERTEX
  8
0
  6
CONTINUOUS
 10
2.837560
 20
3.500640
  0
VERTEX
  8
0
  6
CONTINUOUS
 10
2.867480
 20
3.486120
  0
VERTEX
  8
0
  6
CONTINUOUS
 10
2.900480
 20
3.474680
  0
VERTEX
  8
0
  6
CONTINUOUS
 10
2.971320
 20
3.459280
  0
VERTEX
  8
0
  6
CONTINUOUS
 10
3.043920
 20
3.451800
  0
VERTEX
  8
0
  6
CONTINUOUS
 10
3.140280
 20
3.450040
  0
VERTEX
  8
0
  6
CONTINUOUS
 10
3.202760
 20
3.451360
  0
VERTEX
  8
0
  6
CONTINUOUS
 10
3.254680
 20
3.537160
  0
VERTEX
  8
0
  6
CONTINUOUS
 10
3.278440
 20
3.571480
  0
VERTEX
  8
0
  6
CONTINUOUS
 10
3.301320
 20
3.600520
  0
VERTEX
  8
0
  6
CONTINUOUS
 10
3.324640
 20
3.624720
  0
VERTEX
  8
0
  6
CONTINUOUS
 10
3.347960
 20
3.643640
  0
VERTEX
  8
0
  6
CONTINUOUS
 10
3.372600
 20
3.657720
  0
VERTEX
  8
0
  6
CONTINUOUS
 10
3.399000
 20
3.667400
  0
VERTEX
  8
0
  6
CONTINUOUS
 10
3.428040
 20
3.673120
  0
VERTEX
  8
0
  6
CONTINUOUS
 10
3.459720
 20
3.674440
  0
VERTEX
  8
0
  6
CONTINUOUS
 10
3.495360
 20
3.671800
  0
VERTEX
  8
0
  6
CONTINUOUS
 10
3.534960
 20
3.665640
  0
VERTEX
  8
0
  6
CONTINUOUS
 10
3.579400
 20
3.655960
  0
VERTEX
  8
0
  6
CONTINUOUS
 10
3.685440
 20
3.626920
  0
VERTEX
  8
0
  6
CONTINUOUS
 10
3.912480
 20
3.559600
  0
VERTEX
  8
0
  6
CONTINUOUS
 10
4.018520
 20
3.531000
  0
VERTEX
  8
0
  6
CONTINUOUS
 10
4.096400
 20
3.515160
  0
VERTEX
  8
0
  6
CONTINUOUS
 10
4.143040
 20
3.512520
  0
VERTEX
  8
0
  6
CONTINUOUS
 10
4.151400
 20
3.512520
  0
VERTEX
  8
0
  6
CONTINUOUS
 10
4.151400
 20
3.507680
  0
VERTEX
  8
0
  6
CONTINUOUS
 10
4.184400
 20
3.508120
  0
VERTEX
  8
0
  6
CONTINUOUS
 10
4.205960
 20
3.510320
  0
VERTEX
  8
0
  6
CONTINUOUS
 10
4.237640
 20
3.515600
  0
VERTEX
  8
0
  6
CONTINUOUS
 10
4.348960
 20
3.542880
  0
VERTEX
  8
0
  6
CONTINUOUS
 10
4.673240
 20
3.637920
  0
VERTEX
  8
0
  6
CONTINUOUS
 10
4.723400
 20
3.651120
  0
VERTEX
  8
0
  6
CONTINUOUS
 10
4.767840
 20
3.660800
  0
VERTEX
  8
0
  6
CONTINUOUS
 10
4.807440
 20
3.666960
  0
VERTEX
  8
0
  6
CONTINUOUS
 10
4.842640
 20
3.669160
  0
VERTEX
  8
0
  6
CONTINUOUS
 10
4.874760
 20
3.667840
  0
VERTEX
  8
0
  6
CONTINUOUS
 10
4.903360
 20
3.662560
  0
VERTEX
  8
0
  6
CONTINUOUS
 10
4.929760
 20
3.652880
  0
VERTEX
  8
0
  6
CONTINUOUS
 10
4.954400
 20
3.638360
  0
VERTEX
  8
0
  6
CONTINUOUS
 10
4.978160
 20
3.619440
  0
VERTEX
  8
0
  6
CONTINUOUS
 10
5.001040
 20
3.595680
  0
VERTEX
  8
0
  6
CONTINUOUS
 10
5.023920
 20
3.566640
  0
VERTEX
  8
0
  6
CONTINUOUS
 10
5.047680
 20
3.532320
  0
VERTEX
  8
0
  6
CONTINUOUS
 10
5.099600
 20
3.446520
  0
VERTEX
  8
0
  6
CONTINUOUS
 10
5.191560
 20
3.444760
  0
VERTEX
  8
0
  6
CONTINUOUS
 10
5.258440
 20
3.446960
  0
VERTEX
  8
0
  6
CONTINUOUS
 10
5.331040
 20
3.454440
  0
VERTEX
  8
0
  6
CONTINUOUS
 10
5.401880
 20
3.469840
  0
VERTEX
  8
0
  6
CONTINUOUS
 10
5.434880
 20
3.481280
  0
VERTEX
  8
0
  6
CONTINUOUS
 10
5.464800
 20
3.495800
  0
VERTEX
  8
0
  6
CONTINUOUS
 10
5.491200
 20
3.513840
  0
VERTEX
  8
0
  6
CONTINUOUS
 10
5.512760
 20
3.535400
  0
VERTEX
  8
0
  6
CONTINUOUS
 10
5.529040
 20
3.560920
  0
VERTEX
  8
0
  6
CONTINUOUS
 10
5.539600
 20
3.590400
  0
VERTEX
  8
0
  6
CONTINUOUS
 10
5.691840
 20
3.590400
  0
VERTEX
  8
0
  6
CONTINUOUS
 10
5.714280
 20
3.706560
  0
VERTEX
  8
0
  6
CONTINUOUS
 10
6.430160
 20
3.706560
  0
VERTEX
  8
0
  6
CONTINUOUS
 10
6.430160
 20
2.958560
  0
VERTEX
  8
0
  6
CONTINUOUS
 10
1.872640
 20
2.958560
  0
SEQEND
  8
0
  0
TEXT
  8
0
 10
3.809520
 20
2.735040
 40
0.138155
  1
BA  1288
 41
1.000000
  7
SN0
 71
     0
 72
     5
 11
4.493653
 21
2.735040
  0
TEXT
  8
0
 10
3.653760
 20
2.533520
 40
0.138155
  1
3/4" x 4-9/16"
 41
1.000000
  7
SN0
 71
     0
 72
     5
 11
4.649561
 21
2.533520
  0
TEXT
  8
0
 10
3.987720
 20
5.409800
 40
0.138155
  1
BA  1288
 41
1.000000
  7
SN0
 71
     0
 72
     5
 11
4.671853
 21
5.409800
  0
TEXT
  8
0
 10
3.831960
 20
5.208720
 40
0.138155
  1
3/4" x 4-9/16"
 41
1.000000
  7
SN0
 71
     0
 72
     5
 11
4.827761
 21
5.208720
  0
ENDSEC
  0
EOF
