  0
SECTION
  2
HEADER
  9
$ACADVER
  1
AC1006
  9
$EXTMIN
 10
1.224520
 20
1.476200
  9
$EXTMAX
 10
7.236680
 20
7.119200
  9
$LTSCALE
 40
0.044000
  9
$PDMODE
 70
    35
  9
$PDSIZE
 40
0.035200
  0
ENDSEC
  0
SECTION
  2
TABLES
  0
TABLE
  2
LTYPE
 70
     9
  0
LTYPE
  2
CONTINUOUS
 70
    64
  3
Solid line
 72
    65
 73
     0
 40
0.000000
  0
LTYPE
  2
DASHED
 70
    64
  3
__ __ __ __ __ __ __ __ __ __ __ __ __ __ __
 72
    65
 73
     2
 40
0.000330
 49
0.000220
 49
-0.000110
  0
LTYPE
  2
HIDDEN
 70
    64
  3
 _ _ _ _ _ _ _ _ _ _ _ _ _ _ _ _ _ _ _ _ _ _
 72
    65
 73
     2
 40
0.000165
 49
0.000110
 49
-0.000055
  0
LTYPE
  2
CENTER
 70
    64
  3
____ _ ____ _ ____ _ ____ _ ____ _ ____ _ ____
 72
    65
 73
     4
 40
0.000880
 49
0.000550
 49
-0.000110
 49
0.000110
 49
-0.000110
  0
LTYPE
  2
PHANTOM
 70
    64
  3
_____ _ _ _____ _ _ _____ _ _ _____ _ _ ____
 72
    65
 73
     6
 40
0.001100
 49
0.000550
 49
-0.000110
 49
0.000110
 49
-0.000110
 49
0.000110
 49
-0.000110
  0
LTYPE
  2
DOT
 70
    64
  3
...............................................
 72
    65
 73
     2
 40
0.000110
 49
0.000000
 49
-0.000110
  0
LTYPE
  2
DASHDOT
 70
    64
  3
__ . __ . __ . __ . __ . __ . __ . __ . __ . __
 72
    65
 73
     4
 40
0.000440
 49
0.000220
 49
-0.000110
 49
0.000000
 49
-0.000110
  0
LTYPE
  2
BORDER
 70
    64
  3
__ __ . __ __ . __ __ . __ __ . __ __ . __ __
 72
    65
 73
     6
 40
0.000770
 49
0.000220
 49
-0.000110
 49
0.000220
 49
-0.000110
 49
0.000000
 49
-0.000110
  0
LTYPE
  2
DIVIDE
 70
    64
  3
__ . . __ . . __ . . __ . . __ . . __ . . __
 72
    65
 73
     6
 40
0.000550
 49
0.000220
 49
-0.000110
 49
0.000000
 49
-0.000110
 49
0.000000
 49
-0.000110
  0
LTYPE
  2
DOTDOT
 70
    64
  3
 . .  . .  . .  . .  . .  . . 
 72
    65
 73
     5
 40
0.000242
 49
-0.000110
 49
0.000000
 49
-0.000110
 49
0.000000
 49
-0.000110
  0
ENDTAB
  0
TABLE
  2
STYLE
 70
     2
  0
STYLE
 70
     0
  2
SN0
 40
0.000000
 41
0.000440
 50
0.000000
 71
     0
 42
0.000000
  3
ROMAND
  0
STYLE
 70
    68
  2
SV0
 40
0.000000
 41
0.000440
 50
0.000000
 71
     0
 42
0.000000
  3
ROMAND
  0
ENDTAB
  0
TABLE
  2
LAYER
 70
     3
  0
LAYER
  2
FOREGROUND
 70
    64
 62
     7
  6
CONTINUOUS
  0
LAYER
  2
BACKGROUND
 70
    65
 62
    -7
  6
CONTINUOUS
  0
LAYER
  2
0
 70
    64
 62
     7
  6
CONTINUOUS
  0
ENDTAB
  0
ENDSEC
  0
SECTION
  2
ENTITIES
  0
POLYLINE
  8
FOREGROUND
  6
CONTINUOUS
 66
     1
 40
0.000000
 41
0.000000
  0
VERTEX
  8
FOREGROUND
  6
CONTINUOUS
 10
0.000000
 20
8.595400
  0
VERTEX
  8
FOREGROUND
  6
CONTINUOUS
 10
8.499920
 20
8.595400
  0
VERTEX
  8
FOREGROUND
  6
CONTINUOUS
 10
8.499920
 20
-2.404600
  0
VERTEX
  8
FOREGROUND
  6
CONTINUOUS
 10
0.000000
 20
-2.404600
  0
VERTEX
  8
FOREGROUND
  6
CONTINUOUS
 10
0.000000
 20
8.595400
  0
SEQEND
  8
0
  0
POLYLINE
  8
FOREGROUND
  6
CONTINUOUS
 66
     1
 40
0.000000
 41
0.000000
  0
VERTEX
  8
FOREGROUND
  6
CONTINUOUS
 10
0.000000
 20
8.595400
  0
VERTEX
  8
FOREGROUND
  6
CONTINUOUS
 10
8.499920
 20
8.595400
  0
VERTEX
  8
FOREGROUND
  6
CONTINUOUS
 10
8.499920
 20
-2.404600
  0
VERTEX
  8
FOREGROUND
  6
CONTINUOUS
 10
0.000000
 20
-2.404600
  0
VERTEX
  8
FOREGROUND
  6
CONTINUOUS
 10
0.000000
 20
8.595400
  0
SEQEND
  8
0
  0
POLYLINE
  8
0
  6
CONTINUOUS
 66
     1
 40
0.014080
 41
0.014080
  0
VERTEX
  8
0
  6
CONTINUOUS
 10
4.230160
 20
7.097200
  0
VERTEX
  8
0
  6
CONTINUOUS
 10
3.914680
 20
7.095880
  0
VERTEX
  8
0
  6
CONTINUOUS
 10
3.736480
 20
7.091480
  0
VERTEX
  8
0
  6
CONTINUOUS
 10
3.614600
 20
7.086200
  0
VERTEX
  8
0
  6
CONTINUOUS
 10
3.493160
 20
7.078280
  0
VERTEX
  8
0
  6
CONTINUOUS
 10
3.374360
 20
7.067280
  0
VERTEX
  8
0
  6
CONTINUOUS
 10
3.259960
 20
7.052760
  0
VERTEX
  8
0
  6
CONTINUOUS
 10
3.152600
 20
7.034280
  0
VERTEX
  8
0
  6
CONTINUOUS
 10
3.077360
 20
7.017560
  0
VERTEX
  8
0
  6
CONTINUOUS
 10
3.008280
 20
6.997760
  0
VERTEX
  8
0
  6
CONTINUOUS
 10
2.946240
 20
6.975320
  0
VERTEX
  8
0
  6
CONTINUOUS
 10
2.891680
 20
6.949800
  0
VERTEX
  8
0
  6
CONTINUOUS
 10
2.845920
 20
6.920320
  0
VERTEX
  8
0
  6
CONTINUOUS
 10
2.820840
 20
6.899200
  0
VERTEX
  8
0
  6
CONTINUOUS
 10
2.799720
 20
6.876320
  0
VERTEX
  8
0
  6
CONTINUOUS
 10
2.783880
 20
6.851240
  0
VERTEX
  8
0
  6
CONTINUOUS
 10
2.772880
 20
6.824840
  0
VERTEX
  8
0
  6
CONTINUOUS
 10
2.769360
 20
6.811200
  0
VERTEX
  8
0
  6
CONTINUOUS
 10
2.751760
 20
6.568760
  0
VERTEX
  8
0
  6
CONTINUOUS
 10
2.427920
 20
6.568320
  0
VERTEX
  8
0
  6
CONTINUOUS
 10
2.311760
 20
7.111720
  0
VERTEX
  8
0
  6
CONTINUOUS
 10
1.232440
 20
7.111720
  0
VERTEX
  8
0
  6
CONTINUOUS
 10
1.232440
 20
6.239200
  0
VERTEX
  8
0
  6
CONTINUOUS
 10
7.229200
 20
6.239640
  0
VERTEX
  8
0
  6
CONTINUOUS
 10
7.229200
 20
7.111720
  0
VERTEX
  8
0
  6
CONTINUOUS
 10
6.149440
 20
7.111720
  0
VERTEX
  8
0
  6
CONTINUOUS
 10
6.033720
 20
6.568320
  0
VERTEX
  8
0
  6
CONTINUOUS
 10
6.033720
 20
6.568760
  0
VERTEX
  8
0
  6
CONTINUOUS
 10
5.709880
 20
6.568760
  0
VERTEX
  8
0
  6
CONTINUOUS
 10
5.692280
 20
6.811640
  0
VERTEX
  8
0
  6
CONTINUOUS
 10
5.683920
 20
6.838920
  0
VERTEX
  8
0
  6
CONTINUOUS
 10
5.670280
 20
6.864440
  0
VERTEX
  8
0
  6
CONTINUOUS
 10
5.661920
 20
6.876760
  0
VERTEX
  8
0
  6
CONTINUOUS
 10
5.628920
 20
6.910640
  0
VERTEX
  8
0
  6
CONTINUOUS
 10
5.586240
 20
6.940560
  0
VERTEX
  8
0
  6
CONTINUOUS
 10
5.552800
 20
6.959040
  0
VERTEX
  8
0
  6
CONTINUOUS
 10
5.495600
 20
6.983680
  0
VERTEX
  8
0
  6
CONTINUOUS
 10
5.430920
 20
7.004800
  0
VERTEX
  8
0
  6
CONTINUOUS
 10
5.359640
 20
7.023720
  0
VERTEX
  8
0
  6
CONTINUOUS
 10
5.256240
 20
7.044400
  0
VERTEX
  8
0
  6
CONTINUOUS
 10
5.145360
 20
7.060680
  0
VERTEX
  8
0
  6
CONTINUOUS
 10
5.028320
 20
7.073440
  0
VERTEX
  8
0
  6
CONTINUOUS
 10
4.907760
 20
7.082680
  0
VERTEX
  8
0
  6
CONTINUOUS
 10
4.785880
 20
7.089280
  0
VERTEX
  8
0
  6
CONTINUOUS
 10
4.546960
 20
7.095880
  0
VERTEX
  8
0
  6
CONTINUOUS
 10
4.230160
 20
7.097200
  0
SEQEND
  8
0
  0
POLYLINE
  8
0
  6
CONTINUOUS
 66
     1
 40
0.000000
 41
0.000000
  0
VERTEX
  8
0
  6
CONTINUOUS
 10
4.230160
 20
2.334200
  0
VERTEX
  8
0
  6
CONTINUOUS
 10
3.914680
 20
2.332880
  0
VERTEX
  8
0
  6
CONTINUOUS
 10
3.736480
 20
2.328480
  0
VERTEX
  8
0
  6
CONTINUOUS
 10
3.614600
 20
2.323200
  0
VERTEX
  8
0
  6
CONTINUOUS
 10
3.493160
 20
2.315280
  0
VERTEX
  8
0
  6
CONTINUOUS
 10
3.374360
 20
2.304280
  0
VERTEX
  8
0
  6
CONTINUOUS
 10
3.259960
 20
2.289760
  0
VERTEX
  8
0
  6
CONTINUOUS
 10
3.152600
 20
2.271280
  0
VERTEX
  8
0
  6
CONTINUOUS
 10
3.077360
 20
2.254560
  0
VERTEX
  8
0
  6
CONTINUOUS
 10
3.008280
 20
2.234760
  0
VERTEX
  8
0
  6
CONTINUOUS
 10
2.946240
 20
2.212320
  0
VERTEX
  8
0
  6
CONTINUOUS
 10
2.891680
 20
2.186800
  0
VERTEX
  8
0
  6
CONTINUOUS
 10
2.845920
 20
2.157320
  0
VERTEX
  8
0
  6
CONTINUOUS
 10
2.820840
 20
2.136200
  0
VERTEX
  8
0
  6
CONTINUOUS
 10
2.799720
 20
2.113320
  0
VERTEX
  8
0
  6
CONTINUOUS
 10
2.783880
 20
2.088240
  0
VERTEX
  8
0
  6
CONTINUOUS
 10
2.772880
 20
2.061840
  0
VERTEX
  8
0
  6
CONTINUOUS
 10
2.769360
 20
2.048200
  0
VERTEX
  8
0
  6
CONTINUOUS
 10
2.751760
 20
1.805320
  0
VERTEX
  8
0
  6
CONTINUOUS
 10
2.427920
 20
1.804880
  0
VERTEX
  8
0
  6
CONTINUOUS
 10
2.311760
 20
2.348720
  0
VERTEX
  8
0
  6
CONTINUOUS
 10
1.232440
 20
2.348720
  0
VERTEX
  8
0
  6
CONTINUOUS
 10
1.232440
 20
1.476200
  0
VERTEX
  8
0
  6
CONTINUOUS
 10
7.229200
 20
1.476640
  0
VERTEX
  8
0
  6
CONTINUOUS
 10
7.229200
 20
2.348720
  0
VERTEX
  8
0
  6
CONTINUOUS
 10
6.149440
 20
2.348720
  0
VERTEX
  8
0
  6
CONTINUOUS
 10
6.033720
 20
1.805320
  0
VERTEX
  8
0
  6
CONTINUOUS
 10
6.033720
 20
1.805760
  0
VERTEX
  8
0
  6
CONTINUOUS
 10
5.709880
 20
1.805760
  0
VERTEX
  8
0
  6
CONTINUOUS
 10
5.692280
 20
2.048640
  0
VERTEX
  8
0
  6
CONTINUOUS
 10
5.683920
 20
2.075920
  0
VERTEX
  8
0
  6
CONTINUOUS
 10
5.670280
 20
2.101440
  0
VERTEX
  8
0
  6
CONTINUOUS
 10
5.661920
 20
2.113760
  0
VERTEX
  8
0
  6
CONTINUOUS
 10
5.628920
 20
2.147640
  0
VERTEX
  8
0
  6
CONTINUOUS
 10
5.586240
 20
2.177560
  0
VERTEX
  8
0
  6
CONTINUOUS
 10
5.552800
 20
2.196040
  0
VERTEX
  8
0
  6
CONTINUOUS
 10
5.495600
 20
2.220680
  0
VERTEX
  8
0
  6
CONTINUOUS
 10
5.430920
 20
2.241800
  0
VERTEX
  8
0
  6
CONTINUOUS
 10
5.359640
 20
2.260720
  0
VERTEX
  8
0
  6
CONTINUOUS
 10
5.256240
 20
2.281400
  0
VERTEX
  8
0
  6
CONTINUOUS
 10
5.145360
 20
2.297680
  0
VERTEX
  8
0
  6
CONTINUOUS
 10
5.028320
 20
2.310440
  0
VERTEX
  8
0
  6
CONTINUOUS
 10
4.907760
 20
2.319680
  0
VERTEX
  8
0
  6
CONTINUOUS
 10
4.785880
 20
2.326280
  0
VERTEX
  8
0
  6
CONTINUOUS
 10
4.546960
 20
2.332880
  0
VERTEX
  8
0
  6
CONTINUOUS
 10
4.230160
 20
2.334200
  0
SEQEND
  8
0
  0
SOLID
  8
0
 62
    15
 10
1.233320
 20
3.701720
 11
1.231120
 21
4.447960
 12
1.233320
 22
4.574240
 13
1.231120
 23
5.320480
  0
POLYLINE
  8
0
  6
CONTINUOUS
 66
     1
 40
0.000000
 41
0.000000
  0
VERTEX
  8
0
  6
CONTINUOUS
 10
1.233320
 20
3.701720
  0
VERTEX
  8
0
  6
CONTINUOUS
 10
1.231120
 20
4.447960
  0
VERTEX
  8
0
  6
CONTINUOUS
 10
1.231120
 20
5.320480
  0
VERTEX
  8
0
  6
CONTINUOUS
 10
1.233320
 20
4.574240
  0
VERTEX
  8
0
  6
CONTINUOUS
 10
1.233320
 20
3.701720
  0
SEQEND
  8
0
  0
SOLID
  8
0
 62
    15
 10
4.328720
 20
4.559720
 11
4.326520
 21
5.305960
 12
4.434760
 22
4.559280
 13
4.432560
 23
5.305960
  0
POLYLINE
  8
0
  6
CONTINUOUS
 66
     1
 40
0.000000
 41
0.000000
  0
VERTEX
  8
0
  6
CONTINUOUS
 10
4.328720
 20
4.559720
  0
VERTEX
  8
0
  6
CONTINUOUS
 10
4.326520
 20
5.305960
  0
VERTEX
  8
0
  6
CONTINUOUS
 10
4.432560
 20
5.305960
  0
VERTEX
  8
0
  6
CONTINUOUS
 10
4.434760
 20
4.559280
  0
VERTEX
  8
0
  6
CONTINUOUS
 10
4.328720
 20
4.559720
  0
SEQEND
  8
0
  0
SOLID
  8
0
 62
    15
 10
4.434760
 20
4.559280
 11
4.432560
 21
5.305960
 12
4.547840
 22
4.558400
 13
4.545640
 23
5.304640
  0
POLYLINE
  8
0
  6
CONTINUOUS
 66
     1
 40
0.000000
 41
0.000000
  0
VERTEX
  8
0
  6
CONTINUOUS
 10
4.434760
 20
4.559280
  0
VERTEX
  8
0
  6
CONTINUOUS
 10
4.432560
 20
5.305960
  0
VERTEX
  8
0
  6
CONTINUOUS
 10
4.545640
 20
5.304640
  0
VERTEX
  8
0
  6
CONTINUOUS
 10
4.547840
 20
4.558400
  0
VERTEX
  8
0
  6
CONTINUOUS
 10
4.434760
 20
4.559280
  0
SEQEND
  8
0
  0
SOLID
  8
0
 62
    15
 10
4.547840
 20
4.558400
 11
4.545640
 21
5.304640
 12
4.665760
 22
4.555760
 13
4.663560
 23
5.302440
  0
POLYLINE
  8
0
  6
CONTINUOUS
 66
     1
 40
0.000000
 41
0.000000
  0
VERTEX
  8
0
  6
CONTINUOUS
 10
4.547840
 20
4.558400
  0
VERTEX
  8
0
  6
CONTINUOUS
 10
4.545640
 20
5.304640
  0
VERTEX
  8
0
  6
CONTINUOUS
 10
4.663560
 20
5.302440
  0
VERTEX
  8
0
  6
CONTINUOUS
 10
4.665760
 20
4.555760
  0
VERTEX
  8
0
  6
CONTINUOUS
 10
4.547840
 20
4.558400
  0
SEQEND
  8
0
  0
SOLID
  8
0
 62
    15
 10
4.665760
 20
4.555760
 11
4.663560
 21
5.302440
 12
4.908640
 22
4.545200
 13
4.906440
 23
5.291440
  0
POLYLINE
  8
0
  6
CONTINUOUS
 66
     1
 40
0.000000
 41
0.000000
  0
VERTEX
  8
0
  6
CONTINUOUS
 10
4.665760
 20
4.555760
  0
VERTEX
  8
0
  6
CONTINUOUS
 10
4.663560
 20
5.302440
  0
VERTEX
  8
0
  6
CONTINUOUS
 10
4.906440
 20
5.291440
  0
VERTEX
  8
0
  6
CONTINUOUS
 10
4.908640
 20
4.545200
  0
VERTEX
  8
0
  6
CONTINUOUS
 10
4.665760
 20
4.555760
  0
SEQEND
  8
0
  0
SOLID
  8
0
 62
    15
 10
4.908640
 20
4.545200
 11
4.906440
 21
5.291440
 12
5.029200
 22
4.535960
 13
5.027000
 23
5.282200
  0
POLYLINE
  8
0
  6
CONTINUOUS
 66
     1
 40
0.000000
 41
0.000000
  0
VERTEX
  8
0
  6
CONTINUOUS
 10
4.908640
 20
4.545200
  0
VERTEX
  8
0
  6
CONTINUOUS
 10
4.906440
 20
5.291440
  0
VERTEX
  8
0
  6
CONTINUOUS
 10
5.027000
 20
5.282200
  0
VERTEX
  8
0
  6
CONTINUOUS
 10
5.029200
 20
4.535960
  0
VERTEX
  8
0
  6
CONTINUOUS
 10
4.908640
 20
4.545200
  0
SEQEND
  8
0
  0
SOLID
  8
0
 62
    15
 10
5.029200
 20
4.535960
 11
5.027000
 21
5.282200
 12
5.146240
 22
4.523200
 13
5.144040
 23
5.269440
  0
POLYLINE
  8
0
  6
CONTINUOUS
 66
     1
 40
0.000000
 41
0.000000
  0
VERTEX
  8
0
  6
CONTINUOUS
 10
5.029200
 20
4.535960
  0
VERTEX
  8
0
  6
CONTINUOUS
 10
5.027000
 20
5.282200
  0
VERTEX
  8
0
  6
CONTINUOUS
 10
5.144040
 20
5.269440
  0
VERTEX
  8
0
  6
CONTINUOUS
 10
5.146240
 20
4.523200
  0
VERTEX
  8
0
  6
CONTINUOUS
 10
5.029200
 20
4.535960
  0
SEQEND
  8
0
  0
SOLID
  8
0
 62
    15
 10
5.146240
 20
4.523200
 11
5.144040
 21
5.269440
 12
5.257560
 22
4.506480
 13
5.255360
 23
5.253160
  0
POLYLINE
  8
0
  6
CONTINUOUS
 66
     1
 40
0.000000
 41
0.000000
  0
VERTEX
  8
0
  6
CONTINUOUS
 10
5.146240
 20
4.523200
  0
VERTEX
  8
0
  6
CONTINUOUS
 10
5.144040
 20
5.269440
  0
VERTEX
  8
0
  6
CONTINUOUS
 10
5.255360
 20
5.253160
  0
VERTEX
  8
0
  6
CONTINUOUS
 10
5.257560
 20
4.506480
  0
VERTEX
  8
0
  6
CONTINUOUS
 10
5.146240
 20
4.523200
  0
SEQEND
  8
0
  0
SOLID
  8
0
 62
    15
 10
5.257560
 20
4.506480
 11
5.255360
 21
5.253160
 12
5.360960
 22
4.486240
 13
5.358760
 23
5.232480
  0
POLYLINE
  8
0
  6
CONTINUOUS
 66
     1
 40
0.000000
 41
0.000000
  0
VERTEX
  8
0
  6
CONTINUOUS
 10
5.257560
 20
4.506480
  0
VERTEX
  8
0
  6
CONTINUOUS
 10
5.255360
 20
5.253160
  0
VERTEX
  8
0
  6
CONTINUOUS
 10
5.358760
 20
5.232480
  0
VERTEX
  8
0
  6
CONTINUOUS
 10
5.360960
 20
4.486240
  0
VERTEX
  8
0
  6
CONTINUOUS
 10
5.257560
 20
4.506480
  0
SEQEND
  8
0
  0
SOLID
  8
0
 62
    15
 10
5.360960
 20
4.486240
 11
5.358760
 21
5.232480
 12
5.454240
 22
4.460720
 13
5.452040
 23
5.206960
  0
POLYLINE
  8
0
  6
CONTINUOUS
 66
     1
 40
0.000000
 41
0.000000
  0
VERTEX
  8
0
  6
CONTINUOUS
 10
5.360960
 20
4.486240
  0
VERTEX
  8
0
  6
CONTINUOUS
 10
5.358760
 20
5.232480
  0
VERTEX
  8
0
  6
CONTINUOUS
 10
5.452040
 20
5.206960
  0
VERTEX
  8
0
  6
CONTINUOUS
 10
5.454240
 20
4.460720
  0
VERTEX
  8
0
  6
CONTINUOUS
 10
5.360960
 20
4.486240
  0
SEQEND
  8
0
  0
SOLID
  8
0
 62
    15
 10
5.454240
 20
4.460720
 11
5.452040
 21
5.206960
 12
5.535640
 22
4.429920
 13
5.533440
 23
5.176160
  0
POLYLINE
  8
0
  6
CONTINUOUS
 66
     1
 40
0.000000
 41
0.000000
  0
VERTEX
  8
0
  6
CONTINUOUS
 10
5.454240
 20
4.460720
  0
VERTEX
  8
0
  6
CONTINUOUS
 10
5.452040
 20
5.206960
  0
VERTEX
  8
0
  6
CONTINUOUS
 10
5.533440
 20
5.176160
  0
VERTEX
  8
0
  6
CONTINUOUS
 10
5.535640
 20
4.429920
  0
VERTEX
  8
0
  6
CONTINUOUS
 10
5.454240
 20
4.460720
  0
SEQEND
  8
0
  0
SOLID
  8
0
 62
    15
 10
5.535640
 20
4.429920
 11
5.533440
 21
5.176160
 12
5.570840
 22
4.412320
 13
5.568640
 23
5.159000
  0
POLYLINE
  8
0
  6
CONTINUOUS
 66
     1
 40
0.000000
 41
0.000000
  0
VERTEX
  8
0
  6
CONTINUOUS
 10
5.535640
 20
4.429920
  0
VERTEX
  8
0
  6
CONTINUOUS
 10
5.533440
 20
5.176160
  0
VERTEX
  8
0
  6
CONTINUOUS
 10
5.568640
 20
5.159000
  0
VERTEX
  8
0
  6
CONTINUOUS
 10
5.570840
 20
4.412320
  0
VERTEX
  8
0
  6
CONTINUOUS
 10
5.535640
 20
4.429920
  0
SEQEND
  8
0
  0
SOLID
  8
0
 62
    15
 10
5.570840
 20
4.412320
 11
5.568640
 21
5.159000
 12
5.602520
 22
4.393400
 13
5.600320
 23
5.139640
  0
POLYLINE
  8
0
  6
CONTINUOUS
 66
     1
 40
0.000000
 41
0.000000
  0
VERTEX
  8
0
  6
CONTINUOUS
 10
5.570840
 20
4.412320
  0
VERTEX
  8
0
  6
CONTINUOUS
 10
5.568640
 20
5.159000
  0
VERTEX
  8
0
  6
CONTINUOUS
 10
5.600320
 20
5.139640
  0
VERTEX
  8
0
  6
CONTINUOUS
 10
5.602520
 20
4.393400
  0
VERTEX
  8
0
  6
CONTINUOUS
 10
5.570840
 20
4.412320
  0
SEQEND
  8
0
  0
SOLID
  8
0
 62
    15
 10
5.602520
 20
4.393400
 11
5.600320
 21
5.139640
 12
5.629800
 22
4.372720
 13
5.627600
 23
5.119400
  0
POLYLINE
  8
0
  6
CONTINUOUS
 66
     1
 40
0.000000
 41
0.000000
  0
VERTEX
  8
0
  6
CONTINUOUS
 10
5.602520
 20
4.393400
  0
VERTEX
  8
0
  6
CONTINUOUS
 10
5.600320
 20
5.139640
  0
VERTEX
  8
0
  6
CONTINUOUS
 10
5.627600
 20
5.119400
  0
VERTEX
  8
0
  6
CONTINUOUS
 10
5.629800
 20
4.372720
  0
VERTEX
  8
0
  6
CONTINUOUS
 10
5.602520
 20
4.393400
  0
SEQEND
  8
0
  0
SOLID
  8
0
 62
    15
 10
5.629800
 20
4.372720
 11
5.627600
 21
5.119400
 12
5.653120
 22
4.350720
 13
5.650920
 23
5.096960
  0
POLYLINE
  8
0
  6
CONTINUOUS
 66
     1
 40
0.000000
 41
0.000000
  0
VERTEX
  8
0
  6
CONTINUOUS
 10
5.629800
 20
4.372720
  0
VERTEX
  8
0
  6
CONTINUOUS
 10
5.627600
 20
5.119400
  0
VERTEX
  8
0
  6
CONTINUOUS
 10
5.650920
 20
5.096960
  0
VERTEX
  8
0
  6
CONTINUOUS
 10
5.653120
 20
4.350720
  0
VERTEX
  8
0
  6
CONTINUOUS
 10
5.629800
 20
4.372720
  0
SEQEND
  8
0
  0
SOLID
  8
0
 62
    15
 10
5.653120
 20
4.350720
 11
5.650920
 21
5.096960
 12
5.671160
 22
4.326960
 13
5.669400
 23
5.073200
  0
POLYLINE
  8
0
  6
CONTINUOUS
 66
     1
 40
0.000000
 41
0.000000
  0
VERTEX
  8
0
  6
CONTINUOUS
 10
5.653120
 20
4.350720
  0
VERTEX
  8
0
  6
CONTINUOUS
 10
5.650920
 20
5.096960
  0
VERTEX
  8
0
  6
CONTINUOUS
 10
5.669400
 20
5.073200
  0
VERTEX
  8
0
  6
CONTINUOUS
 10
5.671160
 20
4.326960
  0
VERTEX
  8
0
  6
CONTINUOUS
 10
5.653120
 20
4.350720
  0
SEQEND
  8
0
  0
SOLID
  8
0
 62
    15
 10
5.684800
 20
4.301440
 11
5.682600
 21
5.047680
 12
5.693160
 22
4.273720
 13
5.690960
 23
5.020400
  0
POLYLINE
  8
0
  6
CONTINUOUS
 66
     1
 40
0.000000
 41
0.000000
  0
VERTEX
  8
0
  6
CONTINUOUS
 10
5.684800
 20
4.301440
  0
VERTEX
  8
0
  6
CONTINUOUS
 10
5.682600
 20
5.047680
  0
VERTEX
  8
0
  6
CONTINUOUS
 10
5.690960
 20
5.020400
  0
VERTEX
  8
0
  6
CONTINUOUS
 10
5.693160
 20
4.273720
  0
VERTEX
  8
0
  6
CONTINUOUS
 10
5.684800
 20
4.301440
  0
SEQEND
  8
0
  0
SOLID
  8
0
 62
    15
 10
5.671160
 20
4.326960
 11
5.669400
 21
5.073200
 12
5.684800
 22
4.301440
 13
5.682600
 23
5.047680
  0
POLYLINE
  8
0
  6
CONTINUOUS
 66
     1
 40
0.000000
 41
0.000000
  0
VERTEX
  8
0
  6
CONTINUOUS
 10
5.671160
 20
4.326960
  0
VERTEX
  8
0
  6
CONTINUOUS
 10
5.669400
 20
5.073200
  0
VERTEX
  8
0
  6
CONTINUOUS
 10
5.682600
 20
5.047680
  0
VERTEX
  8
0
  6
CONTINUOUS
 10
5.684800
 20
4.301440
  0
VERTEX
  8
0
  6
CONTINUOUS
 10
5.671160
 20
4.326960
  0
SEQEND
  8
0
  0
SOLID
  8
0
 62
    15
 10
5.693160
 20
4.273720
 11
5.690960
 21
5.020400
 12
5.696240
 22
4.244680
 13
5.694040
 23
4.990920
  0
POLYLINE
  8
0
  6
CONTINUOUS
 66
     1
 40
0.000000
 41
0.000000
  0
VERTEX
  8
0
  6
CONTINUOUS
 10
5.693160
 20
4.273720
  0
VERTEX
  8
0
  6
CONTINUOUS
 10
5.690960
 20
5.020400
  0
VERTEX
  8
0
  6
CONTINUOUS
 10
5.694040
 20
4.990920
  0
VERTEX
  8
0
  6
CONTINUOUS
 10
5.696240
 20
4.244680
  0
VERTEX
  8
0
  6
CONTINUOUS
 10
5.693160
 20
4.273720
  0
SEQEND
  8
0
  0
SOLID
  8
0
 62
    15
 10
5.711200
 20
4.031280
 11
5.709000
 21
4.777520
 12
6.035040
 22
4.031280
 13
6.032840
 23
4.777520
  0
POLYLINE
  8
0
  6
CONTINUOUS
 66
     1
 40
0.000000
 41
0.000000
  0
VERTEX
  8
0
  6
CONTINUOUS
 10
5.711200
 20
4.031280
  0
VERTEX
  8
0
  6
CONTINUOUS
 10
5.709000
 20
4.777520
  0
VERTEX
  8
0
  6
CONTINUOUS
 10
6.032840
 20
4.777520
  0
VERTEX
  8
0
  6
CONTINUOUS
 10
6.035040
 20
4.031280
  0
VERTEX
  8
0
  6
CONTINUOUS
 10
5.711200
 20
4.031280
  0
SEQEND
  8
0
  0
SOLID
  8
0
 62
    15
 10
5.696240
 20
4.244680
 11
5.694040
 21
4.990920
 12
5.711200
 22
4.031280
 13
5.709000
 23
4.777520
  0
POLYLINE
  8
0
  6
CONTINUOUS
 66
     1
 40
0.000000
 41
0.000000
  0
VERTEX
  8
0
  6
CONTINUOUS
 10
5.696240
 20
4.244680
  0
VERTEX
  8
0
  6
CONTINUOUS
 10
5.694040
 20
4.990920
  0
VERTEX
  8
0
  6
CONTINUOUS
 10
5.709000
 20
4.777520
  0
VERTEX
  8
0
  6
CONTINUOUS
 10
5.711200
 20
4.031280
  0
VERTEX
  8
0
  6
CONTINUOUS
 10
5.696240
 20
4.244680
  0
SEQEND
  8
0
  0
SOLID
  8
0
 62
    15
 10
6.035040
 20
4.031280
 11
6.032840
 21
4.777520
 12
6.150760
 22
4.574240
 13
6.148560
 23
5.320480
  0
POLYLINE
  8
0
  6
CONTINUOUS
 66
     1
 40
0.000000
 41
0.000000
  0
VERTEX
  8
0
  6
CONTINUOUS
 10
6.035040
 20
4.031280
  0
VERTEX
  8
0
  6
CONTINUOUS
 10
6.032840
 20
4.777520
  0
VERTEX
  8
0
  6
CONTINUOUS
 10
6.148560
 20
5.320480
  0
VERTEX
  8
0
  6
CONTINUOUS
 10
6.150760
 20
4.574240
  0
VERTEX
  8
0
  6
CONTINUOUS
 10
6.035040
 20
4.031280
  0
SEQEND
  8
0
  0
SOLID
  8
0
 62
    15
 10
6.150760
 20
4.574240
 11
6.148560
 21
5.320480
 12
7.230520
 22
4.574240
 13
7.228320
 23
5.320480
  0
POLYLINE
  8
0
  6
CONTINUOUS
 66
     1
 40
0.000000
 41
0.000000
  0
VERTEX
  8
0
  6
CONTINUOUS
 10
6.150760
 20
4.574240
  0
VERTEX
  8
0
  6
CONTINUOUS
 10
6.148560
 20
5.320480
  0
VERTEX
  8
0
  6
CONTINUOUS
 10
7.228320
 20
5.320480
  0
VERTEX
  8
0
  6
CONTINUOUS
 10
7.230520
 20
4.574240
  0
VERTEX
  8
0
  6
CONTINUOUS
 10
6.150760
 20
4.574240
  0
SEQEND
  8
0
  0
SOLID
  8
0
 62
    15
 10
1.233320
 20
4.574240
 11
1.231120
 21
5.320480
 12
2.313080
 22
4.574240
 13
2.310880
 23
5.320480
  0
POLYLINE
  8
0
  6
CONTINUOUS
 66
     1
 40
0.000000
 41
0.000000
  0
VERTEX
  8
0
  6
CONTINUOUS
 10
1.233320
 20
4.574240
  0
VERTEX
  8
0
  6
CONTINUOUS
 10
1.231120
 20
5.320480
  0
VERTEX
  8
0
  6
CONTINUOUS
 10
2.310880
 20
5.320480
  0
VERTEX
  8
0
  6
CONTINUOUS
 10
2.313080
 20
4.574240
  0
VERTEX
  8
0
  6
CONTINUOUS
 10
1.233320
 20
4.574240
  0
SEQEND
  8
0
  0
SOLID
  8
0
 62
    15
 10
4.232360
 20
4.559720
 11
4.230160
 21
5.305960
 12
4.328720
 22
4.559720
 13
4.326520
 23
5.305960
  0
POLYLINE
  8
0
  6
CONTINUOUS
 66
     1
 40
0.000000
 41
0.000000
  0
VERTEX
  8
0
  6
CONTINUOUS
 10
4.232360
 20
4.559720
  0
VERTEX
  8
0
  6
CONTINUOUS
 10
4.230160
 20
5.305960
  0
VERTEX
  8
0
  6
CONTINUOUS
 10
4.326520
 20
5.305960
  0
VERTEX
  8
0
  6
CONTINUOUS
 10
4.328720
 20
4.559720
  0
VERTEX
  8
0
  6
CONTINUOUS
 10
4.232360
 20
4.559720
  0
SEQEND
  8
0
  0
SOLID
  8
0
 62
    15
 10
2.313080
 20
4.574240
 11
2.310880
 21
5.320480
 12
2.428800
 22
4.030840
 13
2.426600
 23
4.777520
  0
POLYLINE
  8
0
  6
CONTINUOUS
 66
     1
 40
0.000000
 41
0.000000
  0
VERTEX
  8
0
  6
CONTINUOUS
 10
2.313080
 20
4.574240
  0
VERTEX
  8
0
  6
CONTINUOUS
 10
2.310880
 20
5.320480
  0
VERTEX
  8
0
  6
CONTINUOUS
 10
2.426600
 20
4.777520
  0
VERTEX
  8
0
  6
CONTINUOUS
 10
2.428800
 20
4.030840
  0
VERTEX
  8
0
  6
CONTINUOUS
 10
2.313080
 20
4.574240
  0
SEQEND
  8
0
  0
SOLID
  8
0
 62
    15
 10
2.428800
 20
4.030840
 11
2.426600
 21
4.777520
 12
2.752640
 22
4.030840
 13
2.750440
 23
4.777520
  0
POLYLINE
  8
0
  6
CONTINUOUS
 66
     1
 40
0.000000
 41
0.000000
  0
VERTEX
  8
0
  6
CONTINUOUS
 10
2.428800
 20
4.030840
  0
VERTEX
  8
0
  6
CONTINUOUS
 10
2.426600
 20
4.777520
  0
VERTEX
  8
0
  6
CONTINUOUS
 10
2.750440
 20
4.777520
  0
VERTEX
  8
0
  6
CONTINUOUS
 10
2.752640
 20
4.030840
  0
VERTEX
  8
0
  6
CONTINUOUS
 10
2.428800
 20
4.030840
  0
SEQEND
  8
0
  0
SOLID
  8
0
 62
    15
 10
2.752640
 20
4.030840
 11
2.750440
 21
4.777520
 12
2.767600
 22
4.244240
 13
2.765400
 23
4.990920
  0
POLYLINE
  8
0
  6
CONTINUOUS
 66
     1
 40
0.000000
 41
0.000000
  0
VERTEX
  8
0
  6
CONTINUOUS
 10
2.752640
 20
4.030840
  0
VERTEX
  8
0
  6
CONTINUOUS
 10
2.750440
 20
4.777520
  0
VERTEX
  8
0
  6
CONTINUOUS
 10
2.765400
 20
4.990920
  0
VERTEX
  8
0
  6
CONTINUOUS
 10
2.767600
 20
4.244240
  0
VERTEX
  8
0
  6
CONTINUOUS
 10
2.752640
 20
4.030840
  0
SEQEND
  8
0
  0
SOLID
  8
0
 62
    15
 10
2.767600
 20
4.244240
 11
2.765400
 21
4.990920
 12
2.770680
 22
4.273720
 13
2.768480
 23
5.019960
  0
POLYLINE
  8
0
  6
CONTINUOUS
 66
     1
 40
0.000000
 41
0.000000
  0
VERTEX
  8
0
  6
CONTINUOUS
 10
2.767600
 20
4.244240
  0
VERTEX
  8
0
  6
CONTINUOUS
 10
2.765400
 20
4.990920
  0
VERTEX
  8
0
  6
CONTINUOUS
 10
2.768480
 20
5.019960
  0
VERTEX
  8
0
  6
CONTINUOUS
 10
2.770680
 20
4.273720
  0
VERTEX
  8
0
  6
CONTINUOUS
 10
2.767600
 20
4.244240
  0
SEQEND
  8
0
  0
SOLID
  8
0
 62
    15
 10
2.770680
 20
4.273720
 11
2.768480
 21
5.019960
 12
2.778600
 22
4.301000
 13
2.776840
 23
5.047240
  0
POLYLINE
  8
0
  6
CONTINUOUS
 66
     1
 40
0.000000
 41
0.000000
  0
VERTEX
  8
0
  6
CONTINUOUS
 10
2.770680
 20
4.273720
  0
VERTEX
  8
0
  6
CONTINUOUS
 10
2.768480
 20
5.019960
  0
VERTEX
  8
0
  6
CONTINUOUS
 10
2.776840
 20
5.047240
  0
VERTEX
  8
0
  6
CONTINUOUS
 10
2.778600
 20
4.301000
  0
VERTEX
  8
0
  6
CONTINUOUS
 10
2.770680
 20
4.273720
  0
SEQEND
  8
0
  0
SOLID
  8
0
 62
    15
 10
2.778600
 20
4.301000
 11
2.776840
 21
5.047240
 12
2.792240
 22
4.326520
 13
2.790040
 23
5.073200
  0
POLYLINE
  8
0
  6
CONTINUOUS
 66
     1
 40
0.000000
 41
0.000000
  0
VERTEX
  8
0
  6
CONTINUOUS
 10
2.778600
 20
4.301000
  0
VERTEX
  8
0
  6
CONTINUOUS
 10
2.776840
 20
5.047240
  0
VERTEX
  8
0
  6
CONTINUOUS
 10
2.790040
 20
5.073200
  0
VERTEX
  8
0
  6
CONTINUOUS
 10
2.792240
 20
4.326520
  0
VERTEX
  8
0
  6
CONTINUOUS
 10
2.778600
 20
4.301000
  0
SEQEND
  8
0
  0
SOLID
  8
0
 62
    15
 10
2.792240
 20
4.326520
 11
2.790040
 21
5.073200
 12
2.810720
 22
4.350280
 13
2.808520
 23
5.096960
  0
POLYLINE
  8
0
  6
CONTINUOUS
 66
     1
 40
0.000000
 41
0.000000
  0
VERTEX
  8
0
  6
CONTINUOUS
 10
2.792240
 20
4.326520
  0
VERTEX
  8
0
  6
CONTINUOUS
 10
2.790040
 20
5.073200
  0
VERTEX
  8
0
  6
CONTINUOUS
 10
2.808520
 20
5.096960
  0
VERTEX
  8
0
  6
CONTINUOUS
 10
2.810720
 20
4.350280
  0
VERTEX
  8
0
  6
CONTINUOUS
 10
2.792240
 20
4.326520
  0
SEQEND
  8
0
  0
SOLID
  8
0
 62
    15
 10
2.810720
 20
4.350280
 11
2.808520
 21
5.096960
 12
2.833600
 22
4.372720
 13
2.831400
 23
5.118960
  0
POLYLINE
  8
0
  6
CONTINUOUS
 66
     1
 40
0.000000
 41
0.000000
  0
VERTEX
  8
0
  6
CONTINUOUS
 10
2.810720
 20
4.350280
  0
VERTEX
  8
0
  6
CONTINUOUS
 10
2.808520
 20
5.096960
  0
VERTEX
  8
0
  6
CONTINUOUS
 10
2.831400
 20
5.118960
  0
VERTEX
  8
0
  6
CONTINUOUS
 10
2.833600
 20
4.372720
  0
VERTEX
  8
0
  6
CONTINUOUS
 10
2.810720
 20
4.350280
  0
SEQEND
  8
0
  0
SOLID
  8
0
 62
    15
 10
2.833600
 20
4.372720
 11
2.831400
 21
5.118960
 12
2.861320
 22
4.393400
 13
2.859120
 23
5.139640
  0
POLYLINE
  8
0
  6
CONTINUOUS
 66
     1
 40
0.000000
 41
0.000000
  0
VERTEX
  8
0
  6
CONTINUOUS
 10
2.833600
 20
4.372720
  0
VERTEX
  8
0
  6
CONTINUOUS
 10
2.831400
 20
5.118960
  0
VERTEX
  8
0
  6
CONTINUOUS
 10
2.859120
 20
5.139640
  0
VERTEX
  8
0
  6
CONTINUOUS
 10
2.861320
 20
4.393400
  0
VERTEX
  8
0
  6
CONTINUOUS
 10
2.833600
 20
4.372720
  0
SEQEND
  8
0
  0
SOLID
  8
0
 62
    15
 10
2.861320
 20
4.393400
 11
2.859120
 21
5.139640
 12
2.892560
 22
4.412320
 13
2.890360
 23
5.158560
  0
POLYLINE
  8
0
  6
CONTINUOUS
 66
     1
 40
0.000000
 41
0.000000
  0
VERTEX
  8
0
  6
CONTINUOUS
 10
2.861320
 20
4.393400
  0
VERTEX
  8
0
  6
CONTINUOUS
 10
2.859120
 20
5.139640
  0
VERTEX
  8
0
  6
CONTINUOUS
 10
2.890360
 20
5.158560
  0
VERTEX
  8
0
  6
CONTINUOUS
 10
2.892560
 20
4.412320
  0
VERTEX
  8
0
  6
CONTINUOUS
 10
2.861320
 20
4.393400
  0
SEQEND
  8
0
  0
SOLID
  8
0
 62
    15
 10
2.892560
 20
4.412320
 11
2.890360
 21
5.158560
 12
2.928200
 22
4.429480
 13
2.926000
 23
5.176160
  0
POLYLINE
  8
0
  6
CONTINUOUS
 66
     1
 40
0.000000
 41
0.000000
  0
VERTEX
  8
0
  6
CONTINUOUS
 10
2.892560
 20
4.412320
  0
VERTEX
  8
0
  6
CONTINUOUS
 10
2.890360
 20
5.158560
  0
VERTEX
  8
0
  6
CONTINUOUS
 10
2.926000
 20
5.176160
  0
VERTEX
  8
0
  6
CONTINUOUS
 10
2.928200
 20
4.429480
  0
VERTEX
  8
0
  6
CONTINUOUS
 10
2.892560
 20
4.412320
  0
SEQEND
  8
0
  0
SOLID
  8
0
 62
    15
 10
2.928200
 20
4.429480
 11
2.926000
 21
5.176160
 12
3.009160
 22
4.460280
 13
3.007400
 23
5.206520
  0
POLYLINE
  8
0
  6
CONTINUOUS
 66
     1
 40
0.000000
 41
0.000000
  0
VERTEX
  8
0
  6
CONTINUOUS
 10
2.928200
 20
4.429480
  0
VERTEX
  8
0
  6
CONTINUOUS
 10
2.926000
 20
5.176160
  0
VERTEX
  8
0
  6
CONTINUOUS
 10
3.007400
 20
5.206520
  0
VERTEX
  8
0
  6
CONTINUOUS
 10
3.009160
 20
4.460280
  0
VERTEX
  8
0
  6
CONTINUOUS
 10
2.928200
 20
4.429480
  0
SEQEND
  8
0
  0
SOLID
  8
0
 62
    15
 10
3.009160
 20
4.460280
 11
3.007400
 21
5.206520
 12
3.102880
 22
4.485800
 13
3.100680
 23
5.232040
  0
POLYLINE
  8
0
  6
CONTINUOUS
 66
     1
 40
0.000000
 41
0.000000
  0
VERTEX
  8
0
  6
CONTINUOUS
 10
3.009160
 20
4.460280
  0
VERTEX
  8
0
  6
CONTINUOUS
 10
3.007400
 20
5.206520
  0
VERTEX
  8
0
  6
CONTINUOUS
 10
3.100680
 20
5.232040
  0
VERTEX
  8
0
  6
CONTINUOUS
 10
3.102880
 20
4.485800
  0
VERTEX
  8
0
  6
CONTINUOUS
 10
3.009160
 20
4.460280
  0
SEQEND
  8
0
  0
SOLID
  8
0
 62
    15
 10
3.102880
 20
4.485800
 11
3.100680
 21
5.232040
 12
3.206280
 22
4.506480
 13
3.204080
 23
5.252720
  0
POLYLINE
  8
0
  6
CONTINUOUS
 66
     1
 40
0.000000
 41
0.000000
  0
VERTEX
  8
0
  6
CONTINUOUS
 10
3.102880
 20
4.485800
  0
VERTEX
  8
0
  6
CONTINUOUS
 10
3.100680
 20
5.232040
  0
VERTEX
  8
0
  6
CONTINUOUS
 10
3.204080
 20
5.252720
  0
VERTEX
  8
0
  6
CONTINUOUS
 10
3.206280
 20
4.506480
  0
VERTEX
  8
0
  6
CONTINUOUS
 10
3.102880
 20
4.485800
  0
SEQEND
  8
0
  0
SOLID
  8
0
 62
    15
 10
3.206280
 20
4.506480
 11
3.204080
 21
5.252720
 12
3.317600
 22
4.522760
 13
3.315400
 23
5.269440
  0
POLYLINE
  8
0
  6
CONTINUOUS
 66
     1
 40
0.000000
 41
0.000000
  0
VERTEX
  8
0
  6
CONTINUOUS
 10
3.206280
 20
4.506480
  0
VERTEX
  8
0
  6
CONTINUOUS
 10
3.204080
 20
5.252720
  0
VERTEX
  8
0
  6
CONTINUOUS
 10
3.315400
 20
5.269440
  0
VERTEX
  8
0
  6
CONTINUOUS
 10
3.317600
 20
4.522760
  0
VERTEX
  8
0
  6
CONTINUOUS
 10
3.206280
 20
4.506480
  0
SEQEND
  8
0
  0
SOLID
  8
0
 62
    15
 10
3.317600
 20
4.522760
 11
3.315400
 21
5.269440
 12
3.434200
 22
4.535520
 13
3.432440
 23
5.281760
  0
POLYLINE
  8
0
  6
CONTINUOUS
 66
     1
 40
0.000000
 41
0.000000
  0
VERTEX
  8
0
  6
CONTINUOUS
 10
3.317600
 20
4.522760
  0
VERTEX
  8
0
  6
CONTINUOUS
 10
3.315400
 20
5.269440
  0
VERTEX
  8
0
  6
CONTINUOUS
 10
3.432440
 20
5.281760
  0
VERTEX
  8
0
  6
CONTINUOUS
 10
3.434200
 20
4.535520
  0
VERTEX
  8
0
  6
CONTINUOUS
 10
3.317600
 20
4.522760
  0
SEQEND
  8
0
  0
SOLID
  8
0
 62
    15
 10
3.434200
 20
4.535520
 11
3.432440
 21
5.281760
 12
3.554760
 22
4.544760
 13
3.552560
 23
5.291440
  0
POLYLINE
  8
0
  6
CONTINUOUS
 66
     1
 40
0.000000
 41
0.000000
  0
VERTEX
  8
0
  6
CONTINUOUS
 10
3.434200
 20
4.535520
  0
VERTEX
  8
0
  6
CONTINUOUS
 10
3.432440
 20
5.281760
  0
VERTEX
  8
0
  6
CONTINUOUS
 10
3.552560
 20
5.291440
  0
VERTEX
  8
0
  6
CONTINUOUS
 10
3.554760
 20
4.544760
  0
VERTEX
  8
0
  6
CONTINUOUS
 10
3.434200
 20
4.535520
  0
SEQEND
  8
0
  0
SOLID
  8
0
 62
    15
 10
3.554760
 20
4.544760
 11
3.552560
 21
5.291440
 12
3.797640
 22
4.555760
 13
3.795880
 23
5.302000
  0
POLYLINE
  8
0
  6
CONTINUOUS
 66
     1
 40
0.000000
 41
0.000000
  0
VERTEX
  8
0
  6
CONTINUOUS
 10
3.554760
 20
4.544760
  0
VERTEX
  8
0
  6
CONTINUOUS
 10
3.552560
 20
5.291440
  0
VERTEX
  8
0
  6
CONTINUOUS
 10
3.795880
 20
5.302000
  0
VERTEX
  8
0
  6
CONTINUOUS
 10
3.797640
 20
4.555760
  0
VERTEX
  8
0
  6
CONTINUOUS
 10
3.554760
 20
4.544760
  0
SEQEND
  8
0
  0
SOLID
  8
0
 62
    15
 10
3.797640
 20
4.555760
 11
3.795880
 21
5.302000
 12
3.916000
 22
4.557960
 13
3.913800
 23
5.304640
  0
POLYLINE
  8
0
  6
CONTINUOUS
 66
     1
 40
0.000000
 41
0.000000
  0
VERTEX
  8
0
  6
CONTINUOUS
 10
3.797640
 20
4.555760
  0
VERTEX
  8
0
  6
CONTINUOUS
 10
3.795880
 20
5.302000
  0
VERTEX
  8
0
  6
CONTINUOUS
 10
3.913800
 20
5.304640
  0
VERTEX
  8
0
  6
CONTINUOUS
 10
3.916000
 20
4.557960
  0
VERTEX
  8
0
  6
CONTINUOUS
 10
3.797640
 20
4.555760
  0
SEQEND
  8
0
  0
SOLID
  8
0
 62
    15
 10
3.916000
 20
4.557960
 11
3.913800
 21
5.304640
 12
4.029080
 22
4.559280
 13
4.026880
 23
5.305520
  0
POLYLINE
  8
0
  6
CONTINUOUS
 66
     1
 40
0.000000
 41
0.000000
  0
VERTEX
  8
0
  6
CONTINUOUS
 10
3.916000
 20
4.557960
  0
VERTEX
  8
0
  6
CONTINUOUS
 10
3.913800
 20
5.304640
  0
VERTEX
  8
0
  6
CONTINUOUS
 10
4.026880
 20
5.305520
  0
VERTEX
  8
0
  6
CONTINUOUS
 10
4.029080
 20
4.559280
  0
VERTEX
  8
0
  6
CONTINUOUS
 10
3.916000
 20
4.557960
  0
SEQEND
  8
0
  0
SOLID
  8
0
 62
    15
 10
4.029080
 20
4.559280
 11
4.026880
 21
5.305520
 12
4.134680
 22
4.559720
 13
4.132920
 23
5.305960
  0
POLYLINE
  8
0
  6
CONTINUOUS
 66
     1
 40
0.000000
 41
0.000000
  0
VERTEX
  8
0
  6
CONTINUOUS
 10
4.029080
 20
4.559280
  0
VERTEX
  8
0
  6
CONTINUOUS
 10
4.026880
 20
5.305520
  0
VERTEX
  8
0
  6
CONTINUOUS
 10
4.132920
 20
5.305960
  0
VERTEX
  8
0
  6
CONTINUOUS
 10
4.134680
 20
4.559720
  0
VERTEX
  8
0
  6
CONTINUOUS
 10
4.029080
 20
4.559280
  0
SEQEND
  8
0
  0
SOLID
  8
0
 62
    15
 10
4.134680
 20
4.559720
 11
4.132920
 21
5.305960
 12
4.231480
 22
4.559720
 13
4.229280
 23
5.305960
  0
POLYLINE
  8
0
  6
CONTINUOUS
 66
     1
 40
0.000000
 41
0.000000
  0
VERTEX
  8
0
  6
CONTINUOUS
 10
4.134680
 20
4.559720
  0
VERTEX
  8
0
  6
CONTINUOUS
 10
4.132920
 20
5.305960
  0
VERTEX
  8
0
  6
CONTINUOUS
 10
4.229280
 20
5.305960
  0
VERTEX
  8
0
  6
CONTINUOUS
 10
4.231480
 20
4.559720
  0
VERTEX
  8
0
  6
CONTINUOUS
 10
4.134680
 20
4.559720
  0
SEQEND
  8
0
  0
SOLID
  8
0
 62
    15
 10
4.231480
 20
4.559720
 11
4.229280
 21
5.305960
 12
4.232360
 22
4.559720
 13
4.230160
 23
5.305960
  0
POLYLINE
  8
0
  6
CONTINUOUS
 66
     1
 40
0.000000
 41
0.000000
  0
VERTEX
  8
0
  6
CONTINUOUS
 10
4.231480
 20
4.559720
  0
VERTEX
  8
0
  6
CONTINUOUS
 10
4.229280
 20
5.305960
  0
VERTEX
  8
0
  6
CONTINUOUS
 10
4.230160
 20
5.305960
  0
VERTEX
  8
0
  6
CONTINUOUS
 10
4.232360
 20
4.559720
  0
VERTEX
  8
0
  6
CONTINUOUS
 10
4.231480
 20
4.559720
  0
SEQEND
  8
0
  0
POLYLINE
  8
0
  6
CONTINUOUS
 66
     1
 40
0.000000
 41
0.000000
  0
VERTEX
  8
0
  6
CONTINUOUS
 10
4.232360
 20
4.559720
  0
VERTEX
  8
0
  6
CONTINUOUS
 10
4.547840
 20
4.558400
  0
VERTEX
  8
0
  6
CONTINUOUS
 10
4.665760
 20
4.555760
  0
VERTEX
  8
0
  6
CONTINUOUS
 10
4.908640
 20
4.545200
  0
VERTEX
  8
0
  6
CONTINUOUS
 10
5.029200
 20
4.535960
  0
VERTEX
  8
0
  6
CONTINUOUS
 10
5.146240
 20
4.523200
  0
VERTEX
  8
0
  6
CONTINUOUS
 10
5.257560
 20
4.506480
  0
VERTEX
  8
0
  6
CONTINUOUS
 10
5.360960
 20
4.486240
  0
VERTEX
  8
0
  6
CONTINUOUS
 10
5.454240
 20
4.460720
  0
VERTEX
  8
0
  6
CONTINUOUS
 10
5.535640
 20
4.429920
  0
VERTEX
  8
0
  6
CONTINUOUS
 10
5.570840
 20
4.412320
  0
VERTEX
  8
0
  6
CONTINUOUS
 10
5.602520
 20
4.393400
  0
VERTEX
  8
0
  6
CONTINUOUS
 10
5.629800
 20
4.372720
  0
VERTEX
  8
0
  6
CONTINUOUS
 10
5.653120
 20
4.350720
  0
VERTEX
  8
0
  6
CONTINUOUS
 10
5.671160
 20
4.326960
  0
VERTEX
  8
0
  6
CONTINUOUS
 10
5.684800
 20
4.301440
  0
VERTEX
  8
0
  6
CONTINUOUS
 10
5.693160
 20
4.273720
  0
VERTEX
  8
0
  6
CONTINUOUS
 10
5.696240
 20
4.244680
  0
VERTEX
  8
0
  6
CONTINUOUS
 10
5.711200
 20
4.031280
  0
VERTEX
  8
0
  6
CONTINUOUS
 10
6.035040
 20
4.031280
  0
VERTEX
  8
0
  6
CONTINUOUS
 10
6.150760
 20
4.574240
  0
VERTEX
  8
0
  6
CONTINUOUS
 10
7.230520
 20
4.574240
  0
VERTEX
  8
0
  6
CONTINUOUS
 10
7.230080
 20
3.701720
  0
VERTEX
  8
0
  6
CONTINUOUS
 10
1.233320
 20
3.701720
  0
VERTEX
  8
0
  6
CONTINUOUS
 10
1.233320
 20
4.574240
  0
VERTEX
  8
0
  6
CONTINUOUS
 10
2.313080
 20
4.574240
  0
VERTEX
  8
0
  6
CONTINUOUS
 10
2.428800
 20
4.030840
  0
VERTEX
  8
0
  6
CONTINUOUS
 10
2.752640
 20
4.030840
  0
VERTEX
  8
0
  6
CONTINUOUS
 10
2.767600
 20
4.244240
  0
VERTEX
  8
0
  6
CONTINUOUS
 10
2.770680
 20
4.273720
  0
VERTEX
  8
0
  6
CONTINUOUS
 10
2.778600
 20
4.301000
  0
VERTEX
  8
0
  6
CONTINUOUS
 10
2.792240
 20
4.326520
  0
VERTEX
  8
0
  6
CONTINUOUS
 10
2.810720
 20
4.350280
  0
VERTEX
  8
0
  6
CONTINUOUS
 10
2.833600
 20
4.372720
  0
VERTEX
  8
0
  6
CONTINUOUS
 10
2.861320
 20
4.393400
  0
VERTEX
  8
0
  6
CONTINUOUS
 10
2.892560
 20
4.412320
  0
VERTEX
  8
0
  6
CONTINUOUS
 10
2.928200
 20
4.429480
  0
VERTEX
  8
0
  6
CONTINUOUS
 10
3.009160
 20
4.460280
  0
VERTEX
  8
0
  6
CONTINUOUS
 10
3.102880
 20
4.485800
  0
VERTEX
  8
0
  6
CONTINUOUS
 10
3.206280
 20
4.506480
  0
VERTEX
  8
0
  6
CONTINUOUS
 10
3.317600
 20
4.522760
  0
VERTEX
  8
0
  6
CONTINUOUS
 10
3.434200
 20
4.535520
  0
VERTEX
  8
0
  6
CONTINUOUS
 10
3.554760
 20
4.544760
  0
VERTEX
  8
0
  6
CONTINUOUS
 10
3.797640
 20
4.555760
  0
VERTEX
  8
0
  6
CONTINUOUS
 10
4.029080
 20
4.559280
  0
VERTEX
  8
0
  6
CONTINUOUS
 10
4.232360
 20
4.559720
  0
SEQEND
  8
0
  0
TEXT
  8
0
 10
3.889160
 20
3.411760
 40
0.138335
  1
BA  1287
 41
1.000000
  7
SN0
 71
     0
 72
     5
 11
4.572442
 21
3.411760
  0
TEXT
  8
0
 10
3.922600
 20
3.219920
 40
0.138335
  1
7/8" x 6"
 41
1.000000
  7
SN0
 71
     0
 72
     5
 11
4.538546
 21
3.219920
  0
TEXT
  8
0
 10
3.889160
 20
6.515960
 40
0.138335
  1
BA  1287
 41
1.000000
  7
SN0
 71
     0
 72
     5
 11
4.572442
 21
6.515960
  0
TEXT
  8
0
 10
3.922600
 20
6.324120
 40
0.138335
  1
7/8" x 6"
 41
1.000000
  7
SN0
 71
     0
 72
     5
 11
4.538546
 21
6.324120
  0
ENDSEC
  0
EOF
