  0
SECTION
  2
HEADER
  9
$ACADVER
  1
AC1006
  9
$EXTMIN
 10
2.214520
 20
1.433520
  9
$EXTMAX
 10
6.029320
 20
9.355720
  9
$LTSCALE
 40
0.044000
  9
$PDMODE
 70
    35
  9
$PDSIZE
 40
0.035200
  0
ENDSEC
  0
SECTION
  2
TABLES
  0
TABLE
  2
LTYPE
 70
     9
  0
LTYPE
  2
CONTINUOUS
 70
    64
  3
Solid line
 72
    65
 73
     0
 40
0.000000
  0
LTYPE
  2
DASHED
 70
    64
  3
__ __ __ __ __ __ __ __ __ __ __ __ __ __ __
 72
    65
 73
     2
 40
0.000330
 49
0.000220
 49
-0.000110
  0
LTYPE
  2
HIDDEN
 70
    64
  3
 _ _ _ _ _ _ _ _ _ _ _ _ _ _ _ _ _ _ _ _ _ _
 72
    65
 73
     2
 40
0.000165
 49
0.000110
 49
-0.000055
  0
LTYPE
  2
CENTER
 70
    64
  3
____ _ ____ _ ____ _ ____ _ ____ _ ____ _ ____
 72
    65
 73
     4
 40
0.000880
 49
0.000550
 49
-0.000110
 49
0.000110
 49
-0.000110
  0
LTYPE
  2
PHANTOM
 70
    64
  3
_____ _ _ _____ _ _ _____ _ _ _____ _ _ ____
 72
    65
 73
     6
 40
0.001100
 49
0.000550
 49
-0.000110
 49
0.000110
 49
-0.000110
 49
0.000110
 49
-0.000110
  0
LTYPE
  2
DOT
 70
    64
  3
...............................................
 72
    65
 73
     2
 40
0.000110
 49
0.000000
 49
-0.000110
  0
LTYPE
  2
DASHDOT
 70
    64
  3
__ . __ . __ . __ . __ . __ . __ . __ . __ . __
 72
    65
 73
     4
 40
0.000440
 49
0.000220
 49
-0.000110
 49
0.000000
 49
-0.000110
  0
LTYPE
  2
BORDER
 70
    64
  3
__ __ . __ __ . __ __ . __ __ . __ __ . __ __
 72
    65
 73
     6
 40
0.000770
 49
0.000220
 49
-0.000110
 49
0.000220
 49
-0.000110
 49
0.000000
 49
-0.000110
  0
LTYPE
  2
DIVIDE
 70
    64
  3
__ . . __ . . __ . . __ . . __ . . __ . . __
 72
    65
 73
     6
 40
0.000550
 49
0.000220
 49
-0.000110
 49
0.000000
 49
-0.000110
 49
0.000000
 49
-0.000110
  0
LTYPE
  2
DOTDOT
 70
    64
  3
 . .  . .  . .  . .  . .  . . 
 72
    65
 73
     5
 40
0.000242
 49
-0.000110
 49
0.000000
 49
-0.000110
 49
0.000000
 49
-0.000110
  0
ENDTAB
  0
TABLE
  2
STYLE
 70
     2
  0
STYLE
 70
     0
  2
SN0
 40
0.000000
 41
0.000440
 50
0.000000
 71
     0
 42
0.000000
  3
ROMAND
  0
STYLE
 70
    68
  2
SV0
 40
0.000000
 41
0.000440
 50
0.000000
 71
     0
 42
0.000000
  3
ROMAND
  0
ENDTAB
  0
TABLE
  2
LAYER
 70
     3
  0
LAYER
  2
FOREGROUND
 70
    64
 62
     7
  6
CONTINUOUS
  0
LAYER
  2
BACKGROUND
 70
    65
 62
    -7
  6
CONTINUOUS
  0
LAYER
  2
0
 70
    64
 62
     7
  6
CONTINUOUS
  0
ENDTAB
  0
ENDSEC
  0
SECTION
  2
ENTITIES
  0
POLYLINE
  8
FOREGROUND
  6
CONTINUOUS
 66
     1
 40
0.000000
 41
0.000000
  0
VERTEX
  8
FOREGROUND
  6
CONTINUOUS
 10
0.000000
 20
10.789240
  0
VERTEX
  8
FOREGROUND
  6
CONTINUOUS
 10
8.499920
 20
10.789240
  0
VERTEX
  8
FOREGROUND
  6
CONTINUOUS
 10
8.499920
 20
-0.210760
  0
VERTEX
  8
FOREGROUND
  6
CONTINUOUS
 10
0.000000
 20
-0.210760
  0
VERTEX
  8
FOREGROUND
  6
CONTINUOUS
 10
0.000000
 20
10.789240
  0
SEQEND
  8
0
  0
POLYLINE
  8
FOREGROUND
  6
CONTINUOUS
 66
     1
 40
0.000000
 41
0.000000
  0
VERTEX
  8
FOREGROUND
  6
CONTINUOUS
 10
0.000000
 20
10.789240
  0
VERTEX
  8
FOREGROUND
  6
CONTINUOUS
 10
8.499920
 20
10.789240
  0
VERTEX
  8
FOREGROUND
  6
CONTINUOUS
 10
8.499920
 20
-0.210760
  0
VERTEX
  8
FOREGROUND
  6
CONTINUOUS
 10
0.000000
 20
-0.210760
  0
VERTEX
  8
FOREGROUND
  6
CONTINUOUS
 10
0.000000
 20
10.789240
  0
SEQEND
  8
0
  0
POLYLINE
  8
0
  6
CONTINUOUS
 66
     1
 40
0.014080
 41
0.014080
  0
VERTEX
  8
0
  6
CONTINUOUS
 10
5.770160
 20
8.467360
  0
VERTEX
  8
0
  6
CONTINUOUS
 10
5.770160
 20
8.836080
  0
VERTEX
  8
0
  6
CONTINUOUS
 10
6.022280
 20
8.836080
  0
VERTEX
  8
0
  6
CONTINUOUS
 10
6.022280
 20
9.071480
  0
VERTEX
  8
0
  6
CONTINUOUS
 10
5.632880
 20
9.071480
  0
VERTEX
  8
0
  6
CONTINUOUS
 10
5.619680
 20
9.108000
  0
VERTEX
  8
0
  6
CONTINUOUS
 10
5.604720
 20
9.141880
  0
VERTEX
  8
0
  6
CONTINUOUS
 10
5.577880
 20
9.187640
  0
VERTEX
  8
0
  6
CONTINUOUS
 10
5.546640
 20
9.227680
  0
VERTEX
  8
0
  6
CONTINUOUS
 10
5.511000
 20
9.261560
  0
VERTEX
  8
0
  6
CONTINUOUS
 10
5.471400
 20
9.290160
  0
VERTEX
  8
0
  6
CONTINUOUS
 10
5.427400
 20
9.313040
  0
VERTEX
  8
0
  6
CONTINUOUS
 10
5.379440
 20
9.329760
  0
VERTEX
  8
0
  6
CONTINUOUS
 10
5.327520
 20
9.341200
  0
VERTEX
  8
0
  6
CONTINUOUS
 10
5.290560
 20
9.346040
  0
VERTEX
  8
0
  6
CONTINUOUS
 10
5.232480
 20
9.348240
  0
VERTEX
  8
0
  6
CONTINUOUS
 10
5.170880
 20
9.344720
  0
VERTEX
  8
0
  6
CONTINUOUS
 10
5.105760
 20
9.335920
  0
VERTEX
  8
0
  6
CONTINUOUS
 10
5.037120
 20
9.321840
  0
VERTEX
  8
0
  6
CONTINUOUS
 10
4.965400
 20
9.302480
  0
VERTEX
  8
0
  6
CONTINUOUS
 10
4.890600
 20
9.277840
  0
VERTEX
  8
0
  6
CONTINUOUS
 10
4.785880
 20
9.236920
  0
VERTEX
  8
0
  6
CONTINUOUS
 10
4.704480
 20
9.199960
  0
VERTEX
  8
0
  6
CONTINUOUS
 10
4.591400
 20
9.143200
  0
VERTEX
  8
0
  6
CONTINUOUS
 10
4.503400
 20
9.094360
  0
VERTEX
  8
0
  6
CONTINUOUS
 10
4.413200
 20
9.041120
  0
VERTEX
  8
0
  6
CONTINUOUS
 10
4.260520
 20
8.946520
  0
VERTEX
  8
0
  6
CONTINUOUS
 10
4.173840
 20
8.897240
  0
VERTEX
  8
0
  6
CONTINUOUS
 10
4.090680
 20
8.854120
  0
VERTEX
  8
0
  6
CONTINUOUS
 10
3.985960
 20
8.807040
  0
VERTEX
  8
0
  6
CONTINUOUS
 10
3.888280
 20
8.770520
  0
VERTEX
  8
0
  6
CONTINUOUS
 10
3.819200
 20
8.750280
  0
VERTEX
  8
0
  6
CONTINUOUS
 10
3.753640
 20
8.735320
  0
VERTEX
  8
0
  6
CONTINUOUS
 10
3.691600
 20
8.726080
  0
VERTEX
  8
0
  6
CONTINUOUS
 10
3.632640
 20
8.722120
  0
VERTEX
  8
0
  6
CONTINUOUS
 10
3.577200
 20
8.723440
  0
VERTEX
  8
0
  6
CONTINUOUS
 10
3.525280
 20
8.729160
  0
VERTEX
  8
0
  6
CONTINUOUS
 10
3.476440
 20
8.740160
  0
VERTEX
  8
0
  6
CONTINUOUS
 10
3.445200
 20
8.749840
  0
VERTEX
  8
0
  6
CONTINUOUS
 10
3.415720
 20
8.761720
  0
VERTEX
  8
0
  6
CONTINUOUS
 10
3.387560
 20
8.775360
  0
VERTEX
  8
0
  6
CONTINUOUS
 10
3.360280
 20
8.790760
  0
VERTEX
  8
0
  6
CONTINUOUS
 10
3.334760
 20
8.807920
  0
VERTEX
  8
0
  6
CONTINUOUS
 10
3.310120
 20
8.827280
  0
VERTEX
  8
0
  6
CONTINUOUS
 10
3.286800
 20
8.847960
  0
VERTEX
  8
0
  6
CONTINUOUS
 10
3.243680
 20
8.894600
  0
VERTEX
  8
0
  6
CONTINUOUS
 10
3.223880
 20
8.920120
  0
VERTEX
  8
0
  6
CONTINUOUS
 10
3.187800
 20
8.975560
  0
VERTEX
  8
0
  6
CONTINUOUS
 10
3.171080
 20
9.005480
  0
VERTEX
  8
0
  6
CONTINUOUS
 10
2.805440
 20
8.734880
  0
VERTEX
  8
0
  6
CONTINUOUS
 10
2.699400
 20
8.875680
  0
VERTEX
  8
0
  6
CONTINUOUS
 10
2.222000
 20
8.696160
  0
VERTEX
  8
0
  6
CONTINUOUS
 10
2.222000
 20
8.467360
  0
VERTEX
  8
0
  6
CONTINUOUS
 10
5.770160
 20
8.467360
  0
SEQEND
  8
0
  0
POLYLINE
  8
0
  6
CONTINUOUS
 66
     1
 40
0.000000
 41
0.000000
  0
VERTEX
  8
0
  6
CONTINUOUS
 10
2.473680
 20
1.433520
  0
VERTEX
  8
0
  6
CONTINUOUS
 10
2.473680
 20
1.802240
  0
VERTEX
  8
0
  6
CONTINUOUS
 10
2.222000
 20
1.802240
  0
VERTEX
  8
0
  6
CONTINUOUS
 10
2.222000
 20
2.037640
  0
VERTEX
  8
0
  6
CONTINUOUS
 10
2.611400
 20
2.037640
  0
VERTEX
  8
0
  6
CONTINUOUS
 10
2.624600
 20
2.074160
  0
VERTEX
  8
0
  6
CONTINUOUS
 10
2.639560
 20
2.108040
  0
VERTEX
  8
0
  6
CONTINUOUS
 10
2.666400
 20
2.153800
  0
VERTEX
  8
0
  6
CONTINUOUS
 10
2.697640
 20
2.193840
  0
VERTEX
  8
0
  6
CONTINUOUS
 10
2.733280
 20
2.228160
  0
VERTEX
  8
0
  6
CONTINUOUS
 10
2.772880
 20
2.256320
  0
VERTEX
  8
0
  6
CONTINUOUS
 10
2.816880
 20
2.279200
  0
VERTEX
  8
0
  6
CONTINUOUS
 10
2.832280
 20
2.285800
  0
VERTEX
  8
0
  6
CONTINUOUS
 10
2.882000
 20
2.300760
  0
VERTEX
  8
0
  6
CONTINUOUS
 10
2.916760
 20
2.307800
  0
VERTEX
  8
0
  6
CONTINUOUS
 10
2.953720
 20
2.312200
  0
VERTEX
  8
0
  6
CONTINUOUS
 10
2.992000
 20
2.314400
  0
VERTEX
  8
0
  6
CONTINUOUS
 10
3.052280
 20
2.313080
  0
VERTEX
  8
0
  6
CONTINUOUS
 10
3.116520
 20
2.306040
  0
VERTEX
  8
0
  6
CONTINUOUS
 10
3.183840
 20
2.293720
  0
VERTEX
  8
0
  6
CONTINUOUS
 10
3.254680
 20
2.276120
  0
VERTEX
  8
0
  6
CONTINUOUS
 10
3.328600
 20
2.253240
  0
VERTEX
  8
0
  6
CONTINUOUS
 10
3.405160
 20
2.225080
  0
VERTEX
  8
0
  6
CONTINUOUS
 10
3.512520
 20
2.179760
  0
VERTEX
  8
0
  6
CONTINUOUS
 10
3.624280
 20
2.124760
  0
VERTEX
  8
0
  6
CONTINUOUS
 10
3.711400
 20
2.078120
  0
VERTEX
  8
0
  6
CONTINUOUS
 10
3.831080
 20
2.007720
  0
VERTEX
  8
0
  6
CONTINUOUS
 10
3.983760
 20
1.913120
  0
VERTEX
  8
0
  6
CONTINUOUS
 10
4.070440
 20
1.863840
  0
VERTEX
  8
0
  6
CONTINUOUS
 10
4.153600
 20
1.820720
  0
VERTEX
  8
0
  6
CONTINUOUS
 10
4.258320
 20
1.773640
  0
VERTEX
  8
0
  6
CONTINUOUS
 10
4.356000
 20
1.737120
  0
VERTEX
  8
0
  6
CONTINUOUS
 10
4.425080
 20
1.716880
  0
VERTEX
  8
0
  6
CONTINUOUS
 10
4.490640
 20
1.701920
  0
VERTEX
  8
0
  6
CONTINUOUS
 10
4.552680
 20
1.692680
  0
VERTEX
  8
0
  6
CONTINUOUS
 10
4.611640
 20
1.688720
  0
VERTEX
  8
0
  6
CONTINUOUS
 10
4.667080
 20
1.690040
  0
VERTEX
  8
0
  6
CONTINUOUS
 10
4.719000
 20
1.695760
  0
VERTEX
  8
0
  6
CONTINUOUS
 10
4.767840
 20
1.706760
  0
VERTEX
  8
0
  6
CONTINUOUS
 10
4.799080
 20
1.716440
  0
VERTEX
  8
0
  6
CONTINUOUS
 10
4.828560
 20
1.728320
  0
VERTEX
  8
0
  6
CONTINUOUS
 10
4.856720
 20
1.741960
  0
VERTEX
  8
0
  6
CONTINUOUS
 10
4.884000
 20
1.757360
  0
VERTEX
  8
0
  6
CONTINUOUS
 10
4.909520
 20
1.774520
  0
VERTEX
  8
0
  6
CONTINUOUS
 10
4.957480
 20
1.814560
  0
VERTEX
  8
0
  6
CONTINUOUS
 10
5.000600
 20
1.861200
  0
VERTEX
  8
0
  6
CONTINUOUS
 10
5.038880
 20
1.913560
  0
VERTEX
  8
0
  6
CONTINUOUS
 10
5.073200
 20
1.972080
  0
VERTEX
  8
0
  6
CONTINUOUS
 10
5.438840
 20
1.701040
  0
VERTEX
  8
0
  6
CONTINUOUS
 10
5.544880
 20
1.841840
  0
VERTEX
  8
0
  6
CONTINUOUS
 10
6.022280
 20
1.662320
  0
VERTEX
  8
0
  6
CONTINUOUS
 10
6.022280
 20
1.433960
  0
VERTEX
  8
0
  6
CONTINUOUS
 10
2.473680
 20
1.433520
  0
SEQEND
  8
0
  0
POLYLINE
  8
0
  6
CONTINUOUS
 66
     1
 40
0.000000
 41
0.000000
  0
VERTEX
  8
0
  6
CONTINUOUS
 10
5.770160
 20
2.675640
  0
VERTEX
  8
0
  6
CONTINUOUS
 10
5.770160
 20
3.044360
  0
VERTEX
  8
0
  6
CONTINUOUS
 10
6.022280
 20
3.044360
  0
VERTEX
  8
0
  6
CONTINUOUS
 10
6.022280
 20
3.280200
  0
VERTEX
  8
0
  6
CONTINUOUS
 10
5.632880
 20
3.280200
  0
VERTEX
  8
0
  6
CONTINUOUS
 10
5.619680
 20
3.316720
  0
VERTEX
  8
0
  6
CONTINUOUS
 10
5.604720
 20
3.350600
  0
VERTEX
  8
0
  6
CONTINUOUS
 10
5.577880
 20
3.396360
  0
VERTEX
  8
0
  6
CONTINUOUS
 10
5.546640
 20
3.436400
  0
VERTEX
  8
0
  6
CONTINUOUS
 10
5.511000
 20
3.470280
  0
VERTEX
  8
0
  6
CONTINUOUS
 10
5.471400
 20
3.498880
  0
VERTEX
  8
0
  6
CONTINUOUS
 10
5.427400
 20
3.521760
  0
VERTEX
  8
0
  6
CONTINUOUS
 10
5.379440
 20
3.538480
  0
VERTEX
  8
0
  6
CONTINUOUS
 10
5.327520
 20
3.549920
  0
VERTEX
  8
0
  6
CONTINUOUS
 10
5.290560
 20
3.554760
  0
VERTEX
  8
0
  6
CONTINUOUS
 10
5.232480
 20
3.556960
  0
VERTEX
  8
0
  6
CONTINUOUS
 10
5.170880
 20
3.553440
  0
VERTEX
  8
0
  6
CONTINUOUS
 10
5.105760
 20
3.544640
  0
VERTEX
  8
0
  6
CONTINUOUS
 10
5.037120
 20
3.530560
  0
VERTEX
  8
0
  6
CONTINUOUS
 10
4.965400
 20
3.511200
  0
VERTEX
  8
0
  6
CONTINUOUS
 10
4.890600
 20
3.486560
  0
VERTEX
  8
0
  6
CONTINUOUS
 10
4.785880
 20
3.445640
  0
VERTEX
  8
0
  6
CONTINUOUS
 10
4.704480
 20
3.408680
  0
VERTEX
  8
0
  6
CONTINUOUS
 10
4.591400
 20
3.351920
  0
VERTEX
  8
0
  6
CONTINUOUS
 10
4.503400
 20
3.303080
  0
VERTEX
  8
0
  6
CONTINUOUS
 10
4.413200
 20
3.249840
  0
VERTEX
  8
0
  6
CONTINUOUS
 10
4.260520
 20
3.155240
  0
VERTEX
  8
0
  6
CONTINUOUS
 10
4.173840
 20
3.105960
  0
VERTEX
  8
0
  6
CONTINUOUS
 10
4.090680
 20
3.062840
  0
VERTEX
  8
0
  6
CONTINUOUS
 10
3.985960
 20
3.015760
  0
VERTEX
  8
0
  6
CONTINUOUS
 10
3.888280
 20
2.979240
  0
VERTEX
  8
0
  6
CONTINUOUS
 10
3.819200
 20
2.959000
  0
VERTEX
  8
0
  6
CONTINUOUS
 10
3.753640
 20
2.944040
  0
VERTEX
  8
0
  6
CONTINUOUS
 10
3.691600
 20
2.934800
  0
VERTEX
  8
0
  6
CONTINUOUS
 10
3.632640
 20
2.930840
  0
VERTEX
  8
0
  6
CONTINUOUS
 10
3.577200
 20
2.932160
  0
VERTEX
  8
0
  6
CONTINUOUS
 10
3.525280
 20
2.937880
  0
VERTEX
  8
0
  6
CONTINUOUS
 10
3.476440
 20
2.948880
  0
VERTEX
  8
0
  6
CONTINUOUS
 10
3.445200
 20
2.958560
  0
VERTEX
  8
0
  6
CONTINUOUS
 10
3.415720
 20
2.970440
  0
VERTEX
  8
0
  6
CONTINUOUS
 10
3.387560
 20
2.984080
  0
VERTEX
  8
0
  6
CONTINUOUS
 10
3.360280
 20
2.999480
  0
VERTEX
  8
0
  6
CONTINUOUS
 10
3.334760
 20
3.016640
  0
VERTEX
  8
0
  6
CONTINUOUS
 10
3.310120
 20
3.036000
  0
VERTEX
  8
0
  6
CONTINUOUS
 10
3.286800
 20
3.056680
  0
VERTEX
  8
0
  6
CONTINUOUS
 10
3.243680
 20
3.103320
  0
VERTEX
  8
0
  6
CONTINUOUS
 10
3.223880
 20
3.128840
  0
VERTEX
  8
0
  6
CONTINUOUS
 10
3.187800
 20
3.184280
  0
VERTEX
  8
0
  6
CONTINUOUS
 10
3.171080
 20
3.214200
  0
VERTEX
  8
0
  6
CONTINUOUS
 10
2.805440
 20
2.943600
  0
VERTEX
  8
0
  6
CONTINUOUS
 10
2.699400
 20
3.084400
  0
VERTEX
  8
0
  6
CONTINUOUS
 10
2.222000
 20
2.904440
  0
VERTEX
  8
0
  6
CONTINUOUS
 10
2.222000
 20
2.676080
  0
VERTEX
  8
0
  6
CONTINUOUS
 10
5.770160
 20
2.675640
  0
SEQEND
  8
0
  0
SOLID
  8
0
 62
    15
 10
3.753640
 20
5.709000
 11
4.396920
 21
6.090040
 12
3.827120
 22
5.588880
 13
4.469960
 23
5.969920
  0
POLYLINE
  8
0
  6
CONTINUOUS
 66
     1
 40
0.000000
 41
0.000000
  0
VERTEX
  8
0
  6
CONTINUOUS
 10
3.753640
 20
5.709000
  0
VERTEX
  8
0
  6
CONTINUOUS
 10
4.396920
 20
6.090040
  0
VERTEX
  8
0
  6
CONTINUOUS
 10
4.469960
 20
5.969920
  0
VERTEX
  8
0
  6
CONTINUOUS
 10
3.827120
 20
5.588880
  0
VERTEX
  8
0
  6
CONTINUOUS
 10
3.753640
 20
5.709000
  0
SEQEND
  8
0
  0
SOLID
  8
0
 62
    15
 10
3.520440
 20
7.718480
 11
4.163280
 21
8.099080
 12
3.699960
 22
7.240640
 13
4.343240
 23
7.621680
  0
POLYLINE
  8
0
  6
CONTINUOUS
 66
     1
 40
0.000000
 41
0.000000
  0
VERTEX
  8
0
  6
CONTINUOUS
 10
3.520440
 20
7.718480
  0
VERTEX
  8
0
  6
CONTINUOUS
 10
4.163280
 20
8.099080
  0
VERTEX
  8
0
  6
CONTINUOUS
 10
4.343240
 20
7.621680
  0
VERTEX
  8
0
  6
CONTINUOUS
 10
3.699960
 20
7.240640
  0
VERTEX
  8
0
  6
CONTINUOUS
 10
3.520440
 20
7.718480
  0
SEQEND
  8
0
  0
SOLID
  8
0
 62
    15
 10
3.699960
 20
7.240640
 11
4.343240
 21
7.621680
 12
3.559160
 22
7.134600
 13
4.202440
 23
7.515640
  0
POLYLINE
  8
0
  6
CONTINUOUS
 66
     1
 40
0.000000
 41
0.000000
  0
VERTEX
  8
0
  6
CONTINUOUS
 10
3.699960
 20
7.240640
  0
VERTEX
  8
0
  6
CONTINUOUS
 10
4.343240
 20
7.621680
  0
VERTEX
  8
0
  6
CONTINUOUS
 10
4.202440
 20
7.515640
  0
VERTEX
  8
0
  6
CONTINUOUS
 10
3.559160
 20
7.134600
  0
VERTEX
  8
0
  6
CONTINUOUS
 10
3.699960
 20
7.240640
  0
SEQEND
  8
0
  0
SOLID
  8
0
 62
    15
 10
3.771680
 20
6.735080
 11
4.414520
 21
7.115680
 12
3.718880
 22
6.696360
 13
4.361720
 23
7.077400
  0
POLYLINE
  8
0
  6
CONTINUOUS
 66
     1
 40
0.000000
 41
0.000000
  0
VERTEX
  8
0
  6
CONTINUOUS
 10
3.771680
 20
6.735080
  0
VERTEX
  8
0
  6
CONTINUOUS
 10
4.414520
 20
7.115680
  0
VERTEX
  8
0
  6
CONTINUOUS
 10
4.361720
 20
7.077400
  0
VERTEX
  8
0
  6
CONTINUOUS
 10
3.718880
 20
6.696360
  0
VERTEX
  8
0
  6
CONTINUOUS
 10
3.771680
 20
6.735080
  0
SEQEND
  8
0
  0
SOLID
  8
0
 62
    15
 10
3.559160
 20
7.134600
 11
4.202440
 21
7.515640
 12
3.830200
 22
6.768960
 13
4.473040
 23
7.150000
  0
POLYLINE
  8
0
  6
CONTINUOUS
 66
     1
 40
0.000000
 41
0.000000
  0
VERTEX
  8
0
  6
CONTINUOUS
 10
3.559160
 20
7.134600
  0
VERTEX
  8
0
  6
CONTINUOUS
 10
4.202440
 20
7.515640
  0
VERTEX
  8
0
  6
CONTINUOUS
 10
4.473040
 20
7.150000
  0
VERTEX
  8
0
  6
CONTINUOUS
 10
3.830200
 20
6.768960
  0
VERTEX
  8
0
  6
CONTINUOUS
 10
3.559160
 20
7.134600
  0
SEQEND
  8
0
  0
SOLID
  8
0
 62
    15
 10
3.718880
 20
6.696360
 11
4.361720
 21
7.077400
 12
3.672680
 22
6.653240
 13
4.315520
 23
7.034280
  0
POLYLINE
  8
0
  6
CONTINUOUS
 66
     1
 40
0.000000
 41
0.000000
  0
VERTEX
  8
0
  6
CONTINUOUS
 10
3.718880
 20
6.696360
  0
VERTEX
  8
0
  6
CONTINUOUS
 10
4.361720
 20
7.077400
  0
VERTEX
  8
0
  6
CONTINUOUS
 10
4.315520
 20
7.034280
  0
VERTEX
  8
0
  6
CONTINUOUS
 10
3.672680
 20
6.653240
  0
VERTEX
  8
0
  6
CONTINUOUS
 10
3.718880
 20
6.696360
  0
SEQEND
  8
0
  0
SOLID
  8
0
 62
    15
 10
3.672680
 20
6.653240
 11
4.315520
 21
7.034280
 12
3.632640
 22
6.605720
 13
4.275480
 23
6.986760
  0
POLYLINE
  8
0
  6
CONTINUOUS
 66
     1
 40
0.000000
 41
0.000000
  0
VERTEX
  8
0
  6
CONTINUOUS
 10
3.672680
 20
6.653240
  0
VERTEX
  8
0
  6
CONTINUOUS
 10
4.315520
 20
7.034280
  0
VERTEX
  8
0
  6
CONTINUOUS
 10
4.275480
 20
6.986760
  0
VERTEX
  8
0
  6
CONTINUOUS
 10
3.632640
 20
6.605720
  0
VERTEX
  8
0
  6
CONTINUOUS
 10
3.672680
 20
6.653240
  0
SEQEND
  8
0
  0
SOLID
  8
0
 62
    15
 10
3.632640
 20
6.605720
 11
4.275480
 21
6.986760
 12
3.599640
 22
6.552920
 13
4.242920
 23
6.933960
  0
POLYLINE
  8
0
  6
CONTINUOUS
 66
     1
 40
0.000000
 41
0.000000
  0
VERTEX
  8
0
  6
CONTINUOUS
 10
3.632640
 20
6.605720
  0
VERTEX
  8
0
  6
CONTINUOUS
 10
4.275480
 20
6.986760
  0
VERTEX
  8
0
  6
CONTINUOUS
 10
4.242920
 20
6.933960
  0
VERTEX
  8
0
  6
CONTINUOUS
 10
3.599640
 20
6.552920
  0
VERTEX
  8
0
  6
CONTINUOUS
 10
3.632640
 20
6.605720
  0
SEQEND
  8
0
  0
SOLID
  8
0
 62
    15
 10
3.599640
 20
6.552920
 11
4.242920
 21
6.933960
 12
3.574560
 22
6.494840
 13
4.217400
 23
6.875880
  0
POLYLINE
  8
0
  6
CONTINUOUS
 66
     1
 40
0.000000
 41
0.000000
  0
VERTEX
  8
0
  6
CONTINUOUS
 10
3.599640
 20
6.552920
  0
VERTEX
  8
0
  6
CONTINUOUS
 10
4.242920
 20
6.933960
  0
VERTEX
  8
0
  6
CONTINUOUS
 10
4.217400
 20
6.875880
  0
VERTEX
  8
0
  6
CONTINUOUS
 10
3.574560
 20
6.494840
  0
VERTEX
  8
0
  6
CONTINUOUS
 10
3.599640
 20
6.552920
  0
SEQEND
  8
0
  0
SOLID
  8
0
 62
    15
 10
3.574560
 20
6.494840
 11
4.217400
 21
6.875880
 12
3.556960
 22
6.431920
 13
4.199800
 23
6.812520
  0
POLYLINE
  8
0
  6
CONTINUOUS
 66
     1
 40
0.000000
 41
0.000000
  0
VERTEX
  8
0
  6
CONTINUOUS
 10
3.574560
 20
6.494840
  0
VERTEX
  8
0
  6
CONTINUOUS
 10
4.217400
 20
6.875880
  0
VERTEX
  8
0
  6
CONTINUOUS
 10
4.199800
 20
6.812520
  0
VERTEX
  8
0
  6
CONTINUOUS
 10
3.556960
 20
6.431920
  0
VERTEX
  8
0
  6
CONTINUOUS
 10
3.574560
 20
6.494840
  0
SEQEND
  8
0
  0
SOLID
  8
0
 62
    15
 10
3.556960
 20
6.431920
 11
4.199800
 21
6.812520
 12
3.547720
 22
6.362840
 13
4.191000
 23
6.743880
  0
POLYLINE
  8
0
  6
CONTINUOUS
 66
     1
 40
0.000000
 41
0.000000
  0
VERTEX
  8
0
  6
CONTINUOUS
 10
3.556960
 20
6.431920
  0
VERTEX
  8
0
  6
CONTINUOUS
 10
4.199800
 20
6.812520
  0
VERTEX
  8
0
  6
CONTINUOUS
 10
4.191000
 20
6.743880
  0
VERTEX
  8
0
  6
CONTINUOUS
 10
3.547720
 20
6.362840
  0
VERTEX
  8
0
  6
CONTINUOUS
 10
3.556960
 20
6.431920
  0
SEQEND
  8
0
  0
SOLID
  8
0
 62
    15
 10
3.547720
 20
6.362840
 11
4.191000
 21
6.743880
 12
3.547280
 22
6.288480
 13
4.190560
 23
6.669520
  0
POLYLINE
  8
0
  6
CONTINUOUS
 66
     1
 40
0.000000
 41
0.000000
  0
VERTEX
  8
0
  6
CONTINUOUS
 10
3.547720
 20
6.362840
  0
VERTEX
  8
0
  6
CONTINUOUS
 10
4.191000
 20
6.743880
  0
VERTEX
  8
0
  6
CONTINUOUS
 10
4.190560
 20
6.669520
  0
VERTEX
  8
0
  6
CONTINUOUS
 10
3.547280
 20
6.288480
  0
VERTEX
  8
0
  6
CONTINUOUS
 10
3.547720
 20
6.362840
  0
SEQEND
  8
0
  0
SOLID
  8
0
 62
    15
 10
3.547280
 20
6.288480
 11
4.190560
 21
6.669520
 12
3.556520
 22
6.207960
 13
4.199360
 23
6.589000
  0
POLYLINE
  8
0
  6
CONTINUOUS
 66
     1
 40
0.000000
 41
0.000000
  0
VERTEX
  8
0
  6
CONTINUOUS
 10
3.547280
 20
6.288480
  0
VERTEX
  8
0
  6
CONTINUOUS
 10
4.190560
 20
6.669520
  0
VERTEX
  8
0
  6
CONTINUOUS
 10
4.199360
 20
6.589000
  0
VERTEX
  8
0
  6
CONTINUOUS
 10
3.556520
 20
6.207960
  0
VERTEX
  8
0
  6
CONTINUOUS
 10
3.547280
 20
6.288480
  0
SEQEND
  8
0
  0
SOLID
  8
0
 62
    15
 10
3.556520
 20
6.207960
 11
4.199360
 21
6.589000
 12
3.575000
 22
6.121280
 13
4.217840
 23
6.502320
  0
POLYLINE
  8
0
  6
CONTINUOUS
 66
     1
 40
0.000000
 41
0.000000
  0
VERTEX
  8
0
  6
CONTINUOUS
 10
3.556520
 20
6.207960
  0
VERTEX
  8
0
  6
CONTINUOUS
 10
4.199360
 20
6.589000
  0
VERTEX
  8
0
  6
CONTINUOUS
 10
4.217840
 20
6.502320
  0
VERTEX
  8
0
  6
CONTINUOUS
 10
3.575000
 20
6.121280
  0
VERTEX
  8
0
  6
CONTINUOUS
 10
3.556520
 20
6.207960
  0
SEQEND
  8
0
  0
SOLID
  8
0
 62
    15
 10
3.575000
 20
6.121280
 11
4.217840
 21
6.502320
 12
3.603600
 22
6.028440
 13
4.246440
 23
6.409040
  0
POLYLINE
  8
0
  6
CONTINUOUS
 66
     1
 40
0.000000
 41
0.000000
  0
VERTEX
  8
0
  6
CONTINUOUS
 10
3.575000
 20
6.121280
  0
VERTEX
  8
0
  6
CONTINUOUS
 10
4.217840
 20
6.502320
  0
VERTEX
  8
0
  6
CONTINUOUS
 10
4.246440
 20
6.409040
  0
VERTEX
  8
0
  6
CONTINUOUS
 10
3.603600
 20
6.028440
  0
VERTEX
  8
0
  6
CONTINUOUS
 10
3.575000
 20
6.121280
  0
SEQEND
  8
0
  0
SOLID
  8
0
 62
    15
 10
3.603600
 20
6.028440
 11
4.246440
 21
6.409040
 12
3.642320
 22
5.928560
 13
4.285600
 23
6.309600
  0
POLYLINE
  8
0
  6
CONTINUOUS
 66
     1
 40
0.000000
 41
0.000000
  0
VERTEX
  8
0
  6
CONTINUOUS
 10
3.603600
 20
6.028440
  0
VERTEX
  8
0
  6
CONTINUOUS
 10
4.246440
 20
6.409040
  0
VERTEX
  8
0
  6
CONTINUOUS
 10
4.285600
 20
6.309600
  0
VERTEX
  8
0
  6
CONTINUOUS
 10
3.642320
 20
5.928560
  0
VERTEX
  8
0
  6
CONTINUOUS
 10
3.603600
 20
6.028440
  0
SEQEND
  8
0
  0
SOLID
  8
0
 62
    15
 10
3.642320
 20
5.928560
 11
4.285600
 21
6.309600
 12
3.692480
 22
5.822520
 13
4.335320
 23
6.203560
  0
POLYLINE
  8
0
  6
CONTINUOUS
 66
     1
 40
0.000000
 41
0.000000
  0
VERTEX
  8
0
  6
CONTINUOUS
 10
3.642320
 20
5.928560
  0
VERTEX
  8
0
  6
CONTINUOUS
 10
4.285600
 20
6.309600
  0
VERTEX
  8
0
  6
CONTINUOUS
 10
4.335320
 20
6.203560
  0
VERTEX
  8
0
  6
CONTINUOUS
 10
3.692480
 20
5.822520
  0
VERTEX
  8
0
  6
CONTINUOUS
 10
3.642320
 20
5.928560
  0
SEQEND
  8
0
  0
SOLID
  8
0
 62
    15
 10
3.692480
 20
5.822520
 11
4.335320
 21
6.203560
 12
3.753640
 22
5.709000
 13
4.396920
 23
6.090040
  0
POLYLINE
  8
0
  6
CONTINUOUS
 66
     1
 40
0.000000
 41
0.000000
  0
VERTEX
  8
0
  6
CONTINUOUS
 10
3.692480
 20
5.822520
  0
VERTEX
  8
0
  6
CONTINUOUS
 10
4.335320
 20
6.203560
  0
VERTEX
  8
0
  6
CONTINUOUS
 10
4.396920
 20
6.090040
  0
VERTEX
  8
0
  6
CONTINUOUS
 10
3.753640
 20
5.709000
  0
VERTEX
  8
0
  6
CONTINUOUS
 10
3.692480
 20
5.822520
  0
SEQEND
  8
0
  0
SOLID
  8
0
 62
    15
 10
3.292080
 20
7.718480
 11
3.934920
 21
8.099080
 12
3.520440
 22
7.718480
 13
4.163280
 23
8.099080
  0
POLYLINE
  8
0
  6
CONTINUOUS
 66
     1
 40
0.000000
 41
0.000000
  0
VERTEX
  8
0
  6
CONTINUOUS
 10
3.292080
 20
7.718480
  0
VERTEX
  8
0
  6
CONTINUOUS
 10
3.934920
 20
8.099080
  0
VERTEX
  8
0
  6
CONTINUOUS
 10
4.163280
 20
8.099080
  0
VERTEX
  8
0
  6
CONTINUOUS
 10
3.520440
 20
7.718480
  0
VERTEX
  8
0
  6
CONTINUOUS
 10
3.292080
 20
7.718480
  0
SEQEND
  8
0
  0
SOLID
  8
0
 62
    15
 10
3.827120
 20
5.588880
 11
4.469960
 21
5.969920
 12
3.901920
 22
5.467000
 13
4.544760
 23
5.847600
  0
POLYLINE
  8
0
  6
CONTINUOUS
 66
     1
 40
0.000000
 41
0.000000
  0
VERTEX
  8
0
  6
CONTINUOUS
 10
3.827120
 20
5.588880
  0
VERTEX
  8
0
  6
CONTINUOUS
 10
4.469960
 20
5.969920
  0
VERTEX
  8
0
  6
CONTINUOUS
 10
4.544760
 20
5.847600
  0
VERTEX
  8
0
  6
CONTINUOUS
 10
3.901920
 20
5.467000
  0
VERTEX
  8
0
  6
CONTINUOUS
 10
3.827120
 20
5.588880
  0
SEQEND
  8
0
  0
SOLID
  8
0
 62
    15
 10
3.901920
 20
5.467000
 11
4.544760
 21
5.847600
 12
3.967920
 22
5.349080
 13
4.610760
 23
5.730120
  0
POLYLINE
  8
0
  6
CONTINUOUS
 66
     1
 40
0.000000
 41
0.000000
  0
VERTEX
  8
0
  6
CONTINUOUS
 10
3.901920
 20
5.467000
  0
VERTEX
  8
0
  6
CONTINUOUS
 10
4.544760
 20
5.847600
  0
VERTEX
  8
0
  6
CONTINUOUS
 10
4.610760
 20
5.730120
  0
VERTEX
  8
0
  6
CONTINUOUS
 10
3.967920
 20
5.349080
  0
VERTEX
  8
0
  6
CONTINUOUS
 10
3.901920
 20
5.467000
  0
SEQEND
  8
0
  0
SOLID
  8
0
 62
    15
 10
3.967920
 20
5.349080
 11
4.610760
 21
5.730120
 12
4.024680
 22
5.236000
 13
4.667520
 23
5.617040
  0
POLYLINE
  8
0
  6
CONTINUOUS
 66
     1
 40
0.000000
 41
0.000000
  0
VERTEX
  8
0
  6
CONTINUOUS
 10
3.967920
 20
5.349080
  0
VERTEX
  8
0
  6
CONTINUOUS
 10
4.610760
 20
5.730120
  0
VERTEX
  8
0
  6
CONTINUOUS
 10
4.667520
 20
5.617040
  0
VERTEX
  8
0
  6
CONTINUOUS
 10
4.024680
 20
5.236000
  0
VERTEX
  8
0
  6
CONTINUOUS
 10
3.967920
 20
5.349080
  0
SEQEND
  8
0
  0
SOLID
  8
0
 62
    15
 10
4.024680
 20
5.236000
 11
4.667520
 21
5.617040
 12
4.072640
 22
5.127760
 13
4.715480
 23
5.508360
  0
POLYLINE
  8
0
  6
CONTINUOUS
 66
     1
 40
0.000000
 41
0.000000
  0
VERTEX
  8
0
  6
CONTINUOUS
 10
4.024680
 20
5.236000
  0
VERTEX
  8
0
  6
CONTINUOUS
 10
4.667520
 20
5.617040
  0
VERTEX
  8
0
  6
CONTINUOUS
 10
4.715480
 20
5.508360
  0
VERTEX
  8
0
  6
CONTINUOUS
 10
4.072640
 20
5.127760
  0
VERTEX
  8
0
  6
CONTINUOUS
 10
4.024680
 20
5.236000
  0
SEQEND
  8
0
  0
SOLID
  8
0
 62
    15
 10
4.072640
 20
5.127760
 11
4.715480
 21
5.508360
 12
4.111360
 22
5.024360
 13
4.754200
 23
5.405400
  0
POLYLINE
  8
0
  6
CONTINUOUS
 66
     1
 40
0.000000
 41
0.000000
  0
VERTEX
  8
0
  6
CONTINUOUS
 10
4.072640
 20
5.127760
  0
VERTEX
  8
0
  6
CONTINUOUS
 10
4.715480
 20
5.508360
  0
VERTEX
  8
0
  6
CONTINUOUS
 10
4.754200
 20
5.405400
  0
VERTEX
  8
0
  6
CONTINUOUS
 10
4.111360
 20
5.024360
  0
VERTEX
  8
0
  6
CONTINUOUS
 10
4.072640
 20
5.127760
  0
SEQEND
  8
0
  0
SOLID
  8
0
 62
    15
 10
4.111360
 20
5.024360
 11
4.754200
 21
5.405400
 12
4.140840
 22
4.926680
 13
4.783680
 23
5.307720
  0
POLYLINE
  8
0
  6
CONTINUOUS
 66
     1
 40
0.000000
 41
0.000000
  0
VERTEX
  8
0
  6
CONTINUOUS
 10
4.111360
 20
5.024360
  0
VERTEX
  8
0
  6
CONTINUOUS
 10
4.754200
 20
5.405400
  0
VERTEX
  8
0
  6
CONTINUOUS
 10
4.783680
 20
5.307720
  0
VERTEX
  8
0
  6
CONTINUOUS
 10
4.140840
 20
4.926680
  0
VERTEX
  8
0
  6
CONTINUOUS
 10
4.111360
 20
5.024360
  0
SEQEND
  8
0
  0
SOLID
  8
0
 62
    15
 10
4.140840
 20
4.926680
 11
4.783680
 21
5.307720
 12
4.160640
 22
4.834720
 13
4.803480
 23
5.215320
  0
POLYLINE
  8
0
  6
CONTINUOUS
 66
     1
 40
0.000000
 41
0.000000
  0
VERTEX
  8
0
  6
CONTINUOUS
 10
4.140840
 20
4.926680
  0
VERTEX
  8
0
  6
CONTINUOUS
 10
4.783680
 20
5.307720
  0
VERTEX
  8
0
  6
CONTINUOUS
 10
4.803480
 20
5.215320
  0
VERTEX
  8
0
  6
CONTINUOUS
 10
4.160640
 20
4.834720
  0
VERTEX
  8
0
  6
CONTINUOUS
 10
4.140840
 20
4.926680
  0
SEQEND
  8
0
  0
SOLID
  8
0
 62
    15
 10
4.160640
 20
4.834720
 11
4.803480
 21
5.215320
 12
4.171200
 22
4.748480
 13
4.814040
 23
5.129520
  0
POLYLINE
  8
0
  6
CONTINUOUS
 66
     1
 40
0.000000
 41
0.000000
  0
VERTEX
  8
0
  6
CONTINUOUS
 10
4.160640
 20
4.834720
  0
VERTEX
  8
0
  6
CONTINUOUS
 10
4.803480
 20
5.215320
  0
VERTEX
  8
0
  6
CONTINUOUS
 10
4.814040
 20
5.129520
  0
VERTEX
  8
0
  6
CONTINUOUS
 10
4.171200
 20
4.748480
  0
VERTEX
  8
0
  6
CONTINUOUS
 10
4.160640
 20
4.834720
  0
SEQEND
  8
0
  0
SOLID
  8
0
 62
    15
 10
4.171200
 20
4.748480
 11
4.814040
 21
5.129520
 12
4.171640
 22
4.668400
 13
4.814480
 23
5.049440
  0
POLYLINE
  8
0
  6
CONTINUOUS
 66
     1
 40
0.000000
 41
0.000000
  0
VERTEX
  8
0
  6
CONTINUOUS
 10
4.171200
 20
4.748480
  0
VERTEX
  8
0
  6
CONTINUOUS
 10
4.814040
 20
5.129520
  0
VERTEX
  8
0
  6
CONTINUOUS
 10
4.814480
 20
5.049440
  0
VERTEX
  8
0
  6
CONTINUOUS
 10
4.171640
 20
4.668400
  0
VERTEX
  8
0
  6
CONTINUOUS
 10
4.171200
 20
4.748480
  0
SEQEND
  8
0
  0
SOLID
  8
0
 62
    15
 10
4.171640
 20
4.668400
 11
4.814480
 21
5.049440
 12
4.162400
 22
4.595360
 13
4.805680
 23
4.975960
  0
POLYLINE
  8
0
  6
CONTINUOUS
 66
     1
 40
0.000000
 41
0.000000
  0
VERTEX
  8
0
  6
CONTINUOUS
 10
4.171640
 20
4.668400
  0
VERTEX
  8
0
  6
CONTINUOUS
 10
4.814480
 20
5.049440
  0
VERTEX
  8
0
  6
CONTINUOUS
 10
4.805680
 20
4.975960
  0
VERTEX
  8
0
  6
CONTINUOUS
 10
4.162400
 20
4.595360
  0
VERTEX
  8
0
  6
CONTINUOUS
 10
4.171640
 20
4.668400
  0
SEQEND
  8
0
  0
SOLID
  8
0
 62
    15
 10
4.162400
 20
4.595360
 11
4.805680
 21
4.975960
 12
4.143480
 22
4.528480
 13
4.786320
 23
4.909520
  0
POLYLINE
  8
0
  6
CONTINUOUS
 66
     1
 40
0.000000
 41
0.000000
  0
VERTEX
  8
0
  6
CONTINUOUS
 10
4.162400
 20
4.595360
  0
VERTEX
  8
0
  6
CONTINUOUS
 10
4.805680
 20
4.975960
  0
VERTEX
  8
0
  6
CONTINUOUS
 10
4.786320
 20
4.909520
  0
VERTEX
  8
0
  6
CONTINUOUS
 10
4.143480
 20
4.528480
  0
VERTEX
  8
0
  6
CONTINUOUS
 10
4.162400
 20
4.595360
  0
SEQEND
  8
0
  0
SOLID
  8
0
 62
    15
 10
4.143480
 20
4.528480
 11
4.786320
 21
4.909520
 12
4.114440
 22
4.469080
 13
4.757720
 23
4.850120
  0
POLYLINE
  8
0
  6
CONTINUOUS
 66
     1
 40
0.000000
 41
0.000000
  0
VERTEX
  8
0
  6
CONTINUOUS
 10
4.143480
 20
4.528480
  0
VERTEX
  8
0
  6
CONTINUOUS
 10
4.786320
 20
4.909520
  0
VERTEX
  8
0
  6
CONTINUOUS
 10
4.757720
 20
4.850120
  0
VERTEX
  8
0
  6
CONTINUOUS
 10
4.114440
 20
4.469080
  0
VERTEX
  8
0
  6
CONTINUOUS
 10
4.143480
 20
4.528480
  0
SEQEND
  8
0
  0
SOLID
  8
0
 62
    15
 10
3.895760
 20
4.307600
 11
4.538600
 21
4.688200
 12
3.895760
 22
3.918200
 13
4.538600
 23
4.298800
  0
POLYLINE
  8
0
  6
CONTINUOUS
 66
     1
 40
0.000000
 41
0.000000
  0
VERTEX
  8
0
  6
CONTINUOUS
 10
3.895760
 20
4.307600
  0
VERTEX
  8
0
  6
CONTINUOUS
 10
4.538600
 20
4.688200
  0
VERTEX
  8
0
  6
CONTINUOUS
 10
4.538600
 20
4.298800
  0
VERTEX
  8
0
  6
CONTINUOUS
 10
3.895760
 20
3.918200
  0
VERTEX
  8
0
  6
CONTINUOUS
 10
3.895760
 20
4.307600
  0
SEQEND
  8
0
  0
SOLID
  8
0
 62
    15
 10
4.075280
 20
4.417160
 11
4.718120
 21
4.797760
 12
4.026000
 22
4.372280
 13
4.668840
 23
4.753320
  0
POLYLINE
  8
0
  6
CONTINUOUS
 66
     1
 40
0.000000
 41
0.000000
  0
VERTEX
  8
0
  6
CONTINUOUS
 10
4.075280
 20
4.417160
  0
VERTEX
  8
0
  6
CONTINUOUS
 10
4.718120
 20
4.797760
  0
VERTEX
  8
0
  6
CONTINUOUS
 10
4.668840
 20
4.753320
  0
VERTEX
  8
0
  6
CONTINUOUS
 10
4.026000
 20
4.372280
  0
VERTEX
  8
0
  6
CONTINUOUS
 10
4.075280
 20
4.417160
  0
SEQEND
  8
0
  0
SOLID
  8
0
 62
    15
 10
4.026000
 20
4.372280
 11
4.668840
 21
4.753320
 12
3.966160
 22
4.335760
 13
4.609000
 23
4.716800
  0
POLYLINE
  8
0
  6
CONTINUOUS
 66
     1
 40
0.000000
 41
0.000000
  0
VERTEX
  8
0
  6
CONTINUOUS
 10
4.026000
 20
4.372280
  0
VERTEX
  8
0
  6
CONTINUOUS
 10
4.668840
 20
4.753320
  0
VERTEX
  8
0
  6
CONTINUOUS
 10
4.609000
 20
4.716800
  0
VERTEX
  8
0
  6
CONTINUOUS
 10
3.966160
 20
4.335760
  0
VERTEX
  8
0
  6
CONTINUOUS
 10
4.026000
 20
4.372280
  0
SEQEND
  8
0
  0
SOLID
  8
0
 62
    15
 10
4.114440
 20
4.469080
 11
4.757720
 21
4.850120
 12
4.075280
 22
4.417160
 13
4.718120
 23
4.797760
  0
POLYLINE
  8
0
  6
CONTINUOUS
 66
     1
 40
0.000000
 41
0.000000
  0
VERTEX
  8
0
  6
CONTINUOUS
 10
4.114440
 20
4.469080
  0
VERTEX
  8
0
  6
CONTINUOUS
 10
4.757720
 20
4.850120
  0
VERTEX
  8
0
  6
CONTINUOUS
 10
4.718120
 20
4.797760
  0
VERTEX
  8
0
  6
CONTINUOUS
 10
4.075280
 20
4.417160
  0
VERTEX
  8
0
  6
CONTINUOUS
 10
4.114440
 20
4.469080
  0
SEQEND
  8
0
  0
SOLID
  8
0
 62
    15
 10
3.291640
 20
4.169880
 11
3.934480
 21
4.550920
 12
3.292080
 22
4.169880
 13
3.934920
 23
4.550920
  0
POLYLINE
  8
0
  6
CONTINUOUS
 66
     1
 40
0.000000
 41
0.000000
  0
VERTEX
  8
0
  6
CONTINUOUS
 10
3.291640
 20
4.169880
  0
VERTEX
  8
0
  6
CONTINUOUS
 10
3.934480
 20
4.550920
  0
VERTEX
  8
0
  6
CONTINUOUS
 10
3.934920
 20
4.550920
  0
VERTEX
  8
0
  6
CONTINUOUS
 10
3.292080
 20
4.169880
  0
VERTEX
  8
0
  6
CONTINUOUS
 10
3.291640
 20
4.169880
  0
SEQEND
  8
0
  0
POLYLINE
  8
0
  6
CONTINUOUS
 66
     1
 40
0.000000
 41
0.000000
  0
VERTEX
  8
0
  6
CONTINUOUS
 10
3.292080
 20
4.169880
  0
VERTEX
  8
0
  6
CONTINUOUS
 10
3.292080
 20
7.718480
  0
VERTEX
  8
0
  6
CONTINUOUS
 10
3.520440
 20
7.718480
  0
VERTEX
  8
0
  6
CONTINUOUS
 10
3.699960
 20
7.240640
  0
VERTEX
  8
0
  6
CONTINUOUS
 10
3.559160
 20
7.134600
  0
VERTEX
  8
0
  6
CONTINUOUS
 10
3.830200
 20
6.768960
  0
VERTEX
  8
0
  6
CONTINUOUS
 10
3.771680
 20
6.735080
  0
VERTEX
  8
0
  6
CONTINUOUS
 10
3.718880
 20
6.696360
  0
VERTEX
  8
0
  6
CONTINUOUS
 10
3.672680
 20
6.653240
  0
VERTEX
  8
0
  6
CONTINUOUS
 10
3.632640
 20
6.605720
  0
VERTEX
  8
0
  6
CONTINUOUS
 10
3.599640
 20
6.552920
  0
VERTEX
  8
0
  6
CONTINUOUS
 10
3.574560
 20
6.494840
  0
VERTEX
  8
0
  6
CONTINUOUS
 10
3.556960
 20
6.431920
  0
VERTEX
  8
0
  6
CONTINUOUS
 10
3.547720
 20
6.362840
  0
VERTEX
  8
0
  6
CONTINUOUS
 10
3.547280
 20
6.288480
  0
VERTEX
  8
0
  6
CONTINUOUS
 10
3.556520
 20
6.207960
  0
VERTEX
  8
0
  6
CONTINUOUS
 10
3.575000
 20
6.121280
  0
VERTEX
  8
0
  6
CONTINUOUS
 10
3.603600
 20
6.028440
  0
VERTEX
  8
0
  6
CONTINUOUS
 10
3.642320
 20
5.928560
  0
VERTEX
  8
0
  6
CONTINUOUS
 10
3.692480
 20
5.822520
  0
VERTEX
  8
0
  6
CONTINUOUS
 10
3.753640
 20
5.709000
  0
VERTEX
  8
0
  6
CONTINUOUS
 10
3.827120
 20
5.588880
  0
VERTEX
  8
0
  6
CONTINUOUS
 10
3.901920
 20
5.467000
  0
VERTEX
  8
0
  6
CONTINUOUS
 10
3.967920
 20
5.349080
  0
VERTEX
  8
0
  6
CONTINUOUS
 10
4.024680
 20
5.236000
  0
VERTEX
  8
0
  6
CONTINUOUS
 10
4.072640
 20
5.127760
  0
VERTEX
  8
0
  6
CONTINUOUS
 10
4.111360
 20
5.024360
  0
VERTEX
  8
0
  6
CONTINUOUS
 10
4.140840
 20
4.926680
  0
VERTEX
  8
0
  6
CONTINUOUS
 10
4.160640
 20
4.834720
  0
VERTEX
  8
0
  6
CONTINUOUS
 10
4.171200
 20
4.748480
  0
VERTEX
  8
0
  6
CONTINUOUS
 10
4.171640
 20
4.668400
  0
VERTEX
  8
0
  6
CONTINUOUS
 10
4.162400
 20
4.595360
  0
VERTEX
  8
0
  6
CONTINUOUS
 10
4.143480
 20
4.528480
  0
VERTEX
  8
0
  6
CONTINUOUS
 10
4.114440
 20
4.469080
  0
VERTEX
  8
0
  6
CONTINUOUS
 10
4.075280
 20
4.417160
  0
VERTEX
  8
0
  6
CONTINUOUS
 10
4.026000
 20
4.372280
  0
VERTEX
  8
0
  6
CONTINUOUS
 10
3.966160
 20
4.335760
  0
VERTEX
  8
0
  6
CONTINUOUS
 10
3.895760
 20
4.307600
  0
VERTEX
  8
0
  6
CONTINUOUS
 10
3.895760
 20
3.918200
  0
VERTEX
  8
0
  6
CONTINUOUS
 10
3.660360
 20
3.918200
  0
VERTEX
  8
0
  6
CONTINUOUS
 10
3.660360
 20
4.169880
  0
VERTEX
  8
0
  6
CONTINUOUS
 10
3.291640
 20
4.169880
  0
VERTEX
  8
0
  6
CONTINUOUS
 10
3.292080
 20
4.169880
  0
SEQEND
  8
0
  0
TEXT
  8
0
 10
3.712280
 20
3.612400
 40
0.137983
  1
BA  1286
 41
1.000000
  7
SN0
 71
     0
 72
     5
 11
4.394778
 21
3.612400
  0
TEXT
  8
0
 10
3.510320
 20
3.421000
 40
0.137983
  1
7/8" x 3-13/16"
 41
1.000000
  7
SN0
 71
     0
 72
     5
 11
4.595661
 21
3.421000
  0
TEXT
  8
0
 10
4.544760
 20
8.756000
 40
0.137983
  1
BA  1286
 41
1.000000
  7
SN0
 71
     0
 72
     5
 11
5.227258
 21
8.756000
  0
TEXT
  8
0
 10
4.342800
 20
8.564600
 40
0.137983
  1
7/8" x 3-13/16"
 41
1.000000
  7
SN0
 71
     0
 72
     5
 11
5.428141
 21
8.564600
  0
ENDSEC
  0
EOF
