  0
SECTION
  2
HEADER
  9
$ACADVER
  1
AC1006
  9
$EXTMIN
 10
3.389320
 20
3.479520
  9
$EXTMAX
 10
5.482840
 20
7.365600
  9
$LTSCALE
 40
0.044000
  9
$PDMODE
 70
    35
  9
$PDSIZE
 40
0.035200
  0
ENDSEC
  0
SECTION
  2
TABLES
  0
TABLE
  2
LTYPE
 70
     9
  0
LTYPE
  2
CONTINUOUS
 70
    64
  3
Solid line
 72
    65
 73
     0
 40
0.000000
  0
LTYPE
  2
DASHED
 70
    64
  3
__ __ __ __ __ __ __ __ __ __ __ __ __ __ __
 72
    65
 73
     2
 40
0.000330
 49
0.000220
 49
-0.000110
  0
LTYPE
  2
HIDDEN
 70
    64
  3
 _ _ _ _ _ _ _ _ _ _ _ _ _ _ _ _ _ _ _ _ _ _
 72
    65
 73
     2
 40
0.000165
 49
0.000110
 49
-0.000055
  0
LTYPE
  2
CENTER
 70
    64
  3
____ _ ____ _ ____ _ ____ _ ____ _ ____ _ ____
 72
    65
 73
     4
 40
0.000880
 49
0.000550
 49
-0.000110
 49
0.000110
 49
-0.000110
  0
LTYPE
  2
PHANTOM
 70
    64
  3
_____ _ _ _____ _ _ _____ _ _ _____ _ _ ____
 72
    65
 73
     6
 40
0.001100
 49
0.000550
 49
-0.000110
 49
0.000110
 49
-0.000110
 49
0.000110
 49
-0.000110
  0
LTYPE
  2
DOT
 70
    64
  3
...............................................
 72
    65
 73
     2
 40
0.000110
 49
0.000000
 49
-0.000110
  0
LTYPE
  2
DASHDOT
 70
    64
  3
__ . __ . __ . __ . __ . __ . __ . __ . __ . __
 72
    65
 73
     4
 40
0.000440
 49
0.000220
 49
-0.000110
 49
0.000000
 49
-0.000110
  0
LTYPE
  2
BORDER
 70
    64
  3
__ __ . __ __ . __ __ . __ __ . __ __ . __ __
 72
    65
 73
     6
 40
0.000770
 49
0.000220
 49
-0.000110
 49
0.000220
 49
-0.000110
 49
0.000000
 49
-0.000110
  0
LTYPE
  2
DIVIDE
 70
    64
  3
__ . . __ . . __ . . __ . . __ . . __ . . __
 72
    65
 73
     6
 40
0.000550
 49
0.000220
 49
-0.000110
 49
0.000000
 49
-0.000110
 49
0.000000
 49
-0.000110
  0
LTYPE
  2
DOTDOT
 70
    64
  3
 . .  . .  . .  . .  . .  . . 
 72
    65
 73
     5
 40
0.000242
 49
-0.000110
 49
0.000000
 49
-0.000110
 49
0.000000
 49
-0.000110
  0
ENDTAB
  0
TABLE
  2
STYLE
 70
     2
  0
STYLE
 70
     0
  2
SN0
 40
0.000000
 41
0.000440
 50
0.000000
 71
     0
 42
0.000000
  3
ROMAND
  0
STYLE
 70
    68
  2
SV0
 40
0.000000
 41
0.000440
 50
0.000000
 71
     0
 42
0.000000
  3
ROMAND
  0
ENDTAB
  0
TABLE
  2
LAYER
 70
     3
  0
LAYER
  2
FOREGROUND
 70
    64
 62
     7
  6
CONTINUOUS
  0
LAYER
  2
BACKGROUND
 70
    65
 62
    -7
  6
CONTINUOUS
  0
LAYER
  2
0
 70
    64
 62
     7
  6
CONTINUOUS
  0
ENDTAB
  0
ENDSEC
  0
SECTION
  2
ENTITIES
  0
POLYLINE
  8
FOREGROUND
  6
CONTINUOUS
 66
     1
 40
0.000000
 41
0.000000
  0
VERTEX
  8
FOREGROUND
  6
CONTINUOUS
 10
0.000000
 20
10.845120
  0
VERTEX
  8
FOREGROUND
  6
CONTINUOUS
 10
8.499920
 20
10.845120
  0
VERTEX
  8
FOREGROUND
  6
CONTINUOUS
 10
8.499920
 20
-0.154880
  0
VERTEX
  8
FOREGROUND
  6
CONTINUOUS
 10
0.000000
 20
-0.154880
  0
VERTEX
  8
FOREGROUND
  6
CONTINUOUS
 10
0.000000
 20
10.845120
  0
SEQEND
  8
0
  0
POLYLINE
  8
FOREGROUND
  6
CONTINUOUS
 66
     1
 40
0.000000
 41
0.000000
  0
VERTEX
  8
FOREGROUND
  6
CONTINUOUS
 10
0.000000
 20
10.845120
  0
VERTEX
  8
FOREGROUND
  6
CONTINUOUS
 10
8.499920
 20
10.845120
  0
VERTEX
  8
FOREGROUND
  6
CONTINUOUS
 10
8.499920
 20
-0.154880
  0
VERTEX
  8
FOREGROUND
  6
CONTINUOUS
 10
0.000000
 20
-0.154880
  0
VERTEX
  8
FOREGROUND
  6
CONTINUOUS
 10
0.000000
 20
10.845120
  0
SEQEND
  8
0
  0
POLYLINE
  8
0
  6
CONTINUOUS
 66
     1
 40
0.014080
 41
0.014080
  0
VERTEX
  8
0
  6
CONTINUOUS
 10
4.768720
 20
7.070360
  0
VERTEX
  8
0
  6
CONTINUOUS
 10
4.048880
 20
7.338320
  0
VERTEX
  8
0
  6
CONTINUOUS
 10
4.029960
 20
7.344480
  0
VERTEX
  8
0
  6
CONTINUOUS
 10
4.010160
 20
7.349320
  0
VERTEX
  8
0
  6
CONTINUOUS
 10
3.990360
 20
7.353280
  0
VERTEX
  8
0
  6
CONTINUOUS
 10
3.970560
 20
7.356360
  0
VERTEX
  8
0
  6
CONTINUOUS
 10
3.950320
 20
7.357680
  0
VERTEX
  8
0
  6
CONTINUOUS
 10
3.930520
 20
7.357680
  0
VERTEX
  8
0
  6
CONTINUOUS
 10
3.911160
 20
7.355480
  0
VERTEX
  8
0
  6
CONTINUOUS
 10
3.892240
 20
7.351520
  0
VERTEX
  8
0
  6
CONTINUOUS
 10
3.883440
 20
7.348440
  0
VERTEX
  8
0
  6
CONTINUOUS
 10
3.874200
 20
7.344920
  0
VERTEX
  8
0
  6
CONTINUOUS
 10
3.865840
 20
7.340960
  0
VERTEX
  8
0
  6
CONTINUOUS
 10
3.857480
 20
7.336560
  0
VERTEX
  8
0
  6
CONTINUOUS
 10
3.849120
 20
7.331280
  0
VERTEX
  8
0
  6
CONTINUOUS
 10
3.841640
 20
7.325120
  0
VERTEX
  8
0
  6
CONTINUOUS
 10
3.834160
 20
7.318520
  0
VERTEX
  8
0
  6
CONTINUOUS
 10
3.827120
 20
7.311040
  0
VERTEX
  8
0
  6
CONTINUOUS
 10
3.820520
 20
7.303120
  0
VERTEX
  8
0
  6
CONTINUOUS
 10
3.813920
 20
7.294320
  0
VERTEX
  8
0
  6
CONTINUOUS
 10
3.808200
 20
7.284640
  0
VERTEX
  8
0
  6
CONTINUOUS
 10
3.802920
 20
7.274080
  0
VERTEX
  8
0
  6
CONTINUOUS
 10
3.798080
 20
7.262640
  0
VERTEX
  8
0
  6
CONTINUOUS
 10
3.793680
 20
7.250320
  0
VERTEX
  8
0
  6
CONTINUOUS
 10
3.789720
 20
7.237560
  0
VERTEX
  8
0
  6
CONTINUOUS
 10
3.786640
 20
7.223480
  0
VERTEX
  8
0
  6
CONTINUOUS
 10
3.713600
 20
7.223920
  0
VERTEX
  8
0
  6
CONTINUOUS
 10
3.713600
 20
6.909320
  0
VERTEX
  8
0
  6
CONTINUOUS
 10
5.158560
 20
6.909320
  0
VERTEX
  8
0
  6
CONTINUOUS
 10
5.159000
 20
6.909320
  0
VERTEX
  8
0
  6
CONTINUOUS
 10
5.159000
 20
7.159240
  0
VERTEX
  8
0
  6
CONTINUOUS
 10
4.791600
 20
7.159240
  0
VERTEX
  8
0
  6
CONTINUOUS
 10
4.768720
 20
7.070360
  0
SEQEND
  8
0
  0
POLYLINE
  8
0
  6
CONTINUOUS
 66
     1
 40
0.000000
 41
0.000000
  0
VERTEX
  8
0
  6
CONTINUOUS
 10
4.103880
 20
3.640560
  0
VERTEX
  8
0
  6
CONTINUOUS
 10
4.823720
 20
3.908520
  0
VERTEX
  8
0
  6
CONTINUOUS
 10
4.842640
 20
3.914680
  0
VERTEX
  8
0
  6
CONTINUOUS
 10
4.862440
 20
3.919520
  0
VERTEX
  8
0
  6
CONTINUOUS
 10
4.882240
 20
3.923920
  0
VERTEX
  8
0
  6
CONTINUOUS
 10
4.902040
 20
3.926560
  0
VERTEX
  8
0
  6
CONTINUOUS
 10
4.922280
 20
3.927880
  0
VERTEX
  8
0
  6
CONTINUOUS
 10
4.942080
 20
3.927880
  0
VERTEX
  8
0
  6
CONTINUOUS
 10
4.961440
 20
3.925680
  0
VERTEX
  8
0
  6
CONTINUOUS
 10
4.979920
 20
3.921720
  0
VERTEX
  8
0
  6
CONTINUOUS
 10
4.989160
 20
3.919080
  0
VERTEX
  8
0
  6
CONTINUOUS
 10
4.997960
 20
3.915560
  0
VERTEX
  8
0
  6
CONTINUOUS
 10
5.006760
 20
3.911600
  0
VERTEX
  8
0
  6
CONTINUOUS
 10
5.015120
 20
3.906760
  0
VERTEX
  8
0
  6
CONTINUOUS
 10
5.023040
 20
3.901480
  0
VERTEX
  8
0
  6
CONTINUOUS
 10
5.030960
 20
3.895760
  0
VERTEX
  8
0
  6
CONTINUOUS
 10
5.038440
 20
3.889160
  0
VERTEX
  8
0
  6
CONTINUOUS
 10
5.045480
 20
3.881680
  0
VERTEX
  8
0
  6
CONTINUOUS
 10
5.052080
 20
3.873760
  0
VERTEX
  8
0
  6
CONTINUOUS
 10
5.058240
 20
3.864960
  0
VERTEX
  8
0
  6
CONTINUOUS
 10
5.064400
 20
3.855280
  0
VERTEX
  8
0
  6
CONTINUOUS
 10
5.069680
 20
3.844720
  0
VERTEX
  8
0
  6
CONTINUOUS
 10
5.074520
 20
3.833280
  0
VERTEX
  8
0
  6
CONTINUOUS
 10
5.078920
 20
3.820960
  0
VERTEX
  8
0
  6
CONTINUOUS
 10
5.082880
 20
3.808200
  0
VERTEX
  8
0
  6
CONTINUOUS
 10
5.085960
 20
3.794120
  0
VERTEX
  8
0
  6
CONTINUOUS
 10
5.159000
 20
3.794560
  0
VERTEX
  8
0
  6
CONTINUOUS
 10
5.159000
 20
3.479520
  0
VERTEX
  8
0
  6
CONTINUOUS
 10
3.714040
 20
3.479520
  0
VERTEX
  8
0
  6
CONTINUOUS
 10
3.713600
 20
3.479520
  0
VERTEX
  8
0
  6
CONTINUOUS
 10
3.713600
 20
3.729880
  0
VERTEX
  8
0
  6
CONTINUOUS
 10
4.081000
 20
3.729880
  0
VERTEX
  8
0
  6
CONTINUOUS
 10
4.103880
 20
3.640560
  0
SEQEND
  8
0
  0
POLYLINE
  8
0
  6
CONTINUOUS
 66
     1
 40
0.000000
 41
0.000000
  0
VERTEX
  8
0
  6
CONTINUOUS
 10
4.768720
 20
4.287800
  0
VERTEX
  8
0
  6
CONTINUOUS
 10
4.048880
 20
4.555760
  0
VERTEX
  8
0
  6
CONTINUOUS
 10
4.029960
 20
4.561920
  0
VERTEX
  8
0
  6
CONTINUOUS
 10
4.010160
 20
4.566760
  0
VERTEX
  8
0
  6
CONTINUOUS
 10
3.990360
 20
4.570720
  0
VERTEX
  8
0
  6
CONTINUOUS
 10
3.970560
 20
4.573800
  0
VERTEX
  8
0
  6
CONTINUOUS
 10
3.950320
 20
4.575120
  0
VERTEX
  8
0
  6
CONTINUOUS
 10
3.930520
 20
4.575120
  0
VERTEX
  8
0
  6
CONTINUOUS
 10
3.911160
 20
4.572920
  0
VERTEX
  8
0
  6
CONTINUOUS
 10
3.892240
 20
4.568960
  0
VERTEX
  8
0
  6
CONTINUOUS
 10
3.883440
 20
4.565880
  0
VERTEX
  8
0
  6
CONTINUOUS
 10
3.874200
 20
4.562360
  0
VERTEX
  8
0
  6
CONTINUOUS
 10
3.865840
 20
4.558400
  0
VERTEX
  8
0
  6
CONTINUOUS
 10
3.857480
 20
4.554000
  0
VERTEX
  8
0
  6
CONTINUOUS
 10
3.849120
 20
4.548720
  0
VERTEX
  8
0
  6
CONTINUOUS
 10
3.841640
 20
4.542560
  0
VERTEX
  8
0
  6
CONTINUOUS
 10
3.834160
 20
4.535960
  0
VERTEX
  8
0
  6
CONTINUOUS
 10
3.827120
 20
4.528480
  0
VERTEX
  8
0
  6
CONTINUOUS
 10
3.820520
 20
4.520560
  0
VERTEX
  8
0
  6
CONTINUOUS
 10
3.813920
 20
4.511760
  0
VERTEX
  8
0
  6
CONTINUOUS
 10
3.808200
 20
4.502080
  0
VERTEX
  8
0
  6
CONTINUOUS
 10
3.802920
 20
4.491520
  0
VERTEX
  8
0
  6
CONTINUOUS
 10
3.798080
 20
4.480080
  0
VERTEX
  8
0
  6
CONTINUOUS
 10
3.793680
 20
4.467760
  0
VERTEX
  8
0
  6
CONTINUOUS
 10
3.789720
 20
4.455000
  0
VERTEX
  8
0
  6
CONTINUOUS
 10
3.786640
 20
4.440920
  0
VERTEX
  8
0
  6
CONTINUOUS
 10
3.713600
 20
4.441360
  0
VERTEX
  8
0
  6
CONTINUOUS
 10
3.713600
 20
4.126760
  0
VERTEX
  8
0
  6
CONTINUOUS
 10
5.158560
 20
4.126760
  0
VERTEX
  8
0
  6
CONTINUOUS
 10
5.159000
 20
4.126760
  0
VERTEX
  8
0
  6
CONTINUOUS
 10
5.159000
 20
4.376680
  0
VERTEX
  8
0
  6
CONTINUOUS
 10
4.791600
 20
4.376680
  0
VERTEX
  8
0
  6
CONTINUOUS
 10
4.768720
 20
4.287800
  0
SEQEND
  8
0
  0
SOLID
  8
0
 62
    15
 10
3.568840
 20
5.731440
 11
4.215640
 21
6.101040
 12
3.587760
 22
5.735400
 13
4.234560
 23
6.105000
  0
POLYLINE
  8
0
  6
CONTINUOUS
 66
     1
 40
0.000000
 41
0.000000
  0
VERTEX
  8
0
  6
CONTINUOUS
 10
3.568840
 20
5.731440
  0
VERTEX
  8
0
  6
CONTINUOUS
 10
4.215640
 20
6.101040
  0
VERTEX
  8
0
  6
CONTINUOUS
 10
4.234560
 20
6.105000
  0
VERTEX
  8
0
  6
CONTINUOUS
 10
3.587760
 20
5.735400
  0
VERTEX
  8
0
  6
CONTINUOUS
 10
3.568840
 20
5.731440
  0
SEQEND
  8
0
  0
SOLID
  8
0
 62
    15
 10
4.835600
 20
5.539600
 11
5.482400
 21
5.909200
 12
4.835600
 22
5.289240
 13
5.482400
 23
5.658840
  0
POLYLINE
  8
0
  6
CONTINUOUS
 66
     1
 40
0.000000
 41
0.000000
  0
VERTEX
  8
0
  6
CONTINUOUS
 10
4.835600
 20
5.539600
  0
VERTEX
  8
0
  6
CONTINUOUS
 10
5.482400
 20
5.909200
  0
VERTEX
  8
0
  6
CONTINUOUS
 10
5.482400
 20
5.658840
  0
VERTEX
  8
0
  6
CONTINUOUS
 10
4.835600
 20
5.289240
  0
VERTEX
  8
0
  6
CONTINUOUS
 10
4.835600
 20
5.539600
  0
SEQEND
  8
0
  0
SOLID
  8
0
 62
    15
 10
3.390200
 20
5.603840
 11
4.037000
 21
5.973880
 12
3.463240
 22
5.603840
 13
4.110040
 23
5.973440
  0
POLYLINE
  8
0
  6
CONTINUOUS
 66
     1
 40
0.000000
 41
0.000000
  0
VERTEX
  8
0
  6
CONTINUOUS
 10
3.390200
 20
5.603840
  0
VERTEX
  8
0
  6
CONTINUOUS
 10
4.037000
 20
5.973880
  0
VERTEX
  8
0
  6
CONTINUOUS
 10
4.110040
 20
5.973440
  0
VERTEX
  8
0
  6
CONTINUOUS
 10
3.463240
 20
5.603840
  0
VERTEX
  8
0
  6
CONTINUOUS
 10
3.390200
 20
5.603840
  0
SEQEND
  8
0
  0
SOLID
  8
0
 62
    15
 10
3.534080
 20
5.716480
 11
4.180880
 21
6.086080
 12
3.550800
 22
5.725280
 13
4.198040
 23
6.094880
  0
POLYLINE
  8
0
  6
CONTINUOUS
 66
     1
 40
0.000000
 41
0.000000
  0
VERTEX
  8
0
  6
CONTINUOUS
 10
3.534080
 20
5.716480
  0
VERTEX
  8
0
  6
CONTINUOUS
 10
4.180880
 20
6.086080
  0
VERTEX
  8
0
  6
CONTINUOUS
 10
4.198040
 20
6.094880
  0
VERTEX
  8
0
  6
CONTINUOUS
 10
3.550800
 20
5.725280
  0
VERTEX
  8
0
  6
CONTINUOUS
 10
3.534080
 20
5.716480
  0
SEQEND
  8
0
  0
SOLID
  8
0
 62
    15
 10
3.550800
 20
5.725280
 11
4.198040
 21
6.094880
 12
3.568840
 22
5.731440
 13
4.215640
 23
6.101040
  0
POLYLINE
  8
0
  6
CONTINUOUS
 66
     1
 40
0.000000
 41
0.000000
  0
VERTEX
  8
0
  6
CONTINUOUS
 10
3.550800
 20
5.725280
  0
VERTEX
  8
0
  6
CONTINUOUS
 10
4.198040
 20
6.094880
  0
VERTEX
  8
0
  6
CONTINUOUS
 10
4.215640
 20
6.101040
  0
VERTEX
  8
0
  6
CONTINUOUS
 10
3.568840
 20
5.731440
  0
VERTEX
  8
0
  6
CONTINUOUS
 10
3.550800
 20
5.725280
  0
SEQEND
  8
0
  0
SOLID
  8
0
 62
    15
 10
3.725480
 20
5.718240
 11
4.372280
 21
6.087840
 12
4.445320
 22
5.450280
 13
5.092120
 23
5.819880
  0
POLYLINE
  8
0
  6
CONTINUOUS
 66
     1
 40
0.000000
 41
0.000000
  0
VERTEX
  8
0
  6
CONTINUOUS
 10
3.725480
 20
5.718240
  0
VERTEX
  8
0
  6
CONTINUOUS
 10
4.372280
 20
6.087840
  0
VERTEX
  8
0
  6
CONTINUOUS
 10
5.092120
 20
5.819880
  0
VERTEX
  8
0
  6
CONTINUOUS
 10
4.445320
 20
5.450280
  0
VERTEX
  8
0
  6
CONTINUOUS
 10
3.725480
 20
5.718240
  0
SEQEND
  8
0
  0
SOLID
  8
0
 62
    15
 10
3.587760
 20
5.735400
 11
4.234560
 21
6.105000
 12
3.607120
 22
5.737600
 13
4.253920
 23
6.107200
  0
POLYLINE
  8
0
  6
CONTINUOUS
 66
     1
 40
0.000000
 41
0.000000
  0
VERTEX
  8
0
  6
CONTINUOUS
 10
3.587760
 20
5.735400
  0
VERTEX
  8
0
  6
CONTINUOUS
 10
4.234560
 20
6.105000
  0
VERTEX
  8
0
  6
CONTINUOUS
 10
4.253920
 20
6.107200
  0
VERTEX
  8
0
  6
CONTINUOUS
 10
3.607120
 20
5.737600
  0
VERTEX
  8
0
  6
CONTINUOUS
 10
3.587760
 20
5.735400
  0
SEQEND
  8
0
  0
SOLID
  8
0
 62
    15
 10
3.607120
 20
5.737600
 11
4.253920
 21
6.107200
 12
3.646720
 22
5.736280
 13
4.293960
 23
6.105880
  0
POLYLINE
  8
0
  6
CONTINUOUS
 66
     1
 40
0.000000
 41
0.000000
  0
VERTEX
  8
0
  6
CONTINUOUS
 10
3.607120
 20
5.737600
  0
VERTEX
  8
0
  6
CONTINUOUS
 10
4.253920
 20
6.107200
  0
VERTEX
  8
0
  6
CONTINUOUS
 10
4.293960
 20
6.105880
  0
VERTEX
  8
0
  6
CONTINUOUS
 10
3.646720
 20
5.736280
  0
VERTEX
  8
0
  6
CONTINUOUS
 10
3.607120
 20
5.737600
  0
SEQEND
  8
0
  0
SOLID
  8
0
 62
    15
 10
3.646720
 20
5.736280
 11
4.293960
 21
6.105880
 12
3.686760
 22
5.729240
 13
4.333560
 23
6.099280
  0
POLYLINE
  8
0
  6
CONTINUOUS
 66
     1
 40
0.000000
 41
0.000000
  0
VERTEX
  8
0
  6
CONTINUOUS
 10
3.646720
 20
5.736280
  0
VERTEX
  8
0
  6
CONTINUOUS
 10
4.293960
 20
6.105880
  0
VERTEX
  8
0
  6
CONTINUOUS
 10
4.333560
 20
6.099280
  0
VERTEX
  8
0
  6
CONTINUOUS
 10
3.686760
 20
5.729240
  0
VERTEX
  8
0
  6
CONTINUOUS
 10
3.646720
 20
5.736280
  0
SEQEND
  8
0
  0
SOLID
  8
0
 62
    15
 10
3.686760
 20
5.729240
 11
4.333560
 21
6.099280
 12
3.725480
 22
5.718240
 13
4.372280
 23
6.087840
  0
POLYLINE
  8
0
  6
CONTINUOUS
 66
     1
 40
0.000000
 41
0.000000
  0
VERTEX
  8
0
  6
CONTINUOUS
 10
3.686760
 20
5.729240
  0
VERTEX
  8
0
  6
CONTINUOUS
 10
4.333560
 20
6.099280
  0
VERTEX
  8
0
  6
CONTINUOUS
 10
4.372280
 20
6.087840
  0
VERTEX
  8
0
  6
CONTINUOUS
 10
3.725480
 20
5.718240
  0
VERTEX
  8
0
  6
CONTINUOUS
 10
3.686760
 20
5.729240
  0
SEQEND
  8
0
  0
SOLID
  8
0
 62
    15
 10
4.468200
 20
5.539600
 11
5.115000
 21
5.909200
 12
4.835600
 22
5.539600
 13
5.482400
 23
5.909200
  0
POLYLINE
  8
0
  6
CONTINUOUS
 66
     1
 40
0.000000
 41
0.000000
  0
VERTEX
  8
0
  6
CONTINUOUS
 10
4.468200
 20
5.539600
  0
VERTEX
  8
0
  6
CONTINUOUS
 10
5.115000
 20
5.909200
  0
VERTEX
  8
0
  6
CONTINUOUS
 10
5.482400
 20
5.909200
  0
VERTEX
  8
0
  6
CONTINUOUS
 10
4.835600
 20
5.539600
  0
VERTEX
  8
0
  6
CONTINUOUS
 10
4.468200
 20
5.539600
  0
SEQEND
  8
0
  0
POLYLINE
  8
0
  6
CONTINUOUS
 66
     1
 40
0.000000
 41
0.000000
  0
VERTEX
  8
0
  6
CONTINUOUS
 10
4.468200
 20
5.539600
  0
VERTEX
  8
0
  6
CONTINUOUS
 10
4.835600
 20
5.539600
  0
VERTEX
  8
0
  6
CONTINUOUS
 10
4.835600
 20
5.289240
  0
VERTEX
  8
0
  6
CONTINUOUS
 10
3.390200
 20
5.289240
  0
VERTEX
  8
0
  6
CONTINUOUS
 10
3.390200
 20
5.603840
  0
VERTEX
  8
0
  6
CONTINUOUS
 10
3.463240
 20
5.603840
  0
VERTEX
  8
0
  6
CONTINUOUS
 10
3.470280
 20
5.630680
  0
VERTEX
  8
0
  6
CONTINUOUS
 10
3.479520
 20
5.654000
  0
VERTEX
  8
0
  6
CONTINUOUS
 10
3.490960
 20
5.674240
  0
VERTEX
  8
0
  6
CONTINUOUS
 10
3.503720
 20
5.691400
  0
VERTEX
  8
0
  6
CONTINUOUS
 10
3.518240
 20
5.705480
  0
VERTEX
  8
0
  6
CONTINUOUS
 10
3.534080
 20
5.716480
  0
VERTEX
  8
0
  6
CONTINUOUS
 10
3.550800
 20
5.725280
  0
VERTEX
  8
0
  6
CONTINUOUS
 10
3.568840
 20
5.731440
  0
VERTEX
  8
0
  6
CONTINUOUS
 10
3.587760
 20
5.735400
  0
VERTEX
  8
0
  6
CONTINUOUS
 10
3.607120
 20
5.737600
  0
VERTEX
  8
0
  6
CONTINUOUS
 10
3.646720
 20
5.736280
  0
VERTEX
  8
0
  6
CONTINUOUS
 10
3.686760
 20
5.729240
  0
VERTEX
  8
0
  6
CONTINUOUS
 10
3.725480
 20
5.718240
  0
VERTEX
  8
0
  6
CONTINUOUS
 10
4.445320
 20
5.450280
  0
VERTEX
  8
0
  6
CONTINUOUS
 10
4.468200
 20
5.539600
  0
SEQEND
  8
0
  0
TEXT
  8
0
 10
4.094200
 20
5.021280
 40
0.138220
  1
BA  1285
 41
1.000000
  7
SN0
 71
     0
 72
     5
 11
4.776984
 21
5.021280
  0
TEXT
  8
0
 10
3.892240
 20
4.819760
 40
0.138220
  1
7/16" x 1-7/16"
 41
1.000000
  7
SN0
 71
     0
 72
     5
 11
4.977428
 21
4.819760
  0
TEXT
  8
0
 10
4.094200
 20
6.553360
 40
0.138220
  1
BA  1285
 41
1.000000
  7
SN0
 71
     0
 72
     5
 11
4.776984
 21
6.553360
  0
TEXT
  8
0
 10
3.892240
 20
6.351840
 40
0.138220
  1
7/16" x 1-7/16"
 41
1.000000
  7
SN0
 71
     0
 72
     5
 11
4.977428
 21
6.351840
  0
ENDSEC
  0
EOF
