  0
SECTION
  2
HEADER
  9
$ACADVER
  1
AC1006
  9
$EXTMIN
 10
1.998040
 20
1.279520
  9
$EXTMAX
 10
5.891160
 20
8.495960
  9
$LTSCALE
 40
0.044000
  9
$PDMODE
 70
    35
  9
$PDSIZE
 40
0.035200
  0
ENDSEC
  0
SECTION
  2
TABLES
  0
TABLE
  2
LTYPE
 70
     9
  0
LTYPE
  2
CONTINUOUS
 70
    64
  3
Solid line
 72
    65
 73
     0
 40
0.000000
  0
LTYPE
  2
DASHED
 70
    64
  3
__ __ __ __ __ __ __ __ __ __ __ __ __ __ __
 72
    65
 73
     2
 40
0.000330
 49
0.000220
 49
-0.000110
  0
LTYPE
  2
HIDDEN
 70
    64
  3
 _ _ _ _ _ _ _ _ _ _ _ _ _ _ _ _ _ _ _ _ _ _
 72
    65
 73
     2
 40
0.000165
 49
0.000110
 49
-0.000055
  0
LTYPE
  2
CENTER
 70
    64
  3
____ _ ____ _ ____ _ ____ _ ____ _ ____ _ ____
 72
    65
 73
     4
 40
0.000880
 49
0.000550
 49
-0.000110
 49
0.000110
 49
-0.000110
  0
LTYPE
  2
PHANTOM
 70
    64
  3
_____ _ _ _____ _ _ _____ _ _ _____ _ _ ____
 72
    65
 73
     6
 40
0.001100
 49
0.000550
 49
-0.000110
 49
0.000110
 49
-0.000110
 49
0.000110
 49
-0.000110
  0
LTYPE
  2
DOT
 70
    64
  3
...............................................
 72
    65
 73
     2
 40
0.000110
 49
0.000000
 49
-0.000110
  0
LTYPE
  2
DASHDOT
 70
    64
  3
__ . __ . __ . __ . __ . __ . __ . __ . __ . __
 72
    65
 73
     4
 40
0.000440
 49
0.000220
 49
-0.000110
 49
0.000000
 49
-0.000110
  0
LTYPE
  2
BORDER
 70
    64
  3
__ __ . __ __ . __ __ . __ __ . __ __ . __ __
 72
    65
 73
     6
 40
0.000770
 49
0.000220
 49
-0.000110
 49
0.000220
 49
-0.000110
 49
0.000000
 49
-0.000110
  0
LTYPE
  2
DIVIDE
 70
    64
  3
__ . . __ . . __ . . __ . . __ . . __ . . __
 72
    65
 73
     6
 40
0.000550
 49
0.000220
 49
-0.000110
 49
0.000000
 49
-0.000110
 49
0.000000
 49
-0.000110
  0
LTYPE
  2
DOTDOT
 70
    64
  3
 . .  . .  . .  . .  . .  . . 
 72
    65
 73
     5
 40
0.000242
 49
-0.000110
 49
0.000000
 49
-0.000110
 49
0.000000
 49
-0.000110
  0
ENDTAB
  0
TABLE
  2
STYLE
 70
     2
  0
STYLE
 70
     0
  2
SN0
 40
0.000000
 41
0.000440
 50
0.000000
 71
     0
 42
0.000000
  3
ROMAND
  0
STYLE
 70
    68
  2
SV0
 40
0.000000
 41
0.000440
 50
0.000000
 71
     0
 42
0.000000
  3
ROMAND
  0
ENDTAB
  0
TABLE
  2
LAYER
 70
     3
  0
LAYER
  2
FOREGROUND
 70
    64
 62
     7
  6
CONTINUOUS
  0
LAYER
  2
BACKGROUND
 70
    65
 62
    -7
  6
CONTINUOUS
  0
LAYER
  2
0
 70
    64
 62
     7
  6
CONTINUOUS
  0
ENDTAB
  0
ENDSEC
  0
SECTION
  2
ENTITIES
  0
POLYLINE
  8
FOREGROUND
  6
CONTINUOUS
 66
     1
 40
0.000000
 41
0.000000
  0
VERTEX
  8
FOREGROUND
  6
CONTINUOUS
 10
0.000000
 20
9.775480
  0
VERTEX
  8
FOREGROUND
  6
CONTINUOUS
 10
8.499920
 20
9.775480
  0
VERTEX
  8
FOREGROUND
  6
CONTINUOUS
 10
8.499920
 20
-1.224520
  0
VERTEX
  8
FOREGROUND
  6
CONTINUOUS
 10
0.000000
 20
-1.224520
  0
VERTEX
  8
FOREGROUND
  6
CONTINUOUS
 10
0.000000
 20
9.775480
  0
SEQEND
  8
0
  0
POLYLINE
  8
FOREGROUND
  6
CONTINUOUS
 66
     1
 40
0.000000
 41
0.000000
  0
VERTEX
  8
FOREGROUND
  6
CONTINUOUS
 10
0.000000
 20
9.775480
  0
VERTEX
  8
FOREGROUND
  6
CONTINUOUS
 10
8.499920
 20
9.775480
  0
VERTEX
  8
FOREGROUND
  6
CONTINUOUS
 10
8.499920
 20
-1.224520
  0
VERTEX
  8
FOREGROUND
  6
CONTINUOUS
 10
0.000000
 20
-1.224520
  0
VERTEX
  8
FOREGROUND
  6
CONTINUOUS
 10
0.000000
 20
9.775480
  0
SEQEND
  8
0
  0
TEXT
  8
0
 10
3.500200
 20
7.109080
 40
0.137929
  1
BA 1284
 41
1.000000
  7
SN0
 71
     0
 72
     5
 11
4.135247
 21
7.109080
  0
TEXT
  8
0
 10
3.293400
 20
6.917240
 40
0.137929
  1
2-1/2" x 2-1/2"
 41
1.000000
  7
SN0
 71
     0
 72
     5
 11
4.340145
 21
6.917240
  0
POLYLINE
  8
0
  6
CONTINUOUS
 66
     1
 40
0.014080
 41
0.014080
  0
VERTEX
  8
0
  6
CONTINUOUS
 10
4.657840
 20
6.734640
  0
VERTEX
  8
0
  6
CONTINUOUS
 10
4.657840
 20
7.349760
  0
VERTEX
  8
0
  6
CONTINUOUS
 10
4.334000
 20
7.377040
  0
VERTEX
  8
0
  6
CONTINUOUS
 10
4.334000
 20
7.461080
  0
VERTEX
  8
0
  6
CONTINUOUS
 10
4.387240
 20
7.487480
  0
VERTEX
  8
0
  6
CONTINUOUS
 10
4.436960
 20
7.519600
  0
VERTEX
  8
0
  6
CONTINUOUS
 10
4.481840
 20
7.556120
  0
VERTEX
  8
0
  6
CONTINUOUS
 10
4.522760
 20
7.597480
  0
VERTEX
  8
0
  6
CONTINUOUS
 10
4.558840
 20
7.642360
  0
VERTEX
  8
0
  6
CONTINUOUS
 10
4.589640
 20
7.691200
  0
VERTEX
  8
0
  6
CONTINUOUS
 10
4.615160
 20
7.743120
  0
VERTEX
  8
0
  6
CONTINUOUS
 10
4.634960
 20
7.797680
  0
VERTEX
  8
0
  6
CONTINUOUS
 10
4.648600
 20
7.854880
  0
VERTEX
  8
0
  6
CONTINUOUS
 10
4.654320
 20
7.893600
  0
VERTEX
  8
0
  6
CONTINUOUS
 10
4.657400
 20
7.933200
  0
VERTEX
  8
0
  6
CONTINUOUS
 10
4.656960
 20
7.980720
  0
VERTEX
  8
0
  6
CONTINUOUS
 10
4.655200
 20
8.008000
  0
VERTEX
  8
0
  6
CONTINUOUS
 10
4.646840
 20
8.061240
  0
VERTEX
  8
0
  6
CONTINUOUS
 10
4.641120
 20
8.087200
  0
VERTEX
  8
0
  6
CONTINUOUS
 10
4.625280
 20
8.137360
  0
VERTEX
  8
0
  6
CONTINUOUS
 10
4.616040
 20
8.161560
  0
VERTEX
  8
0
  6
CONTINUOUS
 10
4.593160
 20
8.208640
  0
VERTEX
  8
0
  6
CONTINUOUS
 10
4.566320
 20
8.252640
  0
VERTEX
  8
0
  6
CONTINUOUS
 10
4.551800
 20
8.273760
  0
VERTEX
  8
0
  6
CONTINUOUS
 10
4.518800
 20
8.313360
  0
VERTEX
  8
0
  6
CONTINUOUS
 10
4.482720
 20
8.349440
  0
VERTEX
  8
0
  6
CONTINUOUS
 10
4.443120
 20
8.382440
  0
VERTEX
  8
0
  6
CONTINUOUS
 10
4.400440
 20
8.411040
  0
VERTEX
  8
0
  6
CONTINUOUS
 10
4.354680
 20
8.435680
  0
VERTEX
  8
0
  6
CONTINUOUS
 10
4.306720
 20
8.455920
  0
VERTEX
  8
0
  6
CONTINUOUS
 10
4.256560
 20
8.471760
  0
VERTEX
  8
0
  6
CONTINUOUS
 10
4.204200
 20
8.482320
  0
VERTEX
  8
0
  6
CONTINUOUS
 10
4.177360
 20
8.485840
  0
VERTEX
  8
0
  6
CONTINUOUS
 10
4.122800
 20
8.488480
  0
VERTEX
  8
0
  6
CONTINUOUS
 10
4.082760
 20
8.487160
  0
VERTEX
  8
0
  6
CONTINUOUS
 10
4.043600
 20
8.482760
  0
VERTEX
  8
0
  6
CONTINUOUS
 10
3.985960
 20
8.470880
  0
VERTEX
  8
0
  6
CONTINUOUS
 10
3.948560
 20
8.459440
  0
VERTEX
  8
0
  6
CONTINUOUS
 10
3.894880
 20
8.437880
  0
VERTEX
  8
0
  6
CONTINUOUS
 10
3.844280
 20
8.410600
  0
VERTEX
  8
0
  6
CONTINUOUS
 10
3.796760
 20
8.378040
  0
VERTEX
  8
0
  6
CONTINUOUS
 10
3.752760
 20
8.340200
  0
VERTEX
  8
0
  6
CONTINUOUS
 10
3.713160
 20
8.297960
  0
VERTEX
  8
0
  6
CONTINUOUS
 10
3.688960
 20
8.267600
  0
VERTEX
  8
0
  6
CONTINUOUS
 10
3.666960
 20
8.235040
  0
VERTEX
  8
0
  6
CONTINUOUS
 10
3.638800
 20
8.182680
  0
VERTEX
  8
0
  6
CONTINUOUS
 10
3.630440
 20
8.164640
  0
VERTEX
  8
0
  6
CONTINUOUS
 10
3.546400
 20
8.164640
  0
VERTEX
  8
0
  6
CONTINUOUS
 10
3.519120
 20
8.488480
  0
VERTEX
  8
0
  6
CONTINUOUS
 10
2.904000
 20
8.488480
  0
VERTEX
  8
0
  6
CONTINUOUS
 10
2.904000
 20
6.732440
  0
VERTEX
  8
0
  6
CONTINUOUS
 10
4.659160
 20
6.732440
  0
VERTEX
  8
0
  6
CONTINUOUS
 10
4.657840
 20
6.734640
  0
SEQEND
  8
0
  0
POLYLINE
  8
0
  6
CONTINUOUS
 66
     1
 40
0.000000
 41
0.000000
  0
VERTEX
  8
0
  6
CONTINUOUS
 10
4.136880
 20
1.281720
  0
VERTEX
  8
0
  6
CONTINUOUS
 10
4.136880
 20
1.896840
  0
VERTEX
  8
0
  6
CONTINUOUS
 10
4.460720
 20
1.924120
  0
VERTEX
  8
0
  6
CONTINUOUS
 10
4.460720
 20
2.008160
  0
VERTEX
  8
0
  6
CONTINUOUS
 10
4.424640
 20
2.025320
  0
VERTEX
  8
0
  6
CONTINUOUS
 10
4.390320
 20
2.044680
  0
VERTEX
  8
0
  6
CONTINUOUS
 10
4.342360
 20
2.078560
  0
VERTEX
  8
0
  6
CONTINUOUS
 10
4.298800
 20
2.116840
  0
VERTEX
  8
0
  6
CONTINUOUS
 10
4.259640
 20
2.159080
  0
VERTEX
  8
0
  6
CONTINUOUS
 10
4.225320
 20
2.205720
  0
VERTEX
  8
0
  6
CONTINUOUS
 10
4.205080
 20
2.238720
  0
VERTEX
  8
0
  6
CONTINUOUS
 10
4.179560
 20
2.290200
  0
VERTEX
  8
0
  6
CONTINUOUS
 10
4.159760
 20
2.344760
  0
VERTEX
  8
0
  6
CONTINUOUS
 10
4.146120
 20
2.401960
  0
VERTEX
  8
0
  6
CONTINUOUS
 10
4.140400
 20
2.440680
  0
VERTEX
  8
0
  6
CONTINUOUS
 10
4.137320
 20
2.480280
  0
VERTEX
  8
0
  6
CONTINUOUS
 10
4.137760
 20
2.528240
  0
VERTEX
  8
0
  6
CONTINUOUS
 10
4.139520
 20
2.555080
  0
VERTEX
  8
0
  6
CONTINUOUS
 10
4.147880
 20
2.608320
  0
VERTEX
  8
0
  6
CONTINUOUS
 10
4.153600
 20
2.634280
  0
VERTEX
  8
0
  6
CONTINUOUS
 10
4.169440
 20
2.684440
  0
VERTEX
  8
0
  6
CONTINUOUS
 10
4.189680
 20
2.732400
  0
VERTEX
  8
0
  6
CONTINUOUS
 10
4.214320
 20
2.778160
  0
VERTEX
  8
0
  6
CONTINUOUS
 10
4.242920
 20
2.820840
  0
VERTEX
  8
0
  6
CONTINUOUS
 10
4.275920
 20
2.860440
  0
VERTEX
  8
0
  6
CONTINUOUS
 10
4.312000
 20
2.896520
  0
VERTEX
  8
0
  6
CONTINUOUS
 10
4.352040
 20
2.929520
  0
VERTEX
  8
0
  6
CONTINUOUS
 10
4.394720
 20
2.958120
  0
VERTEX
  8
0
  6
CONTINUOUS
 10
4.440040
 20
2.982760
  0
VERTEX
  8
0
  6
CONTINUOUS
 10
4.488440
 20
3.003000
  0
VERTEX
  8
0
  6
CONTINUOUS
 10
4.538600
 20
3.018840
  0
VERTEX
  8
0
  6
CONTINUOUS
 10
4.590960
 20
3.029400
  0
VERTEX
  8
0
  6
CONTINUOUS
 10
4.617800
 20
3.032920
  0
VERTEX
  8
0
  6
CONTINUOUS
 10
4.672360
 20
3.035560
  0
VERTEX
  8
0
  6
CONTINUOUS
 10
4.712400
 20
3.034240
  0
VERTEX
  8
0
  6
CONTINUOUS
 10
4.751560
 20
3.029840
  0
VERTEX
  8
0
  6
CONTINUOUS
 10
4.809200
 20
3.017960
  0
VERTEX
  8
0
  6
CONTINUOUS
 10
4.864200
 20
2.999920
  0
VERTEX
  8
0
  6
CONTINUOUS
 10
4.899840
 20
2.984960
  0
VERTEX
  8
0
  6
CONTINUOUS
 10
4.950880
 20
2.957680
  0
VERTEX
  8
0
  6
CONTINUOUS
 10
4.998400
 20
2.925120
  0
VERTEX
  8
0
  6
CONTINUOUS
 10
5.042400
 20
2.887280
  0
VERTEX
  8
0
  6
CONTINUOUS
 10
5.082000
 20
2.845040
  0
VERTEX
  8
0
  6
CONTINUOUS
 10
5.117200
 20
2.798400
  0
VERTEX
  8
0
  6
CONTINUOUS
 10
5.147120
 20
2.747800
  0
VERTEX
  8
0
  6
CONTINUOUS
 10
5.164280
 20
2.711720
  0
VERTEX
  8
0
  6
CONTINUOUS
 10
5.248320
 20
2.711720
  0
VERTEX
  8
0
  6
CONTINUOUS
 10
5.276040
 20
3.035560
  0
VERTEX
  8
0
  6
CONTINUOUS
 10
5.890720
 20
3.035560
  0
VERTEX
  8
0
  6
CONTINUOUS
 10
5.890720
 20
1.279520
  0
VERTEX
  8
0
  6
CONTINUOUS
 10
4.135560
 20
1.279520
  0
VERTEX
  8
0
  6
CONTINUOUS
 10
4.136880
 20
1.281720
  0
SEQEND
  8
0
  0
POLYLINE
  8
0
  6
CONTINUOUS
 66
     1
 40
0.000000
 41
0.000000
  0
VERTEX
  8
0
  6
CONTINUOUS
 10
3.752320
 20
1.339360
  0
VERTEX
  8
0
  6
CONTINUOUS
 10
3.752320
 20
1.954040
  0
VERTEX
  8
0
  6
CONTINUOUS
 10
3.428480
 20
1.981760
  0
VERTEX
  8
0
  6
CONTINUOUS
 10
3.428480
 20
2.065360
  0
VERTEX
  8
0
  6
CONTINUOUS
 10
3.464560
 20
2.082520
  0
VERTEX
  8
0
  6
CONTINUOUS
 10
3.498880
 20
2.101880
  0
VERTEX
  8
0
  6
CONTINUOUS
 10
3.546840
 20
2.135760
  0
VERTEX
  8
0
  6
CONTINUOUS
 10
3.590400
 20
2.174040
  0
VERTEX
  8
0
  6
CONTINUOUS
 10
3.629560
 20
2.216280
  0
VERTEX
  8
0
  6
CONTINUOUS
 10
3.663880
 20
2.262920
  0
VERTEX
  8
0
  6
CONTINUOUS
 10
3.684120
 20
2.295920
  0
VERTEX
  8
0
  6
CONTINUOUS
 10
3.709640
 20
2.347400
  0
VERTEX
  8
0
  6
CONTINUOUS
 10
3.729440
 20
2.401960
  0
VERTEX
  8
0
  6
CONTINUOUS
 10
3.743080
 20
2.459160
  0
VERTEX
  8
0
  6
CONTINUOUS
 10
3.748800
 20
2.497880
  0
VERTEX
  8
0
  6
CONTINUOUS
 10
3.751880
 20
2.537480
  0
VERTEX
  8
0
  6
CONTINUOUS
 10
3.751440
 20
2.585440
  0
VERTEX
  8
0
  6
CONTINUOUS
 10
3.749680
 20
2.612280
  0
VERTEX
  8
0
  6
CONTINUOUS
 10
3.741320
 20
2.665520
  0
VERTEX
  8
0
  6
CONTINUOUS
 10
3.735600
 20
2.691480
  0
VERTEX
  8
0
  6
CONTINUOUS
 10
3.719760
 20
2.741640
  0
VERTEX
  8
0
  6
CONTINUOUS
 10
3.710520
 20
2.765840
  0
VERTEX
  8
0
  6
CONTINUOUS
 10
3.687640
 20
2.812920
  0
VERTEX
  8
0
  6
CONTINUOUS
 10
3.660800
 20
2.856920
  0
VERTEX
  8
0
  6
CONTINUOUS
 10
3.646280
 20
2.878040
  0
VERTEX
  8
0
  6
CONTINUOUS
 10
3.613280
 20
2.917640
  0
VERTEX
  8
0
  6
CONTINUOUS
 10
3.577200
 20
2.953720
  0
VERTEX
  8
0
  6
CONTINUOUS
 10
3.537600
 20
2.986720
  0
VERTEX
  8
0
  6
CONTINUOUS
 10
3.494920
 20
3.015320
  0
VERTEX
  8
0
  6
CONTINUOUS
 10
3.449160
 20
3.039960
  0
VERTEX
  8
0
  6
CONTINUOUS
 10
3.401200
 20
3.060200
  0
VERTEX
  8
0
  6
CONTINUOUS
 10
3.351040
 20
3.076040
  0
VERTEX
  8
0
  6
CONTINUOUS
 10
3.298680
 20
3.086600
  0
VERTEX
  8
0
  6
CONTINUOUS
 10
3.271840
 20
3.090120
  0
VERTEX
  8
0
  6
CONTINUOUS
 10
3.217280
 20
3.092760
  0
VERTEX
  8
0
  6
CONTINUOUS
 10
3.177240
 20
3.091440
  0
VERTEX
  8
0
  6
CONTINUOUS
 10
3.138080
 20
3.087040
  0
VERTEX
  8
0
  6
CONTINUOUS
 10
3.080440
 20
3.075160
  0
VERTEX
  8
0
  6
CONTINUOUS
 10
3.043040
 20
3.063720
  0
VERTEX
  8
0
  6
CONTINUOUS
 10
2.989360
 20
3.042160
  0
VERTEX
  8
0
  6
CONTINUOUS
 10
2.938760
 20
3.014880
  0
VERTEX
  8
0
  6
CONTINUOUS
 10
2.891240
 20
2.982320
  0
VERTEX
  8
0
  6
CONTINUOUS
 10
2.847240
 20
2.944480
  0
VERTEX
  8
0
  6
CONTINUOUS
 10
2.807640
 20
2.902240
  0
VERTEX
  8
0
  6
CONTINUOUS
 10
2.783440
 20
2.871880
  0
VERTEX
  8
0
  6
CONTINUOUS
 10
2.761440
 20
2.839320
  0
VERTEX
  8
0
  6
CONTINUOUS
 10
2.733280
 20
2.786960
  0
VERTEX
  8
0
  6
CONTINUOUS
 10
2.724920
 20
2.768920
  0
VERTEX
  8
0
  6
CONTINUOUS
 10
2.641320
 20
2.768920
  0
VERTEX
  8
0
  6
CONTINUOUS
 10
2.613600
 20
3.092760
  0
VERTEX
  8
0
  6
CONTINUOUS
 10
1.998920
 20
3.092760
  0
VERTEX
  8
0
  6
CONTINUOUS
 10
1.998920
 20
1.336720
  0
VERTEX
  8
0
  6
CONTINUOUS
 10
3.753640
 20
1.336720
  0
VERTEX
  8
0
  6
CONTINUOUS
 10
3.752320
 20
1.339360
  0
SEQEND
  8
0
  0
SOLID
  8
0
 62
    15
 10
4.370960
 20
5.742440
 11
5.003240
 21
6.107640
 12
4.402200
 22
5.642120
 13
5.034480
 23
6.007320
  0
POLYLINE
  8
0
  6
CONTINUOUS
 66
     1
 40
0.000000
 41
0.000000
  0
VERTEX
  8
0
  6
CONTINUOUS
 10
4.370960
 20
5.742440
  0
VERTEX
  8
0
  6
CONTINUOUS
 10
5.003240
 20
6.107640
  0
VERTEX
  8
0
  6
CONTINUOUS
 10
5.034480
 20
6.007320
  0
VERTEX
  8
0
  6
CONTINUOUS
 10
4.402200
 20
5.642120
  0
VERTEX
  8
0
  6
CONTINUOUS
 10
4.370960
 20
5.742440
  0
SEQEND
  8
0
  0
SOLID
  8
0
 62
    15
 10
3.274040
 20
6.069360
 11
3.906320
 21
6.434560
 12
3.301760
 22
5.745520
 13
3.933600
 23
6.110720
  0
POLYLINE
  8
0
  6
CONTINUOUS
 66
     1
 40
0.000000
 41
0.000000
  0
VERTEX
  8
0
  6
CONTINUOUS
 10
3.274040
 20
6.069360
  0
VERTEX
  8
0
  6
CONTINUOUS
 10
3.906320
 20
6.434560
  0
VERTEX
  8
0
  6
CONTINUOUS
 10
3.933600
 20
6.110720
  0
VERTEX
  8
0
  6
CONTINUOUS
 10
3.301760
 20
5.745520
  0
VERTEX
  8
0
  6
CONTINUOUS
 10
3.274040
 20
6.069360
  0
SEQEND
  8
0
  0
SOLID
  8
0
 62
    15
 10
3.301760
 20
5.745520
 11
3.933600
 21
6.110720
 12
3.385360
 22
5.745520
 13
4.017640
 23
6.110720
  0
POLYLINE
  8
0
  6
CONTINUOUS
 66
     1
 40
0.000000
 41
0.000000
  0
VERTEX
  8
0
  6
CONTINUOUS
 10
3.301760
 20
5.745520
  0
VERTEX
  8
0
  6
CONTINUOUS
 10
3.933600
 20
6.110720
  0
VERTEX
  8
0
  6
CONTINUOUS
 10
4.017640
 20
6.110720
  0
VERTEX
  8
0
  6
CONTINUOUS
 10
3.385360
 20
5.745520
  0
VERTEX
  8
0
  6
CONTINUOUS
 10
3.301760
 20
5.745520
  0
SEQEND
  8
0
  0
SOLID
  8
0
 62
    15
 10
3.582920
 20
5.981360
 11
4.215200
 21
6.346120
 12
3.650240
 22
6.018760
 13
4.282080
 23
6.383960
  0
POLYLINE
  8
0
  6
CONTINUOUS
 66
     1
 40
0.000000
 41
0.000000
  0
VERTEX
  8
0
  6
CONTINUOUS
 10
3.582920
 20
5.981360
  0
VERTEX
  8
0
  6
CONTINUOUS
 10
4.215200
 20
6.346120
  0
VERTEX
  8
0
  6
CONTINUOUS
 10
4.282080
 20
6.383960
  0
VERTEX
  8
0
  6
CONTINUOUS
 10
3.650240
 20
6.018760
  0
VERTEX
  8
0
  6
CONTINUOUS
 10
3.582920
 20
5.981360
  0
SEQEND
  8
0
  0
SOLID
  8
0
 62
    15
 10
3.650240
 20
6.018760
 11
4.282080
 21
6.383960
 12
3.722400
 22
6.046480
 13
4.354240
 23
6.411680
  0
POLYLINE
  8
0
  6
CONTINUOUS
 66
     1
 40
0.000000
 41
0.000000
  0
VERTEX
  8
0
  6
CONTINUOUS
 10
3.650240
 20
6.018760
  0
VERTEX
  8
0
  6
CONTINUOUS
 10
4.282080
 20
6.383960
  0
VERTEX
  8
0
  6
CONTINUOUS
 10
4.354240
 20
6.411680
  0
VERTEX
  8
0
  6
CONTINUOUS
 10
3.722400
 20
6.046480
  0
VERTEX
  8
0
  6
CONTINUOUS
 10
3.650240
 20
6.018760
  0
SEQEND
  8
0
  0
SOLID
  8
0
 62
    15
 10
3.722400
 20
6.046480
 11
4.354240
 21
6.411680
 12
3.798520
 22
6.063640
 13
4.430800
 23
6.428840
  0
POLYLINE
  8
0
  6
CONTINUOUS
 66
     1
 40
0.000000
 41
0.000000
  0
VERTEX
  8
0
  6
CONTINUOUS
 10
3.722400
 20
6.046480
  0
VERTEX
  8
0
  6
CONTINUOUS
 10
4.354240
 20
6.411680
  0
VERTEX
  8
0
  6
CONTINUOUS
 10
4.430800
 20
6.428840
  0
VERTEX
  8
0
  6
CONTINUOUS
 10
3.798520
 20
6.063640
  0
VERTEX
  8
0
  6
CONTINUOUS
 10
3.722400
 20
6.046480
  0
SEQEND
  8
0
  0
SOLID
  8
0
 62
    15
 10
3.798520
 20
6.063640
 11
4.430800
 21
6.428840
 12
3.877720
 22
6.069360
 13
4.510000
 23
6.434560
  0
POLYLINE
  8
0
  6
CONTINUOUS
 66
     1
 40
0.000000
 41
0.000000
  0
VERTEX
  8
0
  6
CONTINUOUS
 10
3.798520
 20
6.063640
  0
VERTEX
  8
0
  6
CONTINUOUS
 10
4.430800
 20
6.428840
  0
VERTEX
  8
0
  6
CONTINUOUS
 10
4.510000
 20
6.434560
  0
VERTEX
  8
0
  6
CONTINUOUS
 10
3.877720
 20
6.069360
  0
VERTEX
  8
0
  6
CONTINUOUS
 10
3.798520
 20
6.063640
  0
SEQEND
  8
0
  0
SOLID
  8
0
 62
    15
 10
3.877720
 20
6.069360
 11
4.510000
 21
6.434560
 12
3.985520
 22
6.058800
 13
4.617800
 23
6.423560
  0
POLYLINE
  8
0
  6
CONTINUOUS
 66
     1
 40
0.000000
 41
0.000000
  0
VERTEX
  8
0
  6
CONTINUOUS
 10
3.877720
 20
6.069360
  0
VERTEX
  8
0
  6
CONTINUOUS
 10
4.510000
 20
6.434560
  0
VERTEX
  8
0
  6
CONTINUOUS
 10
4.617800
 20
6.423560
  0
VERTEX
  8
0
  6
CONTINUOUS
 10
3.985520
 20
6.058800
  0
VERTEX
  8
0
  6
CONTINUOUS
 10
3.877720
 20
6.069360
  0
SEQEND
  8
0
  0
SOLID
  8
0
 62
    15
 10
3.985520
 20
6.058800
 11
4.617800
 21
6.423560
 12
4.086280
 22
6.027560
 13
4.718120
 23
6.392320
  0
POLYLINE
  8
0
  6
CONTINUOUS
 66
     1
 40
0.000000
 41
0.000000
  0
VERTEX
  8
0
  6
CONTINUOUS
 10
3.985520
 20
6.058800
  0
VERTEX
  8
0
  6
CONTINUOUS
 10
4.617800
 20
6.423560
  0
VERTEX
  8
0
  6
CONTINUOUS
 10
4.718120
 20
6.392320
  0
VERTEX
  8
0
  6
CONTINUOUS
 10
4.086280
 20
6.027560
  0
VERTEX
  8
0
  6
CONTINUOUS
 10
3.985520
 20
6.058800
  0
SEQEND
  8
0
  0
SOLID
  8
0
 62
    15
 10
4.086280
 20
6.027560
 11
4.718120
 21
6.392320
 12
4.176920
 22
5.978280
 13
4.809200
 23
6.343040
  0
POLYLINE
  8
0
  6
CONTINUOUS
 66
     1
 40
0.000000
 41
0.000000
  0
VERTEX
  8
0
  6
CONTINUOUS
 10
4.086280
 20
6.027560
  0
VERTEX
  8
0
  6
CONTINUOUS
 10
4.718120
 20
6.392320
  0
VERTEX
  8
0
  6
CONTINUOUS
 10
4.809200
 20
6.343040
  0
VERTEX
  8
0
  6
CONTINUOUS
 10
4.176920
 20
5.978280
  0
VERTEX
  8
0
  6
CONTINUOUS
 10
4.086280
 20
6.027560
  0
SEQEND
  8
0
  0
SOLID
  8
0
 62
    15
 10
4.176920
 20
5.978280
 11
4.809200
 21
6.343040
 12
4.256120
 22
5.912720
 13
4.888400
 23
6.277920
  0
POLYLINE
  8
0
  6
CONTINUOUS
 66
     1
 40
0.000000
 41
0.000000
  0
VERTEX
  8
0
  6
CONTINUOUS
 10
4.176920
 20
5.978280
  0
VERTEX
  8
0
  6
CONTINUOUS
 10
4.809200
 20
6.343040
  0
VERTEX
  8
0
  6
CONTINUOUS
 10
4.888400
 20
6.277920
  0
VERTEX
  8
0
  6
CONTINUOUS
 10
4.256120
 20
5.912720
  0
VERTEX
  8
0
  6
CONTINUOUS
 10
4.176920
 20
5.978280
  0
SEQEND
  8
0
  0
SOLID
  8
0
 62
    15
 10
4.256120
 20
5.912720
 11
4.888400
 21
6.277920
 12
4.321680
 22
5.833520
 13
4.953960
 23
6.198720
  0
POLYLINE
  8
0
  6
CONTINUOUS
 66
     1
 40
0.000000
 41
0.000000
  0
VERTEX
  8
0
  6
CONTINUOUS
 10
4.256120
 20
5.912720
  0
VERTEX
  8
0
  6
CONTINUOUS
 10
4.888400
 20
6.277920
  0
VERTEX
  8
0
  6
CONTINUOUS
 10
4.953960
 20
6.198720
  0
VERTEX
  8
0
  6
CONTINUOUS
 10
4.321680
 20
5.833520
  0
VERTEX
  8
0
  6
CONTINUOUS
 10
4.256120
 20
5.912720
  0
SEQEND
  8
0
  0
SOLID
  8
0
 62
    15
 10
4.321680
 20
5.833520
 11
4.953960
 21
6.198720
 12
4.370960
 22
5.742440
 13
5.003240
 23
6.107640
  0
POLYLINE
  8
0
  6
CONTINUOUS
 66
     1
 40
0.000000
 41
0.000000
  0
VERTEX
  8
0
  6
CONTINUOUS
 10
4.321680
 20
5.833520
  0
VERTEX
  8
0
  6
CONTINUOUS
 10
4.953960
 20
6.198720
  0
VERTEX
  8
0
  6
CONTINUOUS
 10
5.003240
 20
6.107640
  0
VERTEX
  8
0
  6
CONTINUOUS
 10
4.370960
 20
5.742440
  0
VERTEX
  8
0
  6
CONTINUOUS
 10
4.321680
 20
5.833520
  0
SEQEND
  8
0
  0
SOLID
  8
0
 62
    15
 10
2.659360
 20
6.069360
 11
3.291200
 21
6.434560
 12
3.274040
 22
6.069360
 13
3.906320
 23
6.434560
  0
POLYLINE
  8
0
  6
CONTINUOUS
 66
     1
 40
0.000000
 41
0.000000
  0
VERTEX
  8
0
  6
CONTINUOUS
 10
2.659360
 20
6.069360
  0
VERTEX
  8
0
  6
CONTINUOUS
 10
3.291200
 20
6.434560
  0
VERTEX
  8
0
  6
CONTINUOUS
 10
3.906320
 20
6.434560
  0
VERTEX
  8
0
  6
CONTINUOUS
 10
3.274040
 20
6.069360
  0
VERTEX
  8
0
  6
CONTINUOUS
 10
2.659360
 20
6.069360
  0
SEQEND
  8
0
  0
SOLID
  8
0
 62
    15
 10
4.402200
 20
5.642120
 11
5.034480
 21
6.007320
 12
4.413200
 22
5.534320
 13
5.045040
 23
5.899080
  0
POLYLINE
  8
0
  6
CONTINUOUS
 66
     1
 40
0.000000
 41
0.000000
  0
VERTEX
  8
0
  6
CONTINUOUS
 10
4.402200
 20
5.642120
  0
VERTEX
  8
0
  6
CONTINUOUS
 10
5.034480
 20
6.007320
  0
VERTEX
  8
0
  6
CONTINUOUS
 10
5.045040
 20
5.899080
  0
VERTEX
  8
0
  6
CONTINUOUS
 10
4.413200
 20
5.534320
  0
VERTEX
  8
0
  6
CONTINUOUS
 10
4.402200
 20
5.642120
  0
SEQEND
  8
0
  0
SOLID
  8
0
 62
    15
 10
4.413200
 20
5.534320
 11
5.045040
 21
5.899080
 12
4.407040
 22
5.455120
 13
5.039320
 23
5.819880
  0
POLYLINE
  8
0
  6
CONTINUOUS
 66
     1
 40
0.000000
 41
0.000000
  0
VERTEX
  8
0
  6
CONTINUOUS
 10
4.413200
 20
5.534320
  0
VERTEX
  8
0
  6
CONTINUOUS
 10
5.045040
 20
5.899080
  0
VERTEX
  8
0
  6
CONTINUOUS
 10
5.039320
 20
5.819880
  0
VERTEX
  8
0
  6
CONTINUOUS
 10
4.407040
 20
5.455120
  0
VERTEX
  8
0
  6
CONTINUOUS
 10
4.413200
 20
5.534320
  0
SEQEND
  8
0
  0
SOLID
  8
0
 62
    15
 10
4.407040
 20
5.455120
 11
5.039320
 21
5.819880
 12
4.389880
 22
5.379000
 13
5.022160
 23
5.743760
  0
POLYLINE
  8
0
  6
CONTINUOUS
 66
     1
 40
0.000000
 41
0.000000
  0
VERTEX
  8
0
  6
CONTINUOUS
 10
4.407040
 20
5.455120
  0
VERTEX
  8
0
  6
CONTINUOUS
 10
5.039320
 20
5.819880
  0
VERTEX
  8
0
  6
CONTINUOUS
 10
5.022160
 20
5.743760
  0
VERTEX
  8
0
  6
CONTINUOUS
 10
4.389880
 20
5.379000
  0
VERTEX
  8
0
  6
CONTINUOUS
 10
4.407040
 20
5.455120
  0
SEQEND
  8
0
  0
SOLID
  8
0
 62
    15
 10
4.389880
 20
5.379000
 11
5.022160
 21
5.743760
 12
4.362160
 22
5.306840
 13
4.994440
 23
5.671600
  0
POLYLINE
  8
0
  6
CONTINUOUS
 66
     1
 40
0.000000
 41
0.000000
  0
VERTEX
  8
0
  6
CONTINUOUS
 10
4.389880
 20
5.379000
  0
VERTEX
  8
0
  6
CONTINUOUS
 10
5.022160
 20
5.743760
  0
VERTEX
  8
0
  6
CONTINUOUS
 10
4.994440
 20
5.671600
  0
VERTEX
  8
0
  6
CONTINUOUS
 10
4.362160
 20
5.306840
  0
VERTEX
  8
0
  6
CONTINUOUS
 10
4.389880
 20
5.379000
  0
SEQEND
  8
0
  0
SOLID
  8
0
 62
    15
 10
4.362160
 20
5.306840
 11
4.994440
 21
5.671600
 12
4.324760
 22
5.239520
 13
4.956600
 23
5.604280
  0
POLYLINE
  8
0
  6
CONTINUOUS
 66
     1
 40
0.000000
 41
0.000000
  0
VERTEX
  8
0
  6
CONTINUOUS
 10
4.362160
 20
5.306840
  0
VERTEX
  8
0
  6
CONTINUOUS
 10
4.994440
 20
5.671600
  0
VERTEX
  8
0
  6
CONTINUOUS
 10
4.956600
 20
5.604280
  0
VERTEX
  8
0
  6
CONTINUOUS
 10
4.324760
 20
5.239520
  0
VERTEX
  8
0
  6
CONTINUOUS
 10
4.362160
 20
5.306840
  0
SEQEND
  8
0
  0
SOLID
  8
0
 62
    15
 10
4.324760
 20
5.239520
 11
4.956600
 21
5.604280
 12
4.277680
 22
5.178360
 13
4.909960
 23
5.543560
  0
POLYLINE
  8
0
  6
CONTINUOUS
 66
     1
 40
0.000000
 41
0.000000
  0
VERTEX
  8
0
  6
CONTINUOUS
 10
4.324760
 20
5.239520
  0
VERTEX
  8
0
  6
CONTINUOUS
 10
4.956600
 20
5.604280
  0
VERTEX
  8
0
  6
CONTINUOUS
 10
4.909960
 20
5.543560
  0
VERTEX
  8
0
  6
CONTINUOUS
 10
4.277680
 20
5.178360
  0
VERTEX
  8
0
  6
CONTINUOUS
 10
4.324760
 20
5.239520
  0
SEQEND
  8
0
  0
SOLID
  8
0
 62
    15
 10
4.277680
 20
5.178360
 11
4.909960
 21
5.543560
 12
4.222680
 22
5.124680
 13
4.854520
 23
5.489440
  0
POLYLINE
  8
0
  6
CONTINUOUS
 66
     1
 40
0.000000
 41
0.000000
  0
VERTEX
  8
0
  6
CONTINUOUS
 10
4.277680
 20
5.178360
  0
VERTEX
  8
0
  6
CONTINUOUS
 10
4.909960
 20
5.543560
  0
VERTEX
  8
0
  6
CONTINUOUS
 10
4.854520
 20
5.489440
  0
VERTEX
  8
0
  6
CONTINUOUS
 10
4.222680
 20
5.124680
  0
VERTEX
  8
0
  6
CONTINUOUS
 10
4.277680
 20
5.178360
  0
SEQEND
  8
0
  0
SOLID
  8
0
 62
    15
 10
4.088920
 20
5.041960
 11
4.721200
 21
5.407160
 12
4.088920
 22
4.957920
 13
4.721200
 23
5.323120
  0
POLYLINE
  8
0
  6
CONTINUOUS
 66
     1
 40
0.000000
 41
0.000000
  0
VERTEX
  8
0
  6
CONTINUOUS
 10
4.088920
 20
5.041960
  0
VERTEX
  8
0
  6
CONTINUOUS
 10
4.721200
 20
5.407160
  0
VERTEX
  8
0
  6
CONTINUOUS
 10
4.721200
 20
5.323120
  0
VERTEX
  8
0
  6
CONTINUOUS
 10
4.088920
 20
4.957920
  0
VERTEX
  8
0
  6
CONTINUOUS
 10
4.088920
 20
5.041960
  0
SEQEND
  8
0
  0
SOLID
  8
0
 62
    15
 10
4.222680
 20
5.124680
 11
4.854520
 21
5.489440
 12
4.159320
 22
5.078920
 13
4.791600
 23
5.443680
  0
POLYLINE
  8
0
  6
CONTINUOUS
 66
     1
 40
0.000000
 41
0.000000
  0
VERTEX
  8
0
  6
CONTINUOUS
 10
4.222680
 20
5.124680
  0
VERTEX
  8
0
  6
CONTINUOUS
 10
4.854520
 20
5.489440
  0
VERTEX
  8
0
  6
CONTINUOUS
 10
4.791600
 20
5.443680
  0
VERTEX
  8
0
  6
CONTINUOUS
 10
4.159320
 20
5.078920
  0
VERTEX
  8
0
  6
CONTINUOUS
 10
4.222680
 20
5.124680
  0
SEQEND
  8
0
  0
SOLID
  8
0
 62
    15
 10
4.088920
 20
4.957920
 11
4.721200
 21
5.323120
 12
4.413200
 22
4.930640
 13
5.045040
 23
5.295840
  0
POLYLINE
  8
0
  6
CONTINUOUS
 66
     1
 40
0.000000
 41
0.000000
  0
VERTEX
  8
0
  6
CONTINUOUS
 10
4.088920
 20
4.957920
  0
VERTEX
  8
0
  6
CONTINUOUS
 10
4.721200
 20
5.323120
  0
VERTEX
  8
0
  6
CONTINUOUS
 10
5.045040
 20
5.295840
  0
VERTEX
  8
0
  6
CONTINUOUS
 10
4.413200
 20
4.930640
  0
VERTEX
  8
0
  6
CONTINUOUS
 10
4.088920
 20
4.957920
  0
SEQEND
  8
0
  0
SOLID
  8
0
 62
    15
 10
4.413200
 20
4.930640
 11
5.045040
 21
5.295840
 12
4.413200
 22
4.315520
 13
5.045040
 23
4.680720
  0
POLYLINE
  8
0
  6
CONTINUOUS
 66
     1
 40
0.000000
 41
0.000000
  0
VERTEX
  8
0
  6
CONTINUOUS
 10
4.413200
 20
4.930640
  0
VERTEX
  8
0
  6
CONTINUOUS
 10
5.045040
 20
5.295840
  0
VERTEX
  8
0
  6
CONTINUOUS
 10
5.045040
 20
4.680720
  0
VERTEX
  8
0
  6
CONTINUOUS
 10
4.413200
 20
4.315520
  0
VERTEX
  8
0
  6
CONTINUOUS
 10
4.413200
 20
4.930640
  0
SEQEND
  8
0
  0
SOLID
  8
0
 62
    15
 10
4.413200
 20
4.315520
 11
5.045040
 21
4.680720
 12
4.414520
 22
4.313320
 13
5.046360
 23
4.678520
  0
POLYLINE
  8
0
  6
CONTINUOUS
 66
     1
 40
0.000000
 41
0.000000
  0
VERTEX
  8
0
  6
CONTINUOUS
 10
4.413200
 20
4.315520
  0
VERTEX
  8
0
  6
CONTINUOUS
 10
5.045040
 20
4.680720
  0
VERTEX
  8
0
  6
CONTINUOUS
 10
5.046360
 20
4.678520
  0
VERTEX
  8
0
  6
CONTINUOUS
 10
4.414520
 20
4.313320
  0
VERTEX
  8
0
  6
CONTINUOUS
 10
4.413200
 20
4.315520
  0
SEQEND
  8
0
  0
POLYLINE
  8
0
  6
CONTINUOUS
 66
     1
 40
0.000000
 41
0.000000
  0
VERTEX
  8
0
  6
CONTINUOUS
 10
4.414520
 20
4.313320
  0
VERTEX
  8
0
  6
CONTINUOUS
 10
2.659360
 20
4.313320
  0
VERTEX
  8
0
  6
CONTINUOUS
 10
2.659360
 20
6.069360
  0
VERTEX
  8
0
  6
CONTINUOUS
 10
3.274040
 20
6.069360
  0
VERTEX
  8
0
  6
CONTINUOUS
 10
3.301760
 20
5.745520
  0
VERTEX
  8
0
  6
CONTINUOUS
 10
3.385360
 20
5.745520
  0
VERTEX
  8
0
  6
CONTINUOUS
 10
3.422320
 20
5.815920
  0
VERTEX
  8
0
  6
CONTINUOUS
 10
3.468080
 20
5.878840
  0
VERTEX
  8
0
  6
CONTINUOUS
 10
3.521760
 20
5.934280
  0
VERTEX
  8
0
  6
CONTINUOUS
 10
3.582920
 20
5.981360
  0
VERTEX
  8
0
  6
CONTINUOUS
 10
3.650240
 20
6.018760
  0
VERTEX
  8
0
  6
CONTINUOUS
 10
3.722400
 20
6.046480
  0
VERTEX
  8
0
  6
CONTINUOUS
 10
3.798520
 20
6.063640
  0
VERTEX
  8
0
  6
CONTINUOUS
 10
3.877720
 20
6.069360
  0
VERTEX
  8
0
  6
CONTINUOUS
 10
3.985520
 20
6.058800
  0
VERTEX
  8
0
  6
CONTINUOUS
 10
4.086280
 20
6.027560
  0
VERTEX
  8
0
  6
CONTINUOUS
 10
4.176920
 20
5.978280
  0
VERTEX
  8
0
  6
CONTINUOUS
 10
4.256120
 20
5.912720
  0
VERTEX
  8
0
  6
CONTINUOUS
 10
4.321680
 20
5.833520
  0
VERTEX
  8
0
  6
CONTINUOUS
 10
4.370960
 20
5.742440
  0
VERTEX
  8
0
  6
CONTINUOUS
 10
4.402200
 20
5.642120
  0
VERTEX
  8
0
  6
CONTINUOUS
 10
4.413200
 20
5.534320
  0
VERTEX
  8
0
  6
CONTINUOUS
 10
4.407040
 20
5.455120
  0
VERTEX
  8
0
  6
CONTINUOUS
 10
4.389880
 20
5.379000
  0
VERTEX
  8
0
  6
CONTINUOUS
 10
4.362160
 20
5.306840
  0
VERTEX
  8
0
  6
CONTINUOUS
 10
4.324760
 20
5.239520
  0
VERTEX
  8
0
  6
CONTINUOUS
 10
4.277680
 20
5.178360
  0
VERTEX
  8
0
  6
CONTINUOUS
 10
4.222680
 20
5.124680
  0
VERTEX
  8
0
  6
CONTINUOUS
 10
4.159320
 20
5.078920
  0
VERTEX
  8
0
  6
CONTINUOUS
 10
4.088920
 20
5.041960
  0
VERTEX
  8
0
  6
CONTINUOUS
 10
4.088920
 20
4.957920
  0
VERTEX
  8
0
  6
CONTINUOUS
 10
4.413200
 20
4.930640
  0
VERTEX
  8
0
  6
CONTINUOUS
 10
4.413200
 20
4.315520
  0
VERTEX
  8
0
  6
CONTINUOUS
 10
4.414520
 20
4.313320
  0
SEQEND
  8
0
  0
TEXT
  8
0
 10
3.534960
 20
4.085400
 40
0.137929
  1
BA 1284
 41
1.000000
  7
SN0
 71
     0
 72
     5
 11
4.170007
 21
4.085400
  0
TEXT
  8
0
 10
3.328160
 20
3.894000
 40
0.137929
  1
2-1/2" x 2-1/2"
 41
1.000000
  7
SN0
 71
     0
 72
     5
 11
4.374905
 21
3.894000
  0
ENDSEC
  0
EOF
