  0
SECTION
  2
HEADER
  9
$ACADVER
  1
AC1006
  9
$EXTMIN
 10
2.367200
 20
1.980440
  9
$EXTMAX
 10
6.162200
 20
9.093040
  9
$LTSCALE
 40
0.044000
  9
$PDMODE
 70
    35
  9
$PDSIZE
 40
0.035200
  0
ENDSEC
  0
SECTION
  2
TABLES
  0
TABLE
  2
LTYPE
 70
     9
  0
LTYPE
  2
CONTINUOUS
 70
    64
  3
Solid line
 72
    65
 73
     0
 40
0.000000
  0
LTYPE
  2
DASHED
 70
    64
  3
__ __ __ __ __ __ __ __ __ __ __ __ __ __ __
 72
    65
 73
     2
 40
0.000330
 49
0.000220
 49
-0.000110
  0
LTYPE
  2
HIDDEN
 70
    64
  3
 _ _ _ _ _ _ _ _ _ _ _ _ _ _ _ _ _ _ _ _ _ _
 72
    65
 73
     2
 40
0.000165
 49
0.000110
 49
-0.000055
  0
LTYPE
  2
CENTER
 70
    64
  3
____ _ ____ _ ____ _ ____ _ ____ _ ____ _ ____
 72
    65
 73
     4
 40
0.000880
 49
0.000550
 49
-0.000110
 49
0.000110
 49
-0.000110
  0
LTYPE
  2
PHANTOM
 70
    64
  3
_____ _ _ _____ _ _ _____ _ _ _____ _ _ ____
 72
    65
 73
     6
 40
0.001100
 49
0.000550
 49
-0.000110
 49
0.000110
 49
-0.000110
 49
0.000110
 49
-0.000110
  0
LTYPE
  2
DOT
 70
    64
  3
...............................................
 72
    65
 73
     2
 40
0.000110
 49
0.000000
 49
-0.000110
  0
LTYPE
  2
DASHDOT
 70
    64
  3
__ . __ . __ . __ . __ . __ . __ . __ . __ . __
 72
    65
 73
     4
 40
0.000440
 49
0.000220
 49
-0.000110
 49
0.000000
 49
-0.000110
  0
LTYPE
  2
BORDER
 70
    64
  3
__ __ . __ __ . __ __ . __ __ . __ __ . __ __
 72
    65
 73
     6
 40
0.000770
 49
0.000220
 49
-0.000110
 49
0.000220
 49
-0.000110
 49
0.000000
 49
-0.000110
  0
LTYPE
  2
DIVIDE
 70
    64
  3
__ . . __ . . __ . . __ . . __ . . __ . . __
 72
    65
 73
     6
 40
0.000550
 49
0.000220
 49
-0.000110
 49
0.000000
 49
-0.000110
 49
0.000000
 49
-0.000110
  0
LTYPE
  2
DOTDOT
 70
    64
  3
 . .  . .  . .  . .  . .  . . 
 72
    65
 73
     5
 40
0.000242
 49
-0.000110
 49
0.000000
 49
-0.000110
 49
0.000000
 49
-0.000110
  0
ENDTAB
  0
TABLE
  2
STYLE
 70
     2
  0
STYLE
 70
     0
  2
SN0
 40
0.000000
 41
0.000440
 50
0.000000
 71
     0
 42
0.000000
  3
ROMAND
  0
STYLE
 70
    68
  2
SV0
 40
0.000000
 41
0.000440
 50
0.000000
 71
     0
 42
0.000000
  3
ROMAND
  0
ENDTAB
  0
TABLE
  2
LAYER
 70
     3
  0
LAYER
  2
FOREGROUND
 70
    64
 62
     7
  6
CONTINUOUS
  0
LAYER
  2
BACKGROUND
 70
    65
 62
    -7
  6
CONTINUOUS
  0
LAYER
  2
0
 70
    64
 62
     7
  6
CONTINUOUS
  0
ENDTAB
  0
ENDSEC
  0
SECTION
  2
ENTITIES
  0
POLYLINE
  8
FOREGROUND
  6
CONTINUOUS
 66
     1
 40
0.000000
 41
0.000000
  0
VERTEX
  8
FOREGROUND
  6
CONTINUOUS
 10
0.000000
 20
11.073480
  0
VERTEX
  8
FOREGROUND
  6
CONTINUOUS
 10
8.499920
 20
11.073480
  0
VERTEX
  8
FOREGROUND
  6
CONTINUOUS
 10
8.499920
 20
0.073480
  0
VERTEX
  8
FOREGROUND
  6
CONTINUOUS
 10
0.000000
 20
0.073480
  0
VERTEX
  8
FOREGROUND
  6
CONTINUOUS
 10
0.000000
 20
11.073480
  0
SEQEND
  8
0
  0
POLYLINE
  8
FOREGROUND
  6
CONTINUOUS
 66
     1
 40
0.000000
 41
0.000000
  0
VERTEX
  8
FOREGROUND
  6
CONTINUOUS
 10
0.000000
 20
11.073480
  0
VERTEX
  8
FOREGROUND
  6
CONTINUOUS
 10
8.499920
 20
11.073480
  0
VERTEX
  8
FOREGROUND
  6
CONTINUOUS
 10
8.499920
 20
0.073480
  0
VERTEX
  8
FOREGROUND
  6
CONTINUOUS
 10
0.000000
 20
0.073480
  0
VERTEX
  8
FOREGROUND
  6
CONTINUOUS
 10
0.000000
 20
11.073480
  0
SEQEND
  8
0
  0
POLYLINE
  8
0
  6
CONTINUOUS
 66
     1
 40
0.014080
 41
0.014080
  0
VERTEX
  8
0
  6
CONTINUOUS
 10
2.834480
 20
8.232400
  0
VERTEX
  8
0
  6
CONTINUOUS
 10
2.377760
 20
8.615200
  0
VERTEX
  8
0
  6
CONTINUOUS
 10
2.423080
 20
8.667120
  0
VERTEX
  8
0
  6
CONTINUOUS
 10
2.471480
 20
8.715520
  0
VERTEX
  8
0
  6
CONTINUOUS
 10
2.522520
 20
8.760400
  0
VERTEX
  8
0
  6
CONTINUOUS
 10
2.576200
 20
8.802200
  0
VERTEX
  8
0
  6
CONTINUOUS
 10
2.632080
 20
8.840920
  0
VERTEX
  8
0
  6
CONTINUOUS
 10
2.720520
 20
8.892840
  0
VERTEX
  8
0
  6
CONTINUOUS
 10
2.781680
 20
8.923640
  0
VERTEX
  8
0
  6
CONTINUOUS
 10
2.877160
 20
8.964120
  0
VERTEX
  8
0
  6
CONTINUOUS
 10
2.942280
 20
8.987440
  0
VERTEX
  8
0
  6
CONTINUOUS
 10
3.009160
 20
9.008120
  0
VERTEX
  8
0
  6
CONTINUOUS
 10
3.076920
 20
9.026160
  0
VERTEX
  8
0
  6
CONTINUOUS
 10
3.180320
 20
9.048160
  0
VERTEX
  8
0
  6
CONTINUOUS
 10
3.285040
 20
9.064440
  0
VERTEX
  8
0
  6
CONTINUOUS
 10
3.355440
 20
9.071920
  0
VERTEX
  8
0
  6
CONTINUOUS
 10
3.426280
 20
9.077200
  0
VERTEX
  8
0
  6
CONTINUOUS
 10
3.496680
 20
9.080280
  0
VERTEX
  8
0
  6
CONTINUOUS
 10
3.567080
 20
9.080720
  0
VERTEX
  8
0
  6
CONTINUOUS
 10
3.637040
 20
9.078960
  0
VERTEX
  8
0
  6
CONTINUOUS
 10
3.706560
 20
9.075440
  0
VERTEX
  8
0
  6
CONTINUOUS
 10
3.775200
 20
9.069720
  0
VERTEX
  8
0
  6
CONTINUOUS
 10
3.842520
 20
9.061800
  0
VERTEX
  8
0
  6
CONTINUOUS
 10
3.909400
 20
9.052120
  0
VERTEX
  8
0
  6
CONTINUOUS
 10
3.974520
 20
9.040680
  0
VERTEX
  8
0
  6
CONTINUOUS
 10
4.038320
 20
9.027480
  0
VERTEX
  8
0
  6
CONTINUOUS
 10
4.130720
 20
9.004160
  0
VERTEX
  8
0
  6
CONTINUOUS
 10
4.218720
 20
8.977320
  0
VERTEX
  8
0
  6
CONTINUOUS
 10
4.301440
 20
8.946960
  0
VERTEX
  8
0
  6
CONTINUOUS
 10
4.378880
 20
8.913520
  0
VERTEX
  8
0
  6
CONTINUOUS
 10
4.672360
 20
9.083800
  0
VERTEX
  8
0
  6
CONTINUOUS
 10
4.734840
 20
9.032320
  0
VERTEX
  8
0
  6
CONTINUOUS
 10
4.798200
 20
8.988320
  0
VERTEX
  8
0
  6
CONTINUOUS
 10
4.862000
 20
8.950920
  0
VERTEX
  8
0
  6
CONTINUOUS
 10
4.926240
 20
8.919680
  0
VERTEX
  8
0
  6
CONTINUOUS
 10
4.969360
 20
8.902520
  0
VERTEX
  8
0
  6
CONTINUOUS
 10
5.012040
 20
8.888000
  0
VERTEX
  8
0
  6
CONTINUOUS
 10
5.055160
 20
8.875680
  0
VERTEX
  8
0
  6
CONTINUOUS
 10
5.097840
 20
8.865560
  0
VERTEX
  8
0
  6
CONTINUOUS
 10
5.140520
 20
8.858080
  0
VERTEX
  8
0
  6
CONTINUOUS
 10
5.183200
 20
8.852360
  0
VERTEX
  8
0
  6
CONTINUOUS
 10
5.225000
 20
8.848840
  0
VERTEX
  8
0
  6
CONTINUOUS
 10
5.308600
 20
8.847520
  0
VERTEX
  8
0
  6
CONTINUOUS
 10
5.390000
 20
8.853240
  0
VERTEX
  8
0
  6
CONTINUOUS
 10
5.468760
 20
8.865120
  0
VERTEX
  8
0
  6
CONTINUOUS
 10
5.545320
 20
8.881840
  0
VERTEX
  8
0
  6
CONTINUOUS
 10
5.618800
 20
8.903400
  0
VERTEX
  8
0
  6
CONTINUOUS
 10
5.688320
 20
8.928040
  0
VERTEX
  8
0
  6
CONTINUOUS
 10
5.753440
 20
8.955320
  0
VERTEX
  8
0
  6
CONTINUOUS
 10
5.814600
 20
8.984800
  0
VERTEX
  8
0
  6
CONTINUOUS
 10
5.896000
 20
9.030120
  0
VERTEX
  8
0
  6
CONTINUOUS
 10
6.151640
 20
8.720360
  0
VERTEX
  8
0
  6
CONTINUOUS
 10
5.470960
 20
8.232400
  0
VERTEX
  8
0
  6
CONTINUOUS
 10
2.834480
 20
8.232400
  0
SEQEND
  8
0
  0
POLYLINE
  8
0
  6
CONTINUOUS
 66
     1
 40
0.000000
 41
0.000000
  0
VERTEX
  8
0
  6
CONTINUOUS
 10
5.694920
 20
1.980440
  0
VERTEX
  8
0
  6
CONTINUOUS
 10
6.151640
 20
2.363240
  0
VERTEX
  8
0
  6
CONTINUOUS
 10
6.106320
 20
2.415160
  0
VERTEX
  8
0
  6
CONTINUOUS
 10
6.057920
 20
2.463560
  0
VERTEX
  8
0
  6
CONTINUOUS
 10
6.006880
 20
2.508440
  0
VERTEX
  8
0
  6
CONTINUOUS
 10
5.953200
 20
2.550240
  0
VERTEX
  8
0
  6
CONTINUOUS
 10
5.897320
 20
2.588960
  0
VERTEX
  8
0
  6
CONTINUOUS
 10
5.808880
 20
2.640880
  0
VERTEX
  8
0
  6
CONTINUOUS
 10
5.747720
 20
2.671680
  0
VERTEX
  8
0
  6
CONTINUOUS
 10
5.652240
 20
2.712160
  0
VERTEX
  8
0
  6
CONTINUOUS
 10
5.587120
 20
2.735480
  0
VERTEX
  8
0
  6
CONTINUOUS
 10
5.520240
 20
2.756160
  0
VERTEX
  8
0
  6
CONTINUOUS
 10
5.452480
 20
2.774200
  0
VERTEX
  8
0
  6
CONTINUOUS
 10
5.349080
 20
2.796200
  0
VERTEX
  8
0
  6
CONTINUOUS
 10
5.244360
 20
2.812480
  0
VERTEX
  8
0
  6
CONTINUOUS
 10
5.173960
 20
2.819960
  0
VERTEX
  8
0
  6
CONTINUOUS
 10
5.103560
 20
2.825240
  0
VERTEX
  8
0
  6
CONTINUOUS
 10
5.032720
 20
2.828320
  0
VERTEX
  8
0
  6
CONTINUOUS
 10
4.962320
 20
2.828760
  0
VERTEX
  8
0
  6
CONTINUOUS
 10
4.892360
 20
2.827000
  0
VERTEX
  8
0
  6
CONTINUOUS
 10
4.823280
 20
2.823480
  0
VERTEX
  8
0
  6
CONTINUOUS
 10
4.754640
 20
2.817760
  0
VERTEX
  8
0
  6
CONTINUOUS
 10
4.686880
 20
2.809840
  0
VERTEX
  8
0
  6
CONTINUOUS
 10
4.620440
 20
2.800160
  0
VERTEX
  8
0
  6
CONTINUOUS
 10
4.554880
 20
2.788720
  0
VERTEX
  8
0
  6
CONTINUOUS
 10
4.491520
 20
2.775520
  0
VERTEX
  8
0
  6
CONTINUOUS
 10
4.399120
 20
2.752200
  0
VERTEX
  8
0
  6
CONTINUOUS
 10
4.311120
 20
2.725360
  0
VERTEX
  8
0
  6
CONTINUOUS
 10
4.227960
 20
2.695000
  0
VERTEX
  8
0
  6
CONTINUOUS
 10
4.150960
 20
2.661560
  0
VERTEX
  8
0
  6
CONTINUOUS
 10
3.857040
 20
2.832280
  0
VERTEX
  8
0
  6
CONTINUOUS
 10
3.794560
 20
2.780800
  0
VERTEX
  8
0
  6
CONTINUOUS
 10
3.731200
 20
2.736800
  0
VERTEX
  8
0
  6
CONTINUOUS
 10
3.667400
 20
2.699400
  0
VERTEX
  8
0
  6
CONTINUOUS
 10
3.603160
 20
2.668160
  0
VERTEX
  8
0
  6
CONTINUOUS
 10
3.560040
 20
2.651000
  0
VERTEX
  8
0
  6
CONTINUOUS
 10
3.517360
 20
2.636040
  0
VERTEX
  8
0
  6
CONTINUOUS
 10
3.474240
 20
2.623720
  0
VERTEX
  8
0
  6
CONTINUOUS
 10
3.431560
 20
2.614040
  0
VERTEX
  8
0
  6
CONTINUOUS
 10
3.388880
 20
2.606120
  0
VERTEX
  8
0
  6
CONTINUOUS
 10
3.346200
 20
2.600840
  0
VERTEX
  8
0
  6
CONTINUOUS
 10
3.304400
 20
2.597320
  0
VERTEX
  8
0
  6
CONTINUOUS
 10
3.262600
 20
2.595560
  0
VERTEX
  8
0
  6
CONTINUOUS
 10
3.179880
 20
2.597760
  0
VERTEX
  8
0
  6
CONTINUOUS
 10
3.099800
 20
2.606560
  0
VERTEX
  8
0
  6
CONTINUOUS
 10
3.021920
 20
2.621080
  0
VERTEX
  8
0
  6
CONTINUOUS
 10
2.947120
 20
2.640440
  0
VERTEX
  8
0
  6
CONTINUOUS
 10
2.875400
 20
2.663320
  0
VERTEX
  8
0
  6
CONTINUOUS
 10
2.808080
 20
2.689720
  0
VERTEX
  8
0
  6
CONTINUOUS
 10
2.744720
 20
2.717880
  0
VERTEX
  8
0
  6
CONTINUOUS
 10
2.659360
 20
2.763200
  0
VERTEX
  8
0
  6
CONTINUOUS
 10
2.633400
 20
2.778160
  0
VERTEX
  8
0
  6
CONTINUOUS
 10
2.377760
 20
2.468840
  0
VERTEX
  8
0
  6
CONTINUOUS
 10
3.058440
 20
1.980440
  0
VERTEX
  8
0
  6
CONTINUOUS
 10
5.694920
 20
1.980440
  0
SEQEND
  8
0
  0
POLYLINE
  8
0
  6
CONTINUOUS
 66
     1
 40
0.000000
 41
0.000000
  0
VERTEX
  8
0
  6
CONTINUOUS
 10
2.834920
 20
3.354120
  0
VERTEX
  8
0
  6
CONTINUOUS
 10
2.377760
 20
3.736920
  0
VERTEX
  8
0
  6
CONTINUOUS
 10
2.423080
 20
3.788840
  0
VERTEX
  8
0
  6
CONTINUOUS
 10
2.471480
 20
3.837240
  0
VERTEX
  8
0
  6
CONTINUOUS
 10
2.522520
 20
3.882120
  0
VERTEX
  8
0
  6
CONTINUOUS
 10
2.576200
 20
3.923920
  0
VERTEX
  8
0
  6
CONTINUOUS
 10
2.632080
 20
3.962640
  0
VERTEX
  8
0
  6
CONTINUOUS
 10
2.720520
 20
4.014560
  0
VERTEX
  8
0
  6
CONTINUOUS
 10
2.781680
 20
4.045360
  0
VERTEX
  8
0
  6
CONTINUOUS
 10
2.877160
 20
4.085840
  0
VERTEX
  8
0
  6
CONTINUOUS
 10
2.942280
 20
4.109160
  0
VERTEX
  8
0
  6
CONTINUOUS
 10
3.009160
 20
4.129840
  0
VERTEX
  8
0
  6
CONTINUOUS
 10
3.076920
 20
4.147880
  0
VERTEX
  8
0
  6
CONTINUOUS
 10
3.180320
 20
4.169880
  0
VERTEX
  8
0
  6
CONTINUOUS
 10
3.285040
 20
4.186160
  0
VERTEX
  8
0
  6
CONTINUOUS
 10
3.355440
 20
4.193640
  0
VERTEX
  8
0
  6
CONTINUOUS
 10
3.426280
 20
4.198920
  0
VERTEX
  8
0
  6
CONTINUOUS
 10
3.496680
 20
4.202000
  0
VERTEX
  8
0
  6
CONTINUOUS
 10
3.567080
 20
4.202440
  0
VERTEX
  8
0
  6
CONTINUOUS
 10
3.637040
 20
4.200680
  0
VERTEX
  8
0
  6
CONTINUOUS
 10
3.706560
 20
4.197160
  0
VERTEX
  8
0
  6
CONTINUOUS
 10
3.775200
 20
4.191440
  0
VERTEX
  8
0
  6
CONTINUOUS
 10
3.842520
 20
4.183520
  0
VERTEX
  8
0
  6
CONTINUOUS
 10
3.909400
 20
4.173840
  0
VERTEX
  8
0
  6
CONTINUOUS
 10
3.974520
 20
4.162400
  0
VERTEX
  8
0
  6
CONTINUOUS
 10
4.038320
 20
4.149200
  0
VERTEX
  8
0
  6
CONTINUOUS
 10
4.130720
 20
4.125880
  0
VERTEX
  8
0
  6
CONTINUOUS
 10
4.218720
 20
4.099040
  0
VERTEX
  8
0
  6
CONTINUOUS
 10
4.301440
 20
4.068680
  0
VERTEX
  8
0
  6
CONTINUOUS
 10
4.378880
 20
4.035240
  0
VERTEX
  8
0
  6
CONTINUOUS
 10
4.672360
 20
4.205960
  0
VERTEX
  8
0
  6
CONTINUOUS
 10
4.734840
 20
4.154480
  0
VERTEX
  8
0
  6
CONTINUOUS
 10
4.798200
 20
4.110480
  0
VERTEX
  8
0
  6
CONTINUOUS
 10
4.862000
 20
4.073080
  0
VERTEX
  8
0
  6
CONTINUOUS
 10
4.926240
 20
4.041840
  0
VERTEX
  8
0
  6
CONTINUOUS
 10
4.969360
 20
4.024680
  0
VERTEX
  8
0
  6
CONTINUOUS
 10
5.012040
 20
4.009720
  0
VERTEX
  8
0
  6
CONTINUOUS
 10
5.055160
 20
3.997400
  0
VERTEX
  8
0
  6
CONTINUOUS
 10
5.097840
 20
3.987720
  0
VERTEX
  8
0
  6
CONTINUOUS
 10
5.140520
 20
3.979800
  0
VERTEX
  8
0
  6
CONTINUOUS
 10
5.183200
 20
3.974520
  0
VERTEX
  8
0
  6
CONTINUOUS
 10
5.225000
 20
3.971000
  0
VERTEX
  8
0
  6
CONTINUOUS
 10
5.266800
 20
3.969240
  0
VERTEX
  8
0
  6
CONTINUOUS
 10
5.349520
 20
3.971440
  0
VERTEX
  8
0
  6
CONTINUOUS
 10
5.429600
 20
3.980240
  0
VERTEX
  8
0
  6
CONTINUOUS
 10
5.507480
 20
3.994760
  0
VERTEX
  8
0
  6
CONTINUOUS
 10
5.582280
 20
4.014120
  0
VERTEX
  8
0
  6
CONTINUOUS
 10
5.654000
 20
4.037000
  0
VERTEX
  8
0
  6
CONTINUOUS
 10
5.721320
 20
4.063400
  0
VERTEX
  8
0
  6
CONTINUOUS
 10
5.784680
 20
4.091560
  0
VERTEX
  8
0
  6
CONTINUOUS
 10
5.870040
 20
4.136880
  0
VERTEX
  8
0
  6
CONTINUOUS
 10
5.896000
 20
4.151840
  0
VERTEX
  8
0
  6
CONTINUOUS
 10
6.151640
 20
3.842520
  0
VERTEX
  8
0
  6
CONTINUOUS
 10
5.471400
 20
3.354120
  0
VERTEX
  8
0
  6
CONTINUOUS
 10
2.834920
 20
3.354120
  0
SEQEND
  8
0
  0
SOLID
  8
0
 62
    15
 10
4.150960
 20
6.288040
 11
4.795120
 21
5.910080
 12
4.051080
 22
6.235240
 13
4.694800
 23
5.857280
  0
POLYLINE
  8
0
  6
CONTINUOUS
 66
     1
 40
0.000000
 41
0.000000
  0
VERTEX
  8
0
  6
CONTINUOUS
 10
4.150960
 20
6.288040
  0
VERTEX
  8
0
  6
CONTINUOUS
 10
4.795120
 20
5.910080
  0
VERTEX
  8
0
  6
CONTINUOUS
 10
4.694800
 20
5.857280
  0
VERTEX
  8
0
  6
CONTINUOUS
 10
4.051080
 20
6.235240
  0
VERTEX
  8
0
  6
CONTINUOUS
 10
4.150960
 20
6.288040
  0
SEQEND
  8
0
  0
SOLID
  8
0
 62
    15
 10
5.108400
 20
7.835080
 11
5.752560
 21
7.456680
 12
5.109280
 22
7.699120
 13
5.753000
 23
7.320720
  0
POLYLINE
  8
0
  6
CONTINUOUS
 66
     1
 40
0.000000
 41
0.000000
  0
VERTEX
  8
0
  6
CONTINUOUS
 10
5.108400
 20
7.835080
  0
VERTEX
  8
0
  6
CONTINUOUS
 10
5.752560
 20
7.456680
  0
VERTEX
  8
0
  6
CONTINUOUS
 10
5.753000
 20
7.320720
  0
VERTEX
  8
0
  6
CONTINUOUS
 10
5.109280
 20
7.699120
  0
VERTEX
  8
0
  6
CONTINUOUS
 10
5.108400
 20
7.835080
  0
SEQEND
  8
0
  0
SOLID
  8
0
 62
    15
 10
5.109280
 20
7.699120
 11
5.753000
 21
7.320720
 12
5.093440
 22
7.563600
 13
5.737600
 23
7.185640
  0
POLYLINE
  8
0
  6
CONTINUOUS
 66
     1
 40
0.000000
 41
0.000000
  0
VERTEX
  8
0
  6
CONTINUOUS
 10
5.109280
 20
7.699120
  0
VERTEX
  8
0
  6
CONTINUOUS
 10
5.753000
 20
7.320720
  0
VERTEX
  8
0
  6
CONTINUOUS
 10
5.737600
 20
7.185640
  0
VERTEX
  8
0
  6
CONTINUOUS
 10
5.093440
 20
7.563600
  0
VERTEX
  8
0
  6
CONTINUOUS
 10
5.109280
 20
7.699120
  0
SEQEND
  8
0
  0
SOLID
  8
0
 62
    15
 10
5.093440
 20
7.563600
 11
5.737600
 21
7.185640
 12
5.063520
 22
7.429840
 13
5.707240
 23
7.051440
  0
POLYLINE
  8
0
  6
CONTINUOUS
 66
     1
 40
0.000000
 41
0.000000
  0
VERTEX
  8
0
  6
CONTINUOUS
 10
5.093440
 20
7.563600
  0
VERTEX
  8
0
  6
CONTINUOUS
 10
5.737600
 20
7.185640
  0
VERTEX
  8
0
  6
CONTINUOUS
 10
5.707240
 20
7.051440
  0
VERTEX
  8
0
  6
CONTINUOUS
 10
5.063520
 20
7.429840
  0
VERTEX
  8
0
  6
CONTINUOUS
 10
5.093440
 20
7.563600
  0
SEQEND
  8
0
  0
SOLID
  8
0
 62
    15
 10
5.063520
 20
7.429840
 11
5.707240
 21
7.051440
 12
5.019960
 22
7.298280
 13
5.663680
 23
6.919880
  0
POLYLINE
  8
0
  6
CONTINUOUS
 66
     1
 40
0.000000
 41
0.000000
  0
VERTEX
  8
0
  6
CONTINUOUS
 10
5.063520
 20
7.429840
  0
VERTEX
  8
0
  6
CONTINUOUS
 10
5.707240
 20
7.051440
  0
VERTEX
  8
0
  6
CONTINUOUS
 10
5.663680
 20
6.919880
  0
VERTEX
  8
0
  6
CONTINUOUS
 10
5.019960
 20
7.298280
  0
VERTEX
  8
0
  6
CONTINUOUS
 10
5.063520
 20
7.429840
  0
SEQEND
  8
0
  0
SOLID
  8
0
 62
    15
 10
5.019960
 20
7.298280
 11
5.663680
 21
6.919880
 12
4.964080
 22
7.169800
 13
5.608240
 23
6.791400
  0
POLYLINE
  8
0
  6
CONTINUOUS
 66
     1
 40
0.000000
 41
0.000000
  0
VERTEX
  8
0
  6
CONTINUOUS
 10
5.019960
 20
7.298280
  0
VERTEX
  8
0
  6
CONTINUOUS
 10
5.663680
 20
6.919880
  0
VERTEX
  8
0
  6
CONTINUOUS
 10
5.608240
 20
6.791400
  0
VERTEX
  8
0
  6
CONTINUOUS
 10
4.964080
 20
7.169800
  0
VERTEX
  8
0
  6
CONTINUOUS
 10
5.019960
 20
7.298280
  0
SEQEND
  8
0
  0
SOLID
  8
0
 62
    15
 10
4.964080
 20
7.169800
 11
5.608240
 21
6.791400
 12
4.822840
 22
6.925600
 13
5.466560
 23
6.547200
  0
POLYLINE
  8
0
  6
CONTINUOUS
 66
     1
 40
0.000000
 41
0.000000
  0
VERTEX
  8
0
  6
CONTINUOUS
 10
4.964080
 20
7.169800
  0
VERTEX
  8
0
  6
CONTINUOUS
 10
5.608240
 20
6.791400
  0
VERTEX
  8
0
  6
CONTINUOUS
 10
5.466560
 20
6.547200
  0
VERTEX
  8
0
  6
CONTINUOUS
 10
4.822840
 20
6.925600
  0
VERTEX
  8
0
  6
CONTINUOUS
 10
4.964080
 20
7.169800
  0
SEQEND
  8
0
  0
SOLID
  8
0
 62
    15
 10
4.822840
 20
6.925600
 11
5.466560
 21
6.547200
 12
4.649920
 22
6.703400
 13
5.293640
 23
6.325440
  0
POLYLINE
  8
0
  6
CONTINUOUS
 66
     1
 40
0.000000
 41
0.000000
  0
VERTEX
  8
0
  6
CONTINUOUS
 10
4.822840
 20
6.925600
  0
VERTEX
  8
0
  6
CONTINUOUS
 10
5.466560
 20
6.547200
  0
VERTEX
  8
0
  6
CONTINUOUS
 10
5.293640
 20
6.325440
  0
VERTEX
  8
0
  6
CONTINUOUS
 10
4.649920
 20
6.703400
  0
VERTEX
  8
0
  6
CONTINUOUS
 10
4.822840
 20
6.925600
  0
SEQEND
  8
0
  0
SOLID
  8
0
 62
    15
 10
4.649920
 20
6.703400
 11
5.293640
 21
6.325440
 12
4.456320
 22
6.510240
 13
5.100040
 23
6.131840
  0
POLYLINE
  8
0
  6
CONTINUOUS
 66
     1
 40
0.000000
 41
0.000000
  0
VERTEX
  8
0
  6
CONTINUOUS
 10
4.649920
 20
6.703400
  0
VERTEX
  8
0
  6
CONTINUOUS
 10
5.293640
 20
6.325440
  0
VERTEX
  8
0
  6
CONTINUOUS
 10
5.100040
 20
6.131840
  0
VERTEX
  8
0
  6
CONTINUOUS
 10
4.456320
 20
6.510240
  0
VERTEX
  8
0
  6
CONTINUOUS
 10
4.649920
 20
6.703400
  0
SEQEND
  8
0
  0
SOLID
  8
0
 62
    15
 10
4.456320
 20
6.510240
 11
5.100040
 21
6.131840
 12
4.253040
 22
6.351840
 13
4.896760
 23
5.973880
  0
POLYLINE
  8
0
  6
CONTINUOUS
 66
     1
 40
0.000000
 41
0.000000
  0
VERTEX
  8
0
  6
CONTINUOUS
 10
4.456320
 20
6.510240
  0
VERTEX
  8
0
  6
CONTINUOUS
 10
5.100040
 20
6.131840
  0
VERTEX
  8
0
  6
CONTINUOUS
 10
4.896760
 20
5.973880
  0
VERTEX
  8
0
  6
CONTINUOUS
 10
4.253040
 20
6.351840
  0
VERTEX
  8
0
  6
CONTINUOUS
 10
4.456320
 20
6.510240
  0
SEQEND
  8
0
  0
SOLID
  8
0
 62
    15
 10
4.253040
 20
6.351840
 11
4.896760
 21
5.973880
 12
4.150960
 22
6.288040
 13
4.795120
 23
5.910080
  0
POLYLINE
  8
0
  6
CONTINUOUS
 66
     1
 40
0.000000
 41
0.000000
  0
VERTEX
  8
0
  6
CONTINUOUS
 10
4.253040
 20
6.351840
  0
VERTEX
  8
0
  6
CONTINUOUS
 10
4.896760
 20
5.973880
  0
VERTEX
  8
0
  6
CONTINUOUS
 10
4.795120
 20
5.910080
  0
VERTEX
  8
0
  6
CONTINUOUS
 10
4.150960
 20
6.288040
  0
VERTEX
  8
0
  6
CONTINUOUS
 10
4.253040
 20
6.351840
  0
SEQEND
  8
0
  0
SOLID
  8
0
 62
    15
 10
5.090800
 20
7.971040
 11
5.734520
 21
7.592640
 12
5.108400
 22
7.835080
 13
5.752560
 23
7.456680
  0
POLYLINE
  8
0
  6
CONTINUOUS
 66
     1
 40
0.000000
 41
0.000000
  0
VERTEX
  8
0
  6
CONTINUOUS
 10
5.090800
 20
7.971040
  0
VERTEX
  8
0
  6
CONTINUOUS
 10
5.734520
 20
7.592640
  0
VERTEX
  8
0
  6
CONTINUOUS
 10
5.752560
 20
7.456680
  0
VERTEX
  8
0
  6
CONTINUOUS
 10
5.108400
 20
7.835080
  0
VERTEX
  8
0
  6
CONTINUOUS
 10
5.090800
 20
7.971040
  0
SEQEND
  8
0
  0
SOLID
  8
0
 62
    15
 10
4.051080
 20
6.235240
 11
4.694800
 21
5.857280
 12
3.996520
 22
5.900400
 13
4.640240
 23
5.522000
  0
POLYLINE
  8
0
  6
CONTINUOUS
 66
     1
 40
0.000000
 41
0.000000
  0
VERTEX
  8
0
  6
CONTINUOUS
 10
4.051080
 20
6.235240
  0
VERTEX
  8
0
  6
CONTINUOUS
 10
4.694800
 20
5.857280
  0
VERTEX
  8
0
  6
CONTINUOUS
 10
4.640240
 20
5.522000
  0
VERTEX
  8
0
  6
CONTINUOUS
 10
3.996520
 20
5.900400
  0
VERTEX
  8
0
  6
CONTINUOUS
 10
4.051080
 20
6.235240
  0
SEQEND
  8
0
  0
SOLID
  8
0
 62
    15
 10
3.996520
 20
5.900400
 11
4.640240
 21
5.522000
 12
3.891800
 22
5.877960
 13
4.535520
 23
5.500000
  0
POLYLINE
  8
0
  6
CONTINUOUS
 66
     1
 40
0.000000
 41
0.000000
  0
VERTEX
  8
0
  6
CONTINUOUS
 10
3.996520
 20
5.900400
  0
VERTEX
  8
0
  6
CONTINUOUS
 10
4.640240
 20
5.522000
  0
VERTEX
  8
0
  6
CONTINUOUS
 10
4.535520
 20
5.500000
  0
VERTEX
  8
0
  6
CONTINUOUS
 10
3.891800
 20
5.877960
  0
VERTEX
  8
0
  6
CONTINUOUS
 10
3.996520
 20
5.900400
  0
SEQEND
  8
0
  0
SOLID
  8
0
 62
    15
 10
3.891800
 20
5.877960
 11
4.535520
 21
5.500000
 12
3.795880
 22
5.847160
 13
4.439600
 23
5.468760
  0
POLYLINE
  8
0
  6
CONTINUOUS
 66
     1
 40
0.000000
 41
0.000000
  0
VERTEX
  8
0
  6
CONTINUOUS
 10
3.891800
 20
5.877960
  0
VERTEX
  8
0
  6
CONTINUOUS
 10
4.535520
 20
5.500000
  0
VERTEX
  8
0
  6
CONTINUOUS
 10
4.439600
 20
5.468760
  0
VERTEX
  8
0
  6
CONTINUOUS
 10
3.795880
 20
5.847160
  0
VERTEX
  8
0
  6
CONTINUOUS
 10
3.891800
 20
5.877960
  0
SEQEND
  8
0
  0
SOLID
  8
0
 62
    15
 10
3.795880
 20
5.847160
 11
4.439600
 21
5.468760
 12
3.629120
 22
5.762240
 13
4.272840
 23
5.383840
  0
POLYLINE
  8
0
  6
CONTINUOUS
 66
     1
 40
0.000000
 41
0.000000
  0
VERTEX
  8
0
  6
CONTINUOUS
 10
3.795880
 20
5.847160
  0
VERTEX
  8
0
  6
CONTINUOUS
 10
4.439600
 20
5.468760
  0
VERTEX
  8
0
  6
CONTINUOUS
 10
4.272840
 20
5.383840
  0
VERTEX
  8
0
  6
CONTINUOUS
 10
3.629120
 20
5.762240
  0
VERTEX
  8
0
  6
CONTINUOUS
 10
3.795880
 20
5.847160
  0
SEQEND
  8
0
  0
SOLID
  8
0
 62
    15
 10
3.629120
 20
5.762240
 11
4.272840
 21
5.383840
 12
3.493160
 22
5.652680
 13
4.137320
 23
5.274280
  0
POLYLINE
  8
0
  6
CONTINUOUS
 66
     1
 40
0.000000
 41
0.000000
  0
VERTEX
  8
0
  6
CONTINUOUS
 10
3.629120
 20
5.762240
  0
VERTEX
  8
0
  6
CONTINUOUS
 10
4.272840
 20
5.383840
  0
VERTEX
  8
0
  6
CONTINUOUS
 10
4.137320
 20
5.274280
  0
VERTEX
  8
0
  6
CONTINUOUS
 10
3.493160
 20
5.652680
  0
VERTEX
  8
0
  6
CONTINUOUS
 10
3.629120
 20
5.762240
  0
SEQEND
  8
0
  0
SOLID
  8
0
 62
    15
 10
3.493160
 20
5.652680
 11
4.137320
 21
5.274280
 12
3.385800
 22
5.525520
 13
4.029520
 23
5.147560
  0
POLYLINE
  8
0
  6
CONTINUOUS
 66
     1
 40
0.000000
 41
0.000000
  0
VERTEX
  8
0
  6
CONTINUOUS
 10
3.493160
 20
5.652680
  0
VERTEX
  8
0
  6
CONTINUOUS
 10
4.137320
 20
5.274280
  0
VERTEX
  8
0
  6
CONTINUOUS
 10
4.029520
 20
5.147560
  0
VERTEX
  8
0
  6
CONTINUOUS
 10
3.385800
 20
5.525520
  0
VERTEX
  8
0
  6
CONTINUOUS
 10
3.493160
 20
5.652680
  0
SEQEND
  8
0
  0
SOLID
  8
0
 62
    15
 10
3.385800
 20
5.525520
 11
4.029520
 21
5.147560
 12
3.303080
 22
5.388680
 13
3.947240
 23
5.010720
  0
POLYLINE
  8
0
  6
CONTINUOUS
 66
     1
 40
0.000000
 41
0.000000
  0
VERTEX
  8
0
  6
CONTINUOUS
 10
3.385800
 20
5.525520
  0
VERTEX
  8
0
  6
CONTINUOUS
 10
4.029520
 20
5.147560
  0
VERTEX
  8
0
  6
CONTINUOUS
 10
3.947240
 20
5.010720
  0
VERTEX
  8
0
  6
CONTINUOUS
 10
3.303080
 20
5.388680
  0
VERTEX
  8
0
  6
CONTINUOUS
 10
3.385800
 20
5.525520
  0
SEQEND
  8
0
  0
SOLID
  8
0
 62
    15
 10
3.303080
 20
5.388680
 11
3.947240
 21
5.010720
 12
3.242800
 22
5.248760
 13
3.886960
 23
4.870800
  0
POLYLINE
  8
0
  6
CONTINUOUS
 66
     1
 40
0.000000
 41
0.000000
  0
VERTEX
  8
0
  6
CONTINUOUS
 10
3.303080
 20
5.388680
  0
VERTEX
  8
0
  6
CONTINUOUS
 10
3.947240
 20
5.010720
  0
VERTEX
  8
0
  6
CONTINUOUS
 10
3.886960
 20
4.870800
  0
VERTEX
  8
0
  6
CONTINUOUS
 10
3.242800
 20
5.248760
  0
VERTEX
  8
0
  6
CONTINUOUS
 10
3.303080
 20
5.388680
  0
SEQEND
  8
0
  0
SOLID
  8
0
 62
    15
 10
3.242800
 20
5.248760
 11
3.886960
 21
4.870800
 12
3.202320
 22
5.113240
 13
3.846040
 23
4.734840
  0
POLYLINE
  8
0
  6
CONTINUOUS
 66
     1
 40
0.000000
 41
0.000000
  0
VERTEX
  8
0
  6
CONTINUOUS
 10
3.242800
 20
5.248760
  0
VERTEX
  8
0
  6
CONTINUOUS
 10
3.886960
 20
4.870800
  0
VERTEX
  8
0
  6
CONTINUOUS
 10
3.846040
 20
4.734840
  0
VERTEX
  8
0
  6
CONTINUOUS
 10
3.202320
 20
5.113240
  0
VERTEX
  8
0
  6
CONTINUOUS
 10
3.242800
 20
5.248760
  0
SEQEND
  8
0
  0
SOLID
  8
0
 62
    15
 10
3.202320
 20
5.113240
 11
3.846040
 21
4.734840
 12
3.178120
 22
4.988720
 13
3.821840
 23
4.610760
  0
POLYLINE
  8
0
  6
CONTINUOUS
 66
     1
 40
0.000000
 41
0.000000
  0
VERTEX
  8
0
  6
CONTINUOUS
 10
3.202320
 20
5.113240
  0
VERTEX
  8
0
  6
CONTINUOUS
 10
3.846040
 20
4.734840
  0
VERTEX
  8
0
  6
CONTINUOUS
 10
3.821840
 20
4.610760
  0
VERTEX
  8
0
  6
CONTINUOUS
 10
3.178120
 20
4.988720
  0
VERTEX
  8
0
  6
CONTINUOUS
 10
3.202320
 20
5.113240
  0
SEQEND
  8
0
  0
SOLID
  8
0
 62
    15
 10
3.178120
 20
4.988720
 11
3.821840
 21
4.610760
 12
2.776400
 22
4.987840
 13
3.420560
 23
4.609440
  0
POLYLINE
  8
0
  6
CONTINUOUS
 66
     1
 40
0.000000
 41
0.000000
  0
VERTEX
  8
0
  6
CONTINUOUS
 10
3.178120
 20
4.988720
  0
VERTEX
  8
0
  6
CONTINUOUS
 10
3.821840
 20
4.610760
  0
VERTEX
  8
0
  6
CONTINUOUS
 10
3.420560
 20
4.609440
  0
VERTEX
  8
0
  6
CONTINUOUS
 10
2.776400
 20
4.987840
  0
VERTEX
  8
0
  6
CONTINUOUS
 10
3.178120
 20
4.988720
  0
SEQEND
  8
0
  0
POLYLINE
  8
0
  6
CONTINUOUS
 66
     1
 40
0.000000
 41
0.000000
  0
VERTEX
  8
0
  6
CONTINUOUS
 10
4.504720
 20
7.860600
  0
VERTEX
  8
0
  6
CONTINUOUS
 10
5.090800
 20
7.971040
  0
VERTEX
  8
0
  6
CONTINUOUS
 10
5.108400
 20
7.835080
  0
VERTEX
  8
0
  6
CONTINUOUS
 10
5.109280
 20
7.699120
  0
VERTEX
  8
0
  6
CONTINUOUS
 10
5.093440
 20
7.563600
  0
VERTEX
  8
0
  6
CONTINUOUS
 10
5.063520
 20
7.429840
  0
VERTEX
  8
0
  6
CONTINUOUS
 10
5.019960
 20
7.298280
  0
VERTEX
  8
0
  6
CONTINUOUS
 10
4.964080
 20
7.169800
  0
VERTEX
  8
0
  6
CONTINUOUS
 10
4.822840
 20
6.925600
  0
VERTEX
  8
0
  6
CONTINUOUS
 10
4.649920
 20
6.703400
  0
VERTEX
  8
0
  6
CONTINUOUS
 10
4.456320
 20
6.510240
  0
VERTEX
  8
0
  6
CONTINUOUS
 10
4.253040
 20
6.351840
  0
VERTEX
  8
0
  6
CONTINUOUS
 10
4.150960
 20
6.288040
  0
VERTEX
  8
0
  6
CONTINUOUS
 10
4.051080
 20
6.235240
  0
VERTEX
  8
0
  6
CONTINUOUS
 10
3.996520
 20
5.900400
  0
VERTEX
  8
0
  6
CONTINUOUS
 10
3.891800
 20
5.877960
  0
VERTEX
  8
0
  6
CONTINUOUS
 10
3.795880
 20
5.847160
  0
VERTEX
  8
0
  6
CONTINUOUS
 10
3.629120
 20
5.762240
  0
VERTEX
  8
0
  6
CONTINUOUS
 10
3.493160
 20
5.652680
  0
VERTEX
  8
0
  6
CONTINUOUS
 10
3.385800
 20
5.525520
  0
VERTEX
  8
0
  6
CONTINUOUS
 10
3.303080
 20
5.388680
  0
VERTEX
  8
0
  6
CONTINUOUS
 10
3.242800
 20
5.248760
  0
VERTEX
  8
0
  6
CONTINUOUS
 10
3.202320
 20
5.113240
  0
VERTEX
  8
0
  6
CONTINUOUS
 10
3.178120
 20
4.988720
  0
VERTEX
  8
0
  6
CONTINUOUS
 10
2.776400
 20
4.987840
  0
VERTEX
  8
0
  6
CONTINUOUS
 10
2.831400
 20
5.823400
  0
VERTEX
  8
0
  6
CONTINUOUS
 10
4.504280
 20
7.860160
  0
VERTEX
  8
0
  6
CONTINUOUS
 10
4.504720
 20
7.860600
  0
SEQEND
  8
0
  0
TEXT
  8
0
 10
4.428600
 20
4.828120
 40
0.138227
  1
BA  1283
 41
1.000000
  7
SN0
 71
     0
 72
     5
 11
5.110343
 21
4.828120
  0
TEXT
  8
0
 10
4.319040
 20
4.636280
 40
0.138227
  1
7/8" x 3-3/4"
 41
1.000000
  7
SN0
 71
     0
 72
     5
 11
5.218784
 21
4.636280
  0
TEXT
  8
0
 10
3.922160
 20
8.593640
 40
0.138227
  1
BA  1283
 41
1.000000
  7
SN0
 71
     0
 72
     5
 11
4.603903
 21
8.593640
  0
TEXT
  8
0
 10
3.812160
 20
8.401800
 40
0.138227
  1
7/8" x 3-3/4"
 41
1.000000
  7
SN0
 71
     0
 72
     5
 11
4.711904
 21
8.401800
  0
ENDSEC
  0
EOF
