  0
SECTION
  2
HEADER
  9
$ACADVER
  1
AC1015
  9
$ACADMAINTVER
 70
     6
  9
$DWGCODEPAGE
  3
DOS850
  9
$INSBASE
 10
0.0
 20
0.0
 30
0.0
  9
$EXTMIN
 10
-1.754472
 20
-0.379165
 30
1.000000E+20
  9
$EXTMAX
 10
1.792902
 20
1.903433
 30
-1.000000E+20
  9
$LIMMIN
 10
0.0
 20
0.0
  9
$LIMMAX
 10
0.0
 20
0.0
  9
$ORTHOMODE
 70
     0
  9
$REGENMODE
 70
     1
  9
$FILLMODE
 70
     1
  9
$QTEXTMODE
 70
     0
  9
$MIRRTEXT
 70
     1
  9
$LTSCALE
 40
1.0
  9
$ATTMODE
 70
     1
  9
$TEXTSIZE
 40
0.2
  9
$TRACEWID
 40
0.05
  9
$TEXTSTYLE
  7
Standard
  9
$CLAYER
  8
0
  9
$CELTYPE
  6
Continuous
  9
$CECOLOR
 62
   256
  9
$CELTSCALE
 40
1.0
  9
$DISPSILH
 70
     0
  9
$DIMSCALE
 40
1.0
  9
$DIMASZ
 40
0.18
  9
$DIMEXO
 40
0.0625
  9
$DIMDLI
 40
0.38
  9
$DIMRND
 40
0.0
  9
$DIMDLE
 40
0.0
  9
$DIMEXE
 40
0.18
  9
$DIMTP
 40
0.0
  9
$DIMTM
 40
0.0
  9
$DIMTXT
 40
0.18
  9
$DIMCEN
 40
0.09
  9
$DIMTSZ
 40
0.0
  9
$DIMTOL
 70
     0
  9
$DIMLIM
 70
     0
  9
$DIMTIH
 70
     1
  9
$DIMTOH
 70
     1
  9
$DIMSE1
 70
     0
  9
$DIMSE2
 70
     0
  9
$DIMTAD
 70
     0
  9
$DIMZIN
 70
     0
  9
$DIMBLK
  1

  9
$DIMASO
 70
     1
  9
$DIMSHO
 70
     1
  9
$DIMPOST
  1

  9
$DIMAPOST
  1

  9
$DIMALT
 70
     0
  9
$DIMALTD
 70
     2
  9
$DIMALTF
 40
25.4
  9
$DIMLFAC
 40
1.0
  9
$DIMTOFL
 70
     0
  9
$DIMTVP
 40
0.0
  9
$DIMTIX
 70
     0
  9
$DIMSOXD
 70
     0
  9
$DIMSAH
 70
     0
  9
$DIMBLK1
  1

  9
$DIMBLK2
  1

  9
$DIMSTYLE
  2
Standard
  9
$DIMCLRD
 70
     0
  9
$DIMCLRE
 70
     0
  9
$DIMCLRT
 70
     0
  9
$DIMTFAC
 40
1.0
  9
$DIMGAP
 40
0.09
  9
$DIMJUST
 70
     0
  9
$DIMSD1
 70
     0
  9
$DIMSD2
 70
     0
  9
$DIMTOLJ
 70
     1
  9
$DIMTZIN
 70
     0
  9
$DIMALTZ
 70
     0
  9
$DIMALTTZ
 70
     0
  9
$DIMUPT
 70
     0
  9
$DIMDEC
 70
     4
  9
$DIMTDEC
 70
     4
  9
$DIMALTU
 70
     2
  9
$DIMALTTD
 70
     2
  9
$DIMTXSTY
  7
Standard
  9
$DIMAUNIT
 70
     0
  9
$DIMADEC
 70
     0
  9
$DIMALTRND
 40
0.0
  9
$DIMAZIN
 70
     0
  9
$DIMDSEP
 70
     0
  9
$DIMATFIT
 70
     3
  9
$DIMFRAC
 70
     0
  9
$DIMLDRBLK
  1

  9
$DIMLUNIT
 70
     2
  9
$DIMLWD
 70
     0
  9
$DIMLWE
 70
     0
  9
$DIMTMOVE
 70
     0
  9
$LUNITS
 70
     2
  9
$LUPREC
 70
     4
  9
$SKETCHINC
 40
0.1
  9
$FILLETRAD
 40
0.0
  9
$AUNITS
 70
     0
  9
$AUPREC
 70
     0
  9
$MENU
  1
acad
  9
$ELEVATION
 40
0.0
  9
$PELEVATION
 40
0.0
  9
$THICKNESS
 40
0.0
  9
$LIMCHECK
 70
     0
  9
$CHAMFERA
 40
0.0
  9
$CHAMFERB
 40
0.0
  9
$CHAMFERC
 40
0.0
  9
$CHAMFERD
 40
0.0
  9
$SKPOLY
 70
     0
  9
$TDCREATE
 40
0.000000000
  9
$TDUCREATE
 40
0.000000000
  9
$TDUPDATE
 40
0.000000000
  9
$TDUUPDATE
 40
0.000000000
  9
$TDINDWG
 40
0.0000000000
  9
$TDUSRTIMER
 40
0.0000000000
  9
$USRTIMER
 70
     1
  9
$ANGBASE
 50
0.0
  9
$ANGDIR
 70
     0
  9
$PDMODE
 70
     0
  9
$PDSIZE
 40
0.0
  9
$PLINEWID
 40
0.0
  9
$SPLFRAME
 70
     0
  9
$SPLINETYPE
 70
     6
  9
$SPLINESEGS
 70
     8
  9
$HANDSEED
  5
49
  9
$SURFTAB1
 70
     6
  9
$SURFTAB2
 70
     6
  9
$SURFTYPE
 70
     6
  9
$SURFU
 70
     6
  9
$SURFV
 70
     6
  9
$UCSBASE
  2

  9
$UCSNAME
  2

  9
$UCSORG
 10
0.0
 20
0.0
 30
0.0
  9
$UCSXDIR
 10
1.0
 20
0.0
 30
0.0
  9
$UCSYDIR
 10
0.0
 20
1.0
 30
0.0
  9
$UCSORTHOREF
  2

  9
$UCSORTHOVIEW
 70
     0
  9
$UCSORGTOP
 10
0.0
 20
0.0
 30
0.0
  9
$UCSORGBOTTOM
 10
0.0
 20
0.0
 30
0.0
  9
$UCSORGLEFT
 10
0.0
 20
0.0
 30
0.0
  9
$UCSORGRIGHT
 10
0.0
 20
0.0
 30
0.0
  9
$UCSORGFRONT
 10
0.0
 20
0.0
 30
0.0
  9
$UCSORGBACK
 10
0.0
 20
0.0
 30
0.0
  9
$PUCSBASE
  2

  9
$PUCSNAME
  2

  9
$PUCSORG
 10
0.0
 20
0.0
 30
0.0
  9
$PUCSXDIR
 10
1.0
 20
0.0
 30
0.0
  9
$PUCSYDIR
 10
0.0
 20
1.0
 30
0.0
  9
$PUCSORTHOREF
  2

  9
$PUCSORTHOVIEW
 70
     0
  9
$PUCSORGTOP
 10
0.0
 20
0.0
 30
0.0
  9
$PUCSORGBOTTOM
 10
0.0
 20
0.0
 30
0.0
  9
$PUCSORGLEFT
 10
0.0
 20
0.0
 30
0.0
  9
$PUCSORGRIGHT
 10
0.0
 20
0.0
 30
0.0
  9
$PUCSORGFRONT
 10
0.0
 20
0.0
 30
0.0
  9
$PUCSORGBACK
 10
0.0
 20
0.0
 30
0.0
  9
$USERI1
 70
     0
  9
$USERI2
 70
     0
  9
$USERI3
 70
     0
  9
$USERI4
 70
     0
  9
$USERI5
 70
     0
  9
$USERR1
 40
0.0
  9
$USERR2
 40
0.0
  9
$USERR3
 40
0.0
  9
$USERR4
 40
0.0
  9
$USERR5
 40
0.0
  9
$WORLDVIEW
 70
     1
  9
$SHADEDGE
 70
     3
  9
$SHADEDIF
 70
    70
  9
$TILEMODE
 70
     1
  9
$MAXACTVP
 70
    16
  9
$PINSBASE
 10
0.0
 20
0.0
 30
0.0
  9
$PLIMCHECK
 70
     0
  9
$PEXTMIN
 10
1.000000E+20
 20
1.000000E+20
 30
1.000000E+20
  9
$PEXTMAX
 10
-1.000000E+20
 20
-1.000000E+20
 30
-1.000000E+20
  9
$PLIMMIN
 10
0.0
 20
0.0
  9
$PLIMMAX
 10
12.0
 20
9.0
  9
$UNITMODE
 70
     0
  9
$VISRETAIN
 70
     0
  9
$PLINEGEN
 70
     1
  9
$PSLTSCALE
 70
     0
  9
$TREEDEPTH
 70
  3020
  9
$CMLSTYLE
  2
Standard
  9
$CMLJUST
 70
     0
  9
$CMLSCALE
 40
1.0
  9
$PROXYGRAPHICS
 70
     0
  9
$MEASUREMENT
 70
     0
  9
$CELWEIGHT
370
     0
  9
$ENDCAPS
280
     0
  9
$JOINSTYLE
280
     0
  9
$LWDISPLAY
290
     0
  9
$INSUNITS
 70
     1
  9
$HYPERLINKBASE
  1

  9
$XEDIT
290
     1
  9
$CEPSNTYPE
380
     0
  9
$PSTYLEMODE
290
     1
  9
$FINGERPRINTGUID
  2

  9
$VERSIONGUID
  2

  9
$EXTNAMES
290
     1
  9
$PSVPSCALE
 40
0.0
  0
ENDSEC
  0
SECTION
  2
CLASSES
  0
CLASS
  1
LWPOLYLINE
  2
AcDbPolyline
  3
AutoCAD 2000
 90
    32768
280
     0
281
     1
  0
CLASS
  1
IMAGE
  2
AcDbRasterImage
  3
ISM
 90
    32895
280
     0
281
     1
  0
CLASS
  1
OLE2FRAME
  2
AcDbOle2Frame
  3
AutoCAD 2000
 90
    32768
280
     0
281
     1
  0
CLASS
  1
HATCH
  2
AcDbHatch
  3
AutoCAD 2000
 90
    32768
280
     0
281
     1
  0
CLASS
  1
DICTIONARYVAR
  2
AcDbDictionaryVar
  3
AutoCAD 2000
 90
    32768
280
     0
281
     0
  0
CLASS
  1
RASTERVARIABLES
  2
AcDbRasterVariables
  3
ISM
 90
    32768
280
     0
281
     0
  0
CLASS
  1
IMAGEDEF
  2
AcDbRasterImageDef
  3
ISM
 90
    32768
280
     0
281
     0
  0
CLASS
  1
IMAGEDEF_REACTOR
  2
AcDbRasterImageDefReactor
  3
ISM
 90
    32769
280
     0
281
     0
  0
CLASS
  1
IDBUFFER
  2
AcDbIdBuffer
  3
AutoCAD 2000
 90
    32768
280
     0
281
     0
  0
CLASS
  1
SPATIAL_FILTER
  2
AcDbSpatialFilter
  3
AutoCAD 2000
 90
    32768
280
     0
281
     0
  0
CLASS
  1
XRECORD
  2
AcDbXrecord
  3
AutoCAD 2000
 90
    32768
280
     0
281
     0
  0
CLASS
  1
SORTENTSTABLE
  2
AcDbSortentsTable
  3
AutoCAD 2000
 90
    32768
280
     0
281
     0
  0
CLASS
  1
LAYER_INDEX
  2
AcDbLayerIndex
  3
AutoCAD 2000
 90
    32768
280
     0
281
     0
  0
CLASS
  1
SPATIAL_INDEX
  2
AcDbSpatialIndex
  3
AutoCAD 2000
 90
    32768
280
     0
281
     0
  0
CLASS
  1
OBJECT_PTR
  2
CAseDLPNTableRecord
  3
"ASE-LPNTableRecord"
 90
    32769
280
     0
281
     0
  0
CLASS
  1
LAYOUT
  2
AcDbLayout
  3
AutoCAD 2000
 90
        0
280
     0
281
     0
  0
CLASS
  1
PLOTSETTINGS
  2
AcDbPlotSettings
  3
AutoCAD 2000
 90
    32768
280
     0
281
     0
  0
CLASS
  1
ACDBDICTIONARYWDFLT
  2
AcDbDictionaryWithDefault
  3
AutoCAD 2000
 90
        0
280
     0
281
     0
  0
CLASS
  1
ACDBPLACEHOLDER
  2
AcDbPlaceHolder
  3
AutoCAD 2000
 90
        0
280
     0
281
     0
  0
CLASS
  1
VBA_PROJECT
  2
AcDbVbaProject
  3
acadvba
 90
    32768
280
     0
281
     0
  0
CLASS
  1
WIPEOUT
  2
AcDbWipeout
  3
WipeOut|AutoCAD Express Tool|expresstools@autodesk.com
 90
    32895
280
     0
281
     1
  0
CLASS
  1
WIPEOUTVARIABLES
  2
AcDbWipeoutVariables
  3
WipeOut|AutoCAD Express Tool|expresstools@autodesk.com
 90
        0
280
     0
281
     0
  0
CLASS
  1
RTEXT
  2
RText
  3
RText|AutoCAD Express Tool|expresstools@autodesk.com
 90
    32768
280
     0
281
     1
  0
CLASS
  1
ARCALIGNEDTEXT
  2
AcDbArcAlignedText
  3
ATEXT|AutoCAD Express Tool|expresstools@autodesk.com
 90
    32768
280
     0
281
     1
  0
ENDSEC
  0
SECTION
  2
TABLES
  0
TABLE
  2
VPORT
  5
7
100
AcDbSymbolTable
 70
     1
  0
VPORT
  5
15
100
AcDbSymbolTableRecord
100
AcDbViewportTableRecord
  2
*ACTIVE
 70
     0
 10
0.0
 20
0.0
 11
1.0
 21
1.0
 12
6.591288
 22
4.579184
 13
0.0
 23
0.0
 14
1.0
 24
1.0
 15
0.0
 25
0.0
 16
0.0
 26
0.0
 36
1.0
 17
0.0
 27
0.0
 37
0.0
 40
9.158369
 41
0.688564
 42
50.0
 43
0.0
 44
0.0
 50
0.0
 51
0.0
 71
     0
 72
   100
 73
     1
 74
     1
 75
     0
 76
     0
 77
     0
 78
     0
281
     0
 65
     0
110
0.0
120
0.0
130
0.0
111
1.0
121
0.0
131
0.0
112
0.0
122
1.0
132
0.0
345
0
346
0
 79
     0
146
0.0
  0
ENDTAB
  0
TABLE
  2
LTYPE
  5
4
100
AcDbSymbolTable
 70
     3
  0
LTYPE
  5
11
100
AcDbSymbolTableRecord
100
AcDbLinetypeTableRecord
  2
ByBlock
 70
    64
  3

 72
    65
 73
     0
 40
0.0
  0
LTYPE
  5
12
100
AcDbSymbolTableRecord
100
AcDbLinetypeTableRecord
  2
ByLayer
 70
    64
  3

 72
    65
 73
     0
 40
0.0
  0
LTYPE
  5
13
100
AcDbSymbolTableRecord
100
AcDbLinetypeTableRecord
  2
Continuous
 70
    64
  3
Solid line
 72
    65
 73
     0
 40
0.0
  0
ENDTAB
  0
TABLE
  2
LAYER
  5
2
100
AcDbSymbolTable
 70
     2
  0
LAYER
  5
14
100
AcDbSymbolTableRecord
100
AcDbLayerTableRecord
  2
0
 70
     0
 62
     7
  6
Continuous
290
     1
370
    -3
390
1D
  0
LAYER
  5
24
100
AcDbSymbolTableRecord
100
AcDbLayerTableRecord
  2
P1-Layer 1
 70
     0
 62
     7
  6
Continuous
290
     1
370
    -3
390
1F
  0
ENDTAB
  0
TABLE
  2
STYLE
  5
3
100
AcDbSymbolTable
 70
     1
  0
STYLE
  5
17
100
AcDbSymbolTableRecord
100
AcDbTextStyleTableRecord
  2
Standard
 70
     0
 40
0.0
 41
1.0
 50
0.0
 71
     0
 42
0.0
  3
txt
  4

  0
ENDTAB
  0
TABLE
  2
VIEW
  5
5
100
AcDbSymbolTable
 70
     0
  0
ENDTAB
  0
TABLE
  2
UCS
  5
6
100
AcDbSymbolTable
 70
     0
  0
ENDTAB
  0
TABLE
  2
APPID
  5
8
100
AcDbSymbolTable
 70
     1
  0
APPID
  5
16
100
AcDbSymbolTableRecord
100
AcDbRegAppTableRecord
  2
ACAD
 70
     0
  0
ENDTAB
  0
TABLE
  2
DIMSTYLE
  5
9
100
AcDbSymbolTable
 70
     1
100
AcDbDimStyleTable
 71
     0
  0
DIMSTYLE
105
18
100
AcDbSymbolTableRecord
100
AcDbDimStyleTableRecord
  2
Standard
 70
     0
  3

  4

 40
1.0
 41
0.18
 42
0.0625
 43
0.38
 44
0.18
 45
0.0
 46
0.0
 47
0.0
 48
0.0
 71
     0
 72
     0
 73
     1
 74
     1
 75
     0
 76
     0
 77
     0
 78
     0
 79
     0
140
0.18
141
0.09
142
0.0
143
25.4
144
1.0
145
0.0
146
1.0
147
0.09
148
0.0
170
     0
171
     2
172
     0
173
     0
174
     0
175
     0
176
     0
177
     0
178
     0
179
     0
271
     4
272
     4
273
     2
274
     2
275
     0
276
     0
277
     2
278
    46
279
     0
280
     0
281
     0
282
     0
283
     1
284
     0
285
     0
286
     0
288
     0
340
17
341
0
342
0
343
0
344
0
371
    -2
372
    -2
  0
ENDTAB
  0
TABLE
  2
BLOCK_RECORD
  5
1
100
AcDbSymbolTable
 70
     0
  0
BLOCK_RECORD
  5
A
100
AcDbSymbolTableRecord
100
AcDbBlockTableRecord
  2
*MODEL_SPACE
340
20
  0
BLOCK_RECORD
  5
B
100
AcDbSymbolTableRecord
100
AcDbBlockTableRecord
  2
*PAPER_SPACE
340
21
  0
ENDTAB
  0
ENDSEC
  0
SECTION
  2
BLOCKS
  0
BLOCK
  5
D
100
AcDbEntity
  8
0
100
AcDbBlockBegin
  2
*MODEL_SPACE
 70
     0
 10
0.0
 20
0.0
 30
0.0
  3
*MODEL_SPACE
  1

  0
ENDBLK
  5
E
100
AcDbEntity
  8
0
100
AcDbBlockEnd
  0
BLOCK
  5
F
100
AcDbEntity
 67
     1
  8
0
100
AcDbBlockBegin
  2
*PAPER_SPACE
 70
     0
 10
0.0
 20
0.0
 30
0.0
  3
*PAPER_SPACE
  1

  0
ENDBLK
  5
10
100
AcDbEntity
 67
     1
  8
0
100
AcDbBlockEnd
  0
ENDSEC
  0
SECTION
  2
ENTITIES
  0
SPLINE
  5
25
100
AcDbEntity
  8
P1-Layer 1
100
AcDbSpline
210
0.0
220
0.0
230
1.0
 70
     1
 71
     3
 72
    76
 73
    72
 74
     0
 42
0.0000000001
 43
0.0000000001
 40
0.0
 40
0.0
 40
0.0
 40
0.0
 40
0.0555555555555556
 40
0.0555555555555556
 40
0.0555555555555556
 40
0.0555555555555556
 40
0.1111111111111111
 40
0.1111111111111111
 40
0.1111111111111111
 40
0.1111111111111111
 40
0.1666666666666667
 40
0.1666666666666667
 40
0.1666666666666667
 40
0.1666666666666667
 40
0.2222222222222222
 40
0.2222222222222222
 40
0.2222222222222222
 40
0.2222222222222222
 40
0.2777777777777778
 40
0.2777777777777778
 40
0.2777777777777778
 40
0.2777777777777778
 40
0.3333333333333334
 40
0.3333333333333334
 40
0.3333333333333334
 40
0.3333333333333334
 40
0.388888888888889
 40
0.388888888888889
 40
0.388888888888889
 40
0.388888888888889
 40
0.4444444444444445
 40
0.4444444444444445
 40
0.4444444444444445
 40
0.4444444444444445
 40
0.5000000000000001
 40
0.5000000000000001
 40
0.5000000000000001
 40
0.5000000000000001
 40
0.5555555555555557
 40
0.5555555555555557
 40
0.5555555555555557
 40
0.5555555555555557
 40
0.6111111111111113
 40
0.6111111111111113
 40
0.6111111111111113
 40
0.6111111111111113
 40
0.6666666666666669
 40
0.6666666666666669
 40
0.6666666666666669
 40
0.6666666666666669
 40
0.7222222222222224
 40
0.7222222222222224
 40
0.7222222222222224
 40
0.7222222222222224
 40
0.777777777777778
 40
0.777777777777778
 40
0.777777777777778
 40
0.777777777777778
 40
0.8333333333333336
 40
0.8333333333333336
 40
0.8333333333333336
 40
0.8333333333333336
 40
0.8888888888888892
 40
0.8888888888888892
 40
0.8888888888888892
 40
0.8888888888888892
 40
0.9444444444444448
 40
0.9444444444444448
 40
0.9444444444444448
 40
0.9444444444444448
 40
1.0
 40
1.0
 40
1.0
 40
1.0
 10
1.7859724409448818
 20
1.0092283464566929
 30
0.0
 10
1.7859724409448818
 20
0.9801259842519685
 30
0.0
 10
1.7859724409448818
 20
0.9510236220472441
 30
0.0
 10
1.7859724409448818
 20
0.9212283464566929
 30
0.0
 10
1.7859724409448818
 20
0.9212283464566929
 30
0.0
 10
1.5198937007874016
 20
0.9212283464566929
 30
0.0
 10
1.2538149606299211
 20
0.9212283464566929
 30
0.0
 10
0.9877362204724409
 20
0.9212283464566929
 30
0.0
 10
0.9877362204724409
 20
0.9212283464566929
 30
0.0
 10
0.9877362204724409
 20
0.6703937007874016
 30
0.0
 10
0.9877362204724409
 20
0.4195590551181103
 30
0.0
 10
0.9877362204724409
 20
0.1687244094488189
 30
0.0
 10
0.9877362204724409
 20
0.1687244094488189
 30
0.0
 10
0.814507874015748
 20
0.1687244094488189
 30
0.0
 10
0.6412795275590552
 20
0.1687244094488189
 30
0.0
 10
0.4680511811023622
 20
0.1687244094488189
 30
0.0
 10
0.4680511811023622
 20
0.1687244094488189
 30
0.0
 10
0.4680511811023622
 20
0.4777637795275591
 30
0.0
 10
0.4680511811023622
 20
0.7874960629921259
 30
0.0
 10
0.4680511811023622
 20
1.097228346456693
 30
0.0
 10
0.4680511811023622
 20
1.097228346456693
 30
0.0
 10
0.4680511811023622
 20
1.097228346456693
 30
0.0
 10
0.4680511811023622
 20
1.097228346456693
 30
0.0
 10
0.4680511811023622
 20
1.097228346456693
 30
0.0
 10
0.4680511811023622
 20
1.097228346456693
 30
0.0
 10
0.4680511811023622
 20
1.2129448818897637
 30
0.0
 10
0.5553582677165354
 20
1.2746141732283465
 30
0.0
 10
0.684240157480315
 20
1.2746141732283465
 30
0.0
 10
0.684240157480315
 20
1.2746141732283465
 30
0.0
 10
0.684240157480315
 20
1.2746141732283465
 30
0.0
 10
0.684240157480315
 20
1.2746141732283465
 30
0.0
 10
0.684240157480315
 20
1.2746141732283465
 30
0.0
 10
0.684240157480315
 20
1.2746141732283465
 30
0.0
 10
0.8436102362204725
 20
1.2746141732283465
 30
0.0
 10
1.0036732283464567
 20
1.2746141732283465
 30
0.0
 10
1.1637362204724409
 20
1.2746141732283465
 30
0.0
 10
1.1637362204724409
 20
1.2746141732283465
 30
0.0
 10
1.1637362204724409
 20
1.2746141732283465
 30
0.0
 10
1.1637362204724409
 20
1.2746141732283465
 30
0.0
 10
1.1637362204724409
 20
1.2746141732283465
 30
0.0
 10
1.1637362204724409
 20
1.2746141732283465
 30
0.0
 10
1.2482716535433072
 20
1.2746141732283465
 30
0.0
 10
1.3681456692913385
 20
1.2877795275590551
 30
0.0
 10
1.3833897637795276
 20
1.1685984251968504
 30
0.0
 10
1.3833897637795276
 20
1.1685984251968504
 30
0.0
 10
1.3833897637795276
 20
1.1685984251968504
 30
0.0
 10
1.3833897637795276
 20
1.1685984251968504
 30
0.0
 10
1.3833897637795276
 20
1.1685984251968504
 30
0.0
 10
1.3833897637795276
 20
1.1685984251968504
 30
0.0
 10
1.3889330708661418
 20
1.1685984251968504
 30
0.0
 10
1.3944763779527558
 20
1.1685984251968504
 30
0.0
 10
1.4007125984251969
 20
1.1685984251968504
 30
0.0
 10
1.4007125984251969
 20
1.1685984251968504
 30
0.0
 10
1.4007125984251969
 20
1.1685984251968504
 30
0.0
 10
1.4007125984251969
 20
1.1685984251968504
 30
0.0
 10
1.4007125984251969
 20
1.1685984251968504
 30
0.0
 10
1.4007125984251969
 20
1.1685984251968504
 30
0.0
 10
1.433972440944882
 20
1.2018582677165355
 30
0.0
 10
1.5406811023622047
 20
1.1866141732283464
 30
0.0
 10
1.6023503937007875
 20
1.1249448818897638
 30
0.0
 10
1.6023503937007875
 20
1.1249448818897638
 30
0.0
 10
1.6543188976377954
 20
1.0729763779527559
 30
0.0
 10
1.7132165354330708
 20
1.0286299212598424
 30
0.0
 10
1.7859724409448818
 20
1.0099212598425198
 30
0.0
 10
1.7859724409448818
 20
1.0099212598425198
 30
0.0
 10
1.7859724409448818
 20
1.0099212598425198
 30
0.0
 10
1.7859724409448818
 20
1.0099212598425198
 30
0.0
 10
1.7859724409448818
 20
1.0099212598425198
 30
0.0
 10
1.7859724409448818
 20
1.0099212598425198
 30
0.0
 10
1.7859724409448818
 20
1.0099212598425198
 30
0.0
 10
1.7859724409448818
 20
1.0099212598425198
 30
0.0
 10
1.7859724409448818
 20
1.0092283464566929
 30
0.0
  0
SPLINE
  5
26
100
AcDbEntity
  8
P1-Layer 1
 62
     9
100
AcDbSpline
210
0.0
220
0.0
230
1.0
 70
     1
 71
     3
 72
    20
 73
    16
 74
     0
 42
0.0000000001
 43
0.0000000001
 40
0.0
 40
0.0
 40
0.0
 40
0.0
 40
0.25
 40
0.25
 40
0.25
 40
0.25
 40
0.5
 40
0.5
 40
0.5
 40
0.5
 40
0.75
 40
0.75
 40
0.75
 40
0.75
 40
1.0
 40
1.0
 40
1.0
 40
1.0
 10
-0.8928346456692914
 20
1.1332598425196851
 30
0.0
 10
-0.8928346456692914
 20
1.1332598425196851
 30
0.0
 10
-0.8928346456692914
 20
1.8822992125984253
 30
0.0
 10
-0.8928346456692914
 20
1.8822992125984253
 30
0.0
 10
-0.8928346456692914
 20
1.8822992125984253
 30
0.0
 10
-0.8928346456692914
 20
1.8822992125984253
 30
0.0
 10
-0.8678897637795275
 20
1.8635905511811024
 30
0.0
 10
-0.8678897637795275
 20
1.8635905511811024
 30
0.0
 10
-0.8678897637795275
 20
1.8635905511811024
 30
0.0
 10
-0.8678897637795275
 20
1.8635905511811024
 30
0.0
 10
-0.8678897637795275
 20
1.1138582677165354
 30
0.0
 10
-0.8678897637795275
 20
1.1138582677165354
 30
0.0
 10
-0.8678897637795275
 20
1.1138582677165354
 30
0.0
 10
-0.8678897637795275
 20
1.1138582677165354
 30
0.0
 10
-0.8928346456692914
 20
1.1332598425196851
 30
0.0
 10
-0.8928346456692914
 20
1.1332598425196851
 30
0.0
  0
SPLINE
  5
27
100
AcDbEntity
  8
P1-Layer 1
 62
   252
100
AcDbSpline
210
0.0
220
0.0
230
1.0
 70
     1
 71
     3
 72
    20
 73
    16
 74
     0
 42
0.0000000001
 43
0.0000000001
 40
0.0
 40
0.0
 40
0.0
 40
0.0
 40
0.25
 40
0.25
 40
0.25
 40
0.25
 40
0.5
 40
0.5
 40
0.5
 40
0.5
 40
0.75
 40
0.75
 40
0.75
 40
0.75
 40
1.0
 40
1.0
 40
1.0
 40
1.0
 10
-1.2351338582677165
 20
0.7992755905511811
 30
0.0
 10
-1.2351338582677165
 20
0.7992755905511811
 30
0.0
 10
-1.2344409448818898
 20
1.549007874015748
 30
0.0
 10
-1.2344409448818898
 20
1.549007874015748
 30
0.0
 10
-1.2344409448818898
 20
1.549007874015748
 30
0.0
 10
-1.2344409448818898
 20
1.549007874015748
 30
0.0
 10
-1.2344409448818898
 20
0.796503937007874
 30
0.0
 10
-1.2344409448818898
 20
0.796503937007874
 30
0.0
 10
-1.2344409448818898
 20
0.796503937007874
 30
0.0
 10
-1.2344409448818898
 20
0.796503937007874
 30
0.0
 10
-1.2351338582677165
 20
0.0474645669291339
 30
0.0
 10
-1.2351338582677165
 20
0.0474645669291339
 30
0.0
 10
-1.2351338582677165
 20
0.0474645669291339
 30
0.0
 10
-1.2351338582677165
 20
0.0474645669291339
 30
0.0
 10
-1.2351338582677165
 20
0.7992755905511811
 30
0.0
 10
-1.2351338582677165
 20
0.7992755905511811
 30
0.0
  0
SPLINE
  5
28
100
AcDbEntity
  8
P1-Layer 1
 62
     8
100
AcDbSpline
210
0.0
220
0.0
230
1.0
 70
     1
 71
     3
 72
    20
 73
    16
 74
     0
 42
0.0000000001
 43
0.0000000001
 40
0.0
 40
0.0
 40
0.0
 40
0.0
 40
0.25
 40
0.25
 40
0.25
 40
0.25
 40
0.5
 40
0.5
 40
0.5
 40
0.5
 40
0.75
 40
0.75
 40
0.75
 40
0.75
 40
1.0
 40
1.0
 40
1.0
 40
1.0
 10
-1.7541259842519685
 20
0.9759685039370079
 30
0.0
 10
-1.7541259842519685
 20
0.9759685039370079
 30
0.0
 10
-1.7541259842519685
 20
1.7257007874015748
 30
0.0
 10
-1.7541259842519685
 20
1.7257007874015748
 30
0.0
 10
-1.7541259842519685
 20
1.7257007874015748
 30
0.0
 10
-1.7541259842519685
 20
1.7257007874015748
 30
0.0
 10
-1.7499685039370079
 20
1.7658897637795277
 30
0.0
 10
-1.7499685039370079
 20
1.7658897637795277
 30
0.0
 10
-1.7499685039370079
 20
1.7658897637795277
 30
0.0
 10
-1.7499685039370079
 20
1.7658897637795277
 30
0.0
 10
-1.7506614173228348
 20
1.0168503937007873
 30
0.0
 10
-1.7506614173228348
 20
1.0168503937007873
 30
0.0
 10
-1.7506614173228348
 20
1.0168503937007873
 30
0.0
 10
-1.7506614173228348
 20
1.0168503937007873
 30
0.0
 10
-1.7541259842519685
 20
0.9759685039370079
 30
0.0
 10
-1.7541259842519685
 20
0.9759685039370079
 30
0.0
  0
SPLINE
  5
29
100
AcDbEntity
  8
P1-Layer 1
 62
     8
100
AcDbSpline
210
0.0
220
0.0
230
1.0
 70
     1
 71
     3
 72
    20
 73
    16
 74
     0
 42
0.0000000001
 43
0.0000000001
 40
0.0
 40
0.0
 40
0.0
 40
0.0
 40
0.25
 40
0.25
 40
0.25
 40
0.25
 40
0.5
 40
0.5
 40
0.5
 40
0.5
 40
0.75
 40
0.75
 40
0.75
 40
0.75
 40
1.0
 40
1.0
 40
1.0
 40
1.0
 10
-1.7506614173228348
 20
1.0168503937007873
 30
0.0
 10
-1.7506614173228348
 20
1.0168503937007873
 30
0.0
 10
-1.7499685039370079
 20
1.7658897637795277
 30
0.0
 10
-1.7499685039370079
 20
1.7658897637795277
 30
0.0
 10
-1.7499685039370079
 20
1.7658897637795277
 30
0.0
 10
-1.7499685039370079
 20
1.7658897637795277
 30
0.0
 10
-1.7381889763779528
 20
1.8019212598425196
 30
0.0
 10
-1.7381889763779528
 20
1.8019212598425196
 30
0.0
 10
-1.7381889763779528
 20
1.8019212598425196
 30
0.0
 10
-1.7381889763779528
 20
1.8019212598425196
 30
0.0
 10
-1.7388818897637794
 20
1.0521889763779528
 30
0.0
 10
-1.7388818897637794
 20
1.0521889763779528
 30
0.0
 10
-1.7388818897637794
 20
1.0521889763779528
 30
0.0
 10
-1.7388818897637794
 20
1.0521889763779528
 30
0.0
 10
-1.7506614173228348
 20
1.0168503937007873
 30
0.0
 10
-1.7506614173228348
 20
1.0168503937007873
 30
0.0
  0
SPLINE
  5
2A
100
AcDbEntity
  8
P1-Layer 1
 62
     8
100
AcDbSpline
210
0.0
220
0.0
230
1.0
 70
     1
 71
     3
 72
    20
 73
    16
 74
     0
 42
0.0000000001
 43
0.0000000001
 40
0.0
 40
0.0
 40
0.0
 40
0.0
 40
0.25
 40
0.25
 40
0.25
 40
0.25
 40
0.5
 40
0.5
 40
0.5
 40
0.5
 40
0.75
 40
0.75
 40
0.75
 40
0.75
 40
1.0
 40
1.0
 40
1.0
 40
1.0
 10
-1.7388818897637794
 20
1.0521889763779528
 30
0.0
 10
-1.7388818897637794
 20
1.0521889763779528
 30
0.0
 10
-1.7381889763779528
 20
1.8019212598425196
 30
0.0
 10
-1.7381889763779528
 20
1.8019212598425196
 30
0.0
 10
-1.7381889763779528
 20
1.8019212598425196
 30
0.0
 10
-1.7381889763779528
 20
1.8019212598425196
 30
0.0
 10
-1.7194803149606299
 20
1.8324094488188976
 30
0.0
 10
-1.7194803149606299
 20
1.8324094488188976
 30
0.0
 10
-1.7194803149606299
 20
1.8324094488188976
 30
0.0
 10
-1.7194803149606299
 20
1.8324094488188976
 30
0.0
 10
-1.7201732283464566
 20
1.0826771653543308
 30
0.0
 10
-1.7201732283464566
 20
1.0826771653543308
 30
0.0
 10
-1.7201732283464566
 20
1.0826771653543308
 30
0.0
 10
-1.7201732283464566
 20
1.0826771653543308
 30
0.0
 10
-1.7388818897637794
 20
1.0521889763779528
 30
0.0
 10
-1.7388818897637794
 20
1.0521889763779528
 30
0.0
  0
SPLINE
  5
2B
100
AcDbEntity
  8
P1-Layer 1
 62
   252
100
AcDbSpline
210
0.0
220
0.0
230
1.0
 70
     1
 71
     3
 72
    20
 73
    16
 74
     0
 42
0.0000000001
 43
0.0000000001
 40
0.0
 40
0.0
 40
0.0
 40
0.0
 40
0.25
 40
0.25
 40
0.25
 40
0.25
 40
0.5
 40
0.5
 40
0.5
 40
0.5
 40
0.75
 40
0.75
 40
0.75
 40
0.75
 40
1.0
 40
1.0
 40
1.0
 40
1.0
 10
-1.7201732283464566
 20
1.0826771653543308
 30
0.0
 10
-1.7201732283464566
 20
1.0826771653543308
 30
0.0
 10
-1.7194803149606299
 20
1.8324094488188976
 30
0.0
 10
-1.7194803149606299
 20
1.8324094488188976
 30
0.0
 10
-1.7194803149606299
 20
1.8324094488188976
 30
0.0
 10
-1.7194803149606299
 20
1.8324094488188976
 30
0.0
 10
-1.6945354330708662
 20
1.8573543307086615
 30
0.0
 10
-1.6945354330708662
 20
1.8573543307086615
 30
0.0
 10
-1.6945354330708662
 20
1.8573543307086615
 30
0.0
 10
-1.6945354330708662
 20
1.8573543307086615
 30
0.0
 10
-1.6945354330708662
 20
1.1076220472440945
 30
0.0
 10
-1.6945354330708662
 20
1.1076220472440945
 30
0.0
 10
-1.6945354330708662
 20
1.1076220472440945
 30
0.0
 10
-1.6945354330708662
 20
1.1076220472440945
 30
0.0
 10
-1.7201732283464566
 20
1.0826771653543308
 30
0.0
 10
-1.7201732283464566
 20
1.0826771653543308
 30
0.0
  0
SPLINE
  5
2C
100
AcDbEntity
  8
P1-Layer 1
 62
   253
100
AcDbSpline
210
0.0
220
0.0
230
1.0
 70
     1
 71
     3
 72
    20
 73
    16
 74
     0
 42
0.0000000001
 43
0.0000000001
 40
0.0
 40
0.0
 40
0.0
 40
0.0
 40
0.25
 40
0.25
 40
0.25
 40
0.25
 40
0.5
 40
0.5
 40
0.5
 40
0.5
 40
0.75
 40
0.75
 40
0.75
 40
0.75
 40
1.0
 40
1.0
 40
1.0
 40
1.0
 10
-1.6945354330708662
 20
1.1076220472440945
 30
0.0
 10
-1.6945354330708662
 20
1.1076220472440945
 30
0.0
 10
-1.6945354330708662
 20
1.8573543307086615
 30
0.0
 10
-1.6945354330708662
 20
1.8573543307086615
 30
0.0
 10
-1.6945354330708662
 20
1.8573543307086615
 30
0.0
 10
-1.6945354330708662
 20
1.8573543307086615
 30
0.0
 10
-1.6633543307086613
 20
1.876755905511811
 30
0.0
 10
-1.6633543307086613
 20
1.876755905511811
 30
0.0
 10
-1.6633543307086613
 20
1.876755905511811
 30
0.0
 10
-1.6633543307086613
 20
1.876755905511811
 30
0.0
 10
-1.6633543307086613
 20
1.1277165354330709
 30
0.0
 10
-1.6633543307086613
 20
1.1277165354330709
 30
0.0
 10
-1.6633543307086613
 20
1.1277165354330709
 30
0.0
 10
-1.6633543307086613
 20
1.1277165354330709
 30
0.0
 10
-1.6945354330708662
 20
1.1076220472440945
 30
0.0
 10
-1.6945354330708662
 20
1.1076220472440945
 30
0.0
  0
SPLINE
  5
2D
100
AcDbEntity
  8
P1-Layer 1
 62
   253
100
AcDbSpline
210
0.0
220
0.0
230
1.0
 70
     1
 71
     3
 72
    20
 73
    16
 74
     0
 42
0.0000000001
 43
0.0000000001
 40
0.0
 40
0.0
 40
0.0
 40
0.0
 40
0.25
 40
0.25
 40
0.25
 40
0.25
 40
0.5
 40
0.5
 40
0.5
 40
0.5
 40
0.75
 40
0.75
 40
0.75
 40
0.75
 40
1.0
 40
1.0
 40
1.0
 40
1.0
 10
-1.6633543307086613
 20
1.1277165354330709
 30
0.0
 10
-1.6633543307086613
 20
1.1277165354330709
 30
0.0
 10
-1.6633543307086613
 20
1.876755905511811
 30
0.0
 10
-1.6633543307086613
 20
1.876755905511811
 30
0.0
 10
-1.6633543307086613
 20
1.876755905511811
 30
0.0
 10
-1.6633543307086613
 20
1.876755905511811
 30
0.0
 10
-1.6259370078740158
 20
1.8913070866141732
 30
0.0
 10
-1.6259370078740158
 20
1.8913070866141732
 30
0.0
 10
-1.6259370078740158
 20
1.8913070866141732
 30
0.0
 10
-1.6259370078740158
 20
1.8913070866141732
 30
0.0
 10
-1.6266299212598425
 20
1.1415748031496062
 30
0.0
 10
-1.6266299212598425
 20
1.1415748031496062
 30
0.0
 10
-1.6266299212598425
 20
1.1415748031496062
 30
0.0
 10
-1.6266299212598425
 20
1.1415748031496062
 30
0.0
 10
-1.6633543307086613
 20
1.1277165354330709
 30
0.0
 10
-1.6633543307086613
 20
1.1277165354330709
 30
0.0
  0
SPLINE
  5
2E
100
AcDbEntity
  8
P1-Layer 1
 62
     9
100
AcDbSpline
210
0.0
220
0.0
230
1.0
 70
     1
 71
     3
 72
    20
 73
    16
 74
     0
 42
0.0000000001
 43
0.0000000001
 40
0.0
 40
0.0
 40
0.0
 40
0.0
 40
0.25
 40
0.25
 40
0.25
 40
0.25
 40
0.5
 40
0.5
 40
0.5
 40
0.5
 40
0.75
 40
0.75
 40
0.75
 40
0.75
 40
1.0
 40
1.0
 40
1.0
 40
1.0
 10
-1.6266299212598425
 20
1.1415748031496062
 30
0.0
 10
-1.6266299212598425
 20
1.1415748031496062
 30
0.0
 10
-1.6259370078740158
 20
1.8913070866141732
 30
0.0
 10
-1.6259370078740158
 20
1.8913070866141732
 30
0.0
 10
-1.6259370078740158
 20
1.8913070866141732
 30
0.0
 10
-1.6259370078740158
 20
1.8913070866141732
 30
0.0
 10
-1.5843622047244095
 20
1.8996220472440946
 30
0.0
 10
-1.5843622047244095
 20
1.8996220472440946
 30
0.0
 10
-1.5843622047244095
 20
1.8996220472440946
 30
0.0
 10
-1.5843622047244095
 20
1.8996220472440946
 30
0.0
 10
-1.5850551181102361
 20
1.1498897637795276
 30
0.0
 10
-1.5850551181102361
 20
1.1498897637795276
 30
0.0
 10
-1.5850551181102361
 20
1.1498897637795276
 30
0.0
 10
-1.5850551181102361
 20
1.1498897637795276
 30
0.0
 10
-1.6266299212598425
 20
1.1415748031496062
 30
0.0
 10
-1.6266299212598425
 20
1.1415748031496062
 30
0.0
  0
SPLINE
  5
2F
100
AcDbEntity
  8
P1-Layer 1
 62
     9
100
AcDbSpline
210
0.0
220
0.0
230
1.0
 70
     1
 71
     3
 72
    20
 73
    16
 74
     0
 42
0.0000000001
 43
0.0000000001
 40
0.0
 40
0.0
 40
0.0
 40
0.0
 40
0.25
 40
0.25
 40
0.25
 40
0.25
 40
0.5
 40
0.5
 40
0.5
 40
0.5
 40
0.75
 40
0.75
 40
0.75
 40
0.75
 40
1.0
 40
1.0
 40
1.0
 40
1.0
 10
-1.5850551181102361
 20
1.1498897637795276
 30
0.0
 10
-1.5850551181102361
 20
1.1498897637795276
 30
0.0
 10
-1.5843622047244095
 20
1.8996220472440946
 30
0.0
 10
-1.5843622047244095
 20
1.8996220472440946
 30
0.0
 10
-1.5843622047244095
 20
1.8996220472440946
 30
0.0
 10
-1.5843622047244095
 20
1.8996220472440946
 30
0.0
 10
-1.5379370078740158
 20
1.9023937007874017
 30
0.0
 10
-1.5379370078740158
 20
1.9023937007874017
 30
0.0
 10
-1.5379370078740158
 20
1.9023937007874017
 30
0.0
 10
-1.5379370078740158
 20
1.9023937007874017
 30
0.0
 10
-1.5386299212598424
 20
1.1533543307086613
 30
0.0
 10
-1.5386299212598424
 20
1.1533543307086613
 30
0.0
 10
-1.5386299212598424
 20
1.1533543307086613
 30
0.0
 10
-1.5386299212598424
 20
1.1533543307086613
 30
0.0
 10
-1.5850551181102361
 20
1.1498897637795276
 30
0.0
 10
-1.5850551181102361
 20
1.1498897637795276
 30
0.0
  0
SPLINE
  5
30
100
AcDbEntity
  8
P1-Layer 1
 62
     9
100
AcDbSpline
210
0.0
220
0.0
230
1.0
 70
     1
 71
     3
 72
    20
 73
    16
 74
     0
 42
0.0000000001
 43
0.0000000001
 40
0.0
 40
0.0
 40
0.0
 40
0.0
 40
0.25
 40
0.25
 40
0.25
 40
0.25
 40
0.5
 40
0.5
 40
0.5
 40
0.5
 40
0.75
 40
0.75
 40
0.75
 40
0.75
 40
1.0
 40
1.0
 40
1.0
 40
1.0
 10
-1.5386299212598424
 20
1.1533543307086613
 30
0.0
 10
-1.5386299212598424
 20
1.1533543307086613
 30
0.0
 10
-1.5379370078740158
 20
1.9023937007874017
 30
0.0
 10
-1.5379370078740158
 20
1.9023937007874017
 30
0.0
 10
-1.5379370078740158
 20
1.9023937007874017
 30
0.0
 10
-1.5379370078740158
 20
1.9023937007874017
 30
0.0
 10
-1.0584409448818897
 20
1.9023937007874017
 30
0.0
 10
-1.0584409448818897
 20
1.9023937007874017
 30
0.0
 10
-1.0584409448818897
 20
1.9023937007874017
 30
0.0
 10
-1.0584409448818897
 20
1.9023937007874017
 30
0.0
 10
-1.0591338582677166
 20
1.1533543307086613
 30
0.0
 10
-1.0591338582677166
 20
1.1533543307086613
 30
0.0
 10
-1.0591338582677166
 20
1.1533543307086613
 30
0.0
 10
-1.0591338582677166
 20
1.1533543307086613
 30
0.0
 10
-1.5386299212598424
 20
1.1533543307086613
 30
0.0
 10
-1.5386299212598424
 20
1.1533543307086613
 30
0.0
  0
SPLINE
  5
31
100
AcDbEntity
  8
P1-Layer 1
 62
     9
100
AcDbSpline
210
0.0
220
0.0
230
1.0
 70
     1
 71
     3
 72
    20
 73
    16
 74
     0
 42
0.0000000001
 43
0.0000000001
 40
0.0
 40
0.0
 40
0.0
 40
0.0
 40
0.25
 40
0.25
 40
0.25
 40
0.25
 40
0.5
 40
0.5
 40
0.5
 40
0.5
 40
0.75
 40
0.75
 40
0.75
 40
0.75
 40
1.0
 40
1.0
 40
1.0
 40
1.0
 10
-1.0591338582677166
 20
1.1533543307086613
 30
0.0
 10
-1.0591338582677166
 20
1.1533543307086613
 30
0.0
 10
-1.0584409448818897
 20
1.9023937007874017
 30
0.0
 10
-1.0584409448818897
 20
1.9023937007874017
 30
0.0
 10
-1.0584409448818897
 20
1.9023937007874017
 30
0.0
 10
-1.0584409448818897
 20
1.9023937007874017
 30
0.0
 10
-1.0258740157480315
 20
1.9030866141732283
 30
0.0
 10
-1.0258740157480315
 20
1.9030866141732283
 30
0.0
 10
-1.0258740157480315
 20
1.9030866141732283
 30
0.0
 10
-1.0258740157480315
 20
1.9030866141732283
 30
0.0
 10
-1.0258740157480315
 20
1.1533543307086613
 30
0.0
 10
-1.0258740157480315
 20
1.1533543307086613
 30
0.0
 10
-1.0258740157480315
 20
1.1533543307086613
 30
0.0
 10
-1.0258740157480315
 20
1.1533543307086613
 30
0.0
 10
-1.0591338582677166
 20
1.1533543307086613
 30
0.0
 10
-1.0591338582677166
 20
1.1533543307086613
 30
0.0
  0
SPLINE
  5
32
100
AcDbEntity
  8
P1-Layer 1
 62
     9
100
AcDbSpline
210
0.0
220
0.0
230
1.0
 70
     1
 71
     3
 72
    20
 73
    16
 74
     0
 42
0.0000000001
 43
0.0000000001
 40
0.0
 40
0.0
 40
0.0
 40
0.0
 40
0.25
 40
0.25
 40
0.25
 40
0.25
 40
0.5
 40
0.5
 40
0.5
 40
0.5
 40
0.75
 40
0.75
 40
0.75
 40
0.75
 40
1.0
 40
1.0
 40
1.0
 40
1.0
 10
-1.0258740157480315
 20
1.1533543307086613
 30
0.0
 10
-1.0258740157480315
 20
1.1533543307086613
 30
0.0
 10
-1.0258740157480315
 20
1.9030866141732283
 30
0.0
 10
-1.0258740157480315
 20
1.9030866141732283
 30
0.0
 10
-1.0258740157480315
 20
1.9030866141732283
 30
0.0
 10
-1.0258740157480315
 20
1.9030866141732283
 30
0.0
 10
-0.9905354330708661
 20
1.9030866141732283
 30
0.0
 10
-0.9905354330708661
 20
1.9030866141732283
 30
0.0
 10
-0.9905354330708661
 20
1.9030866141732283
 30
0.0
 10
-0.9905354330708661
 20
1.9030866141732283
 30
0.0
 10
-0.9912283464566929
 20
1.1533543307086613
 30
0.0
 10
-0.9912283464566929
 20
1.1533543307086613
 30
0.0
 10
-0.9912283464566929
 20
1.1533543307086613
 30
0.0
 10
-0.9912283464566929
 20
1.1533543307086613
 30
0.0
 10
-1.0258740157480315
 20
1.1533543307086613
 30
0.0
 10
-1.0258740157480315
 20
1.1533543307086613
 30
0.0
  0
SPLINE
  5
33
100
AcDbEntity
  8
P1-Layer 1
 62
     9
100
AcDbSpline
210
0.0
220
0.0
230
1.0
 70
     1
 71
     3
 72
    20
 73
    16
 74
     0
 42
0.0000000001
 43
0.0000000001
 40
0.0
 40
0.0
 40
0.0
 40
0.0
 40
0.25
 40
0.25
 40
0.25
 40
0.25
 40
0.5
 40
0.5
 40
0.5
 40
0.5
 40
0.75
 40
0.75
 40
0.75
 40
0.75
 40
1.0
 40
1.0
 40
1.0
 40
1.0
 10
-0.9912283464566929
 20
1.1533543307086613
 30
0.0
 10
-0.9912283464566929
 20
1.1533543307086613
 30
0.0
 10
-0.9905354330708661
 20
1.9030866141732283
 30
0.0
 10
-0.9905354330708661
 20
1.9030866141732283
 30
0.0
 10
-0.9905354330708661
 20
1.9030866141732283
 30
0.0
 10
-0.9905354330708661
 20
1.9030866141732283
 30
0.0
 10
-0.9226299212598426
 20
1.8940787401574803
 30
0.0
 10
-0.9226299212598426
 20
1.8940787401574803
 30
0.0
 10
-0.9226299212598426
 20
1.8940787401574803
 30
0.0
 10
-0.9226299212598426
 20
1.8940787401574803
 30
0.0
 10
-0.9233228346456693
 20
1.1450393700787402
 30
0.0
 10
-0.9233228346456693
 20
1.1450393700787402
 30
0.0
 10
-0.9233228346456693
 20
1.1450393700787402
 30
0.0
 10
-0.9233228346456693
 20
1.1450393700787402
 30
0.0
 10
-0.9912283464566929
 20
1.1533543307086613
 30
0.0
 10
-0.9912283464566929
 20
1.1533543307086613
 30
0.0
  0
SPLINE
  5
34
100
AcDbEntity
  8
P1-Layer 1
 62
     9
100
AcDbSpline
210
0.0
220
0.0
230
1.0
 70
     1
 71
     3
 72
    20
 73
    16
 74
     0
 42
0.0000000001
 43
0.0000000001
 40
0.0
 40
0.0
 40
0.0
 40
0.0
 40
0.25
 40
0.25
 40
0.25
 40
0.25
 40
0.5
 40
0.5
 40
0.5
 40
0.5
 40
0.75
 40
0.75
 40
0.75
 40
0.75
 40
1.0
 40
1.0
 40
1.0
 40
1.0
 10
-0.9233228346456693
 20
1.1450393700787402
 30
0.0
 10
-0.9233228346456693
 20
1.1450393700787402
 30
0.0
 10
-0.9226299212598426
 20
1.8940787401574803
 30
0.0
 10
-0.9226299212598426
 20
1.8940787401574803
 30
0.0
 10
-0.9226299212598426
 20
1.8940787401574803
 30
0.0
 10
-0.9226299212598426
 20
1.8940787401574803
 30
0.0
 10
-0.8928346456692914
 20
1.8822992125984253
 30
0.0
 10
-0.8928346456692914
 20
1.8822992125984253
 30
0.0
 10
-0.8928346456692914
 20
1.8822992125984253
 30
0.0
 10
-0.8928346456692914
 20
1.8822992125984253
 30
0.0
 10
-0.8928346456692914
 20
1.1332598425196851
 30
0.0
 10
-0.8928346456692914
 20
1.1332598425196851
 30
0.0
 10
-0.8928346456692914
 20
1.1332598425196851
 30
0.0
 10
-0.8928346456692914
 20
1.1332598425196851
 30
0.0
 10
-0.9233228346456693
 20
1.1450393700787402
 30
0.0
 10
-0.9233228346456693
 20
1.1450393700787402
 30
0.0
  0
SPLINE
  5
35
100
AcDbEntity
  8
P1-Layer 1
 62
   252
100
AcDbSpline
210
0.0
220
0.0
230
1.0
 70
     1
 71
     3
 72
    20
 73
    16
 74
     0
 42
0.0000000001
 43
0.0000000001
 40
0.0
 40
0.0
 40
0.0
 40
0.0
 40
0.25
 40
0.25
 40
0.25
 40
0.25
 40
0.5
 40
0.5
 40
0.5
 40
0.5
 40
0.75
 40
0.75
 40
0.75
 40
0.75
 40
1.0
 40
1.0
 40
1.0
 40
1.0
 10
-0.4368976377952756
 20
0.8879685039370079
 30
0.0
 10
-0.4368976377952756
 20
0.8879685039370079
 30
0.0
 10
-0.4362047244094488
 20
1.6377007874015748
 30
0.0
 10
-0.4362047244094488
 20
1.6377007874015748
 30
0.0
 10
-0.4362047244094488
 20
1.6377007874015748
 30
0.0
 10
-0.4362047244094488
 20
1.6377007874015748
 30
0.0
 10
-0.4362047244094488
 20
1.549007874015748
 30
0.0
 10
-0.4362047244094488
 20
1.549007874015748
 30
0.0
 10
-0.4362047244094488
 20
1.549007874015748
 30
0.0
 10
-0.4362047244094488
 20
1.549007874015748
 30
0.0
 10
-0.4368976377952756
 20
0.7992755905511811
 30
0.0
 10
-0.4368976377952756
 20
0.7992755905511811
 30
0.0
 10
-0.4368976377952756
 20
0.7992755905511811
 30
0.0
 10
-0.4368976377952756
 20
0.7992755905511811
 30
0.0
 10
-0.4368976377952756
 20
0.8879685039370079
 30
0.0
 10
-0.4368976377952756
 20
0.8879685039370079
 30
0.0
  0
SPLINE
  5
36
100
AcDbEntity
  8
P1-Layer 1
 62
     9
100
AcDbSpline
210
0.0
220
0.0
230
1.0
 70
     1
 71
     3
 72
    20
 73
    16
 74
     0
 42
0.0000000001
 43
0.0000000001
 40
0.0
 40
0.0
 40
0.0
 40
0.0
 40
0.25
 40
0.25
 40
0.25
 40
0.25
 40
0.5
 40
0.5
 40
0.5
 40
0.5
 40
0.75
 40
0.75
 40
0.75
 40
0.75
 40
1.0
 40
1.0
 40
1.0
 40
1.0
 10
-0.8678897637795275
 20
1.1138582677165354
 30
0.0
 10
-0.8678897637795275
 20
1.1138582677165354
 30
0.0
 10
-0.8678897637795275
 20
1.8635905511811024
 30
0.0
 10
-0.8678897637795275
 20
1.8635905511811024
 30
0.0
 10
-0.8678897637795275
 20
1.8635905511811024
 30
0.0
 10
-0.8678897637795275
 20
1.8635905511811024
 30
0.0
 10
-0.8491811023622047
 20
1.8358740157480316
 30
0.0
 10
-0.8491811023622047
 20
1.8358740157480316
 30
0.0
 10
-0.8491811023622047
 20
1.8358740157480316
 30
0.0
 10
-0.8491811023622047
 20
1.8358740157480316
 30
0.0
 10
-0.8498740157480315
 20
1.0861417322834646
 30
0.0
 10
-0.8498740157480315
 20
1.0861417322834646
 30
0.0
 10
-0.8498740157480315
 20
1.0861417322834646
 30
0.0
 10
-0.8498740157480315
 20
1.0861417322834646
 30
0.0
 10
-0.8678897637795275
 20
1.1138582677165354
 30
0.0
 10
-0.8678897637795275
 20
1.1138582677165354
 30
0.0
  0
SPLINE
  5
37
100
AcDbEntity
  8
P1-Layer 1
 62
   253
100
AcDbSpline
210
0.0
220
0.0
230
1.0
 70
     1
 71
     3
 72
    20
 73
    16
 74
     0
 42
0.0000000001
 43
0.0000000001
 40
0.0
 40
0.0
 40
0.0
 40
0.0
 40
0.25
 40
0.25
 40
0.25
 40
0.25
 40
0.5
 40
0.5
 40
0.5
 40
0.5
 40
0.75
 40
0.75
 40
0.75
 40
0.75
 40
1.0
 40
1.0
 40
1.0
 40
1.0
 10
-0.8498740157480315
 20
1.0861417322834646
 30
0.0
 10
-0.8498740157480315
 20
1.0861417322834646
 30
0.0
 10
-0.8491811023622047
 20
1.8358740157480316
 30
0.0
 10
-0.8491811023622047
 20
1.8358740157480316
 30
0.0
 10
-0.8491811023622047
 20
1.8358740157480316
 30
0.0
 10
-0.8491811023622047
 20
1.8358740157480316
 30
0.0
 10
-0.8387874015748031
 20
1.7970708661417323
 30
0.0
 10
-0.8387874015748031
 20
1.7970708661417323
 30
0.0
 10
-0.8387874015748031
 20
1.7970708661417323
 30
0.0
 10
-0.8387874015748031
 20
1.7970708661417323
 30
0.0
 10
-0.8394803149606299
 20
1.0473385826771653
 30
0.0
 10
-0.8394803149606299
 20
1.0473385826771653
 30
0.0
 10
-0.8394803149606299
 20
1.0473385826771653
 30
0.0
 10
-0.8394803149606299
 20
1.0473385826771653
 30
0.0
 10
-0.8498740157480315
 20
1.0861417322834646
 30
0.0
 10
-0.8498740157480315
 20
1.0861417322834646
 30
0.0
  0
SPLINE
  5
38
100
AcDbEntity
  8
P1-Layer 1
 62
     9
100
AcDbSpline
210
0.0
220
0.0
230
1.0
 70
     1
 71
     3
 72
    20
 73
    16
 74
     0
 42
0.0000000001
 43
0.0000000001
 40
0.0
 40
0.0
 40
0.0
 40
0.0
 40
0.25
 40
0.25
 40
0.25
 40
0.25
 40
0.5
 40
0.5
 40
0.5
 40
0.5
 40
0.75
 40
0.75
 40
0.75
 40
0.75
 40
1.0
 40
1.0
 40
1.0
 40
1.0
 10
-0.8394803149606299
 20
1.0473385826771653
 30
0.0
 10
-0.8394803149606299
 20
1.0473385826771653
 30
0.0
 10
-0.8387874015748031
 20
1.7970708661417323
 30
0.0
 10
-0.8387874015748031
 20
1.7970708661417323
 30
0.0
 10
-0.8387874015748031
 20
1.7970708661417323
 30
0.0
 10
-0.8387874015748031
 20
1.7970708661417323
 30
0.0
 10
-0.8214645669291338
 20
1.7970708661417323
 30
0.0
 10
-0.8214645669291338
 20
1.7970708661417323
 30
0.0
 10
-0.8214645669291338
 20
1.7970708661417323
 30
0.0
 10
-0.8214645669291338
 20
1.7970708661417323
 30
0.0
 10
-0.8221574803149606
 20
1.0473385826771653
 30
0.0
 10
-0.8221574803149606
 20
1.0473385826771653
 30
0.0
 10
-0.8221574803149606
 20
1.0473385826771653
 30
0.0
 10
-0.8221574803149606
 20
1.0473385826771653
 30
0.0
 10
-0.8394803149606299
 20
1.0473385826771653
 30
0.0
 10
-0.8394803149606299
 20
1.0473385826771653
 30
0.0
  0
SPLINE
  5
39
100
AcDbEntity
  8
P1-Layer 1
 62
   253
100
AcDbSpline
210
0.0
220
0.0
230
1.0
 70
     1
 71
     3
 72
    20
 73
    16
 74
     0
 42
0.0000000001
 43
0.0000000001
 40
0.0
 40
0.0
 40
0.0
 40
0.0
 40
0.25
 40
0.25
 40
0.25
 40
0.25
 40
0.5
 40
0.5
 40
0.5
 40
0.5
 40
0.75
 40
0.75
 40
0.75
 40
0.75
 40
1.0
 40
1.0
 40
1.0
 40
1.0
 10
-0.8221574803149606
 20
1.0473385826771653
 30
0.0
 10
-0.8221574803149606
 20
1.0473385826771653
 30
0.0
 10
-0.8214645669291338
 20
1.7970708661417323
 30
0.0
 10
-0.8214645669291338
 20
1.7970708661417323
 30
0.0
 10
-0.8214645669291338
 20
1.7970708661417323
 30
0.0
 10
-0.8214645669291338
 20
1.7970708661417323
 30
0.0
 10
-0.8055275590551181
 20
1.8067716535433072
 30
0.0
 10
-0.8055275590551181
 20
1.8067716535433072
 30
0.0
 10
-0.8055275590551181
 20
1.8067716535433072
 30
0.0
 10
-0.8055275590551181
 20
1.8067716535433072
 30
0.0
 10
-0.8062204724409449
 20
1.0577322834645668
 30
0.0
 10
-0.8062204724409449
 20
1.0577322834645668
 30
0.0
 10
-0.8062204724409449
 20
1.0577322834645668
 30
0.0
 10
-0.8062204724409449
 20
1.0577322834645668
 30
0.0
 10
-0.8221574803149606
 20
1.0473385826771653
 30
0.0
 10
-0.8221574803149606
 20
1.0473385826771653
 30
0.0
  0
SPLINE
  5
3A
100
AcDbEntity
  8
P1-Layer 1
 62
     9
100
AcDbSpline
210
0.0
220
0.0
230
1.0
 70
     1
 71
     3
 72
    20
 73
    16
 74
     0
 42
0.0000000001
 43
0.0000000001
 40
0.0
 40
0.0
 40
0.0
 40
0.0
 40
0.25
 40
0.25
 40
0.25
 40
0.25
 40
0.5
 40
0.5
 40
0.5
 40
0.5
 40
0.75
 40
0.75
 40
0.75
 40
0.75
 40
1.0
 40
1.0
 40
1.0
 40
1.0
 10
-0.8062204724409449
 20
1.0577322834645668
 30
0.0
 10
-0.8062204724409449
 20
1.0577322834645668
 30
0.0
 10
-0.8055275590551181
 20
1.8067716535433072
 30
0.0
 10
-0.8055275590551181
 20
1.8067716535433072
 30
0.0
 10
-0.8055275590551181
 20
1.8067716535433072
 30
0.0
 10
-0.8055275590551181
 20
1.8067716535433072
 30
0.0
 10
-0.784740157480315
 20
1.8123149606299214
 30
0.0
 10
-0.784740157480315
 20
1.8123149606299214
 30
0.0
 10
-0.784740157480315
 20
1.8123149606299214
 30
0.0
 10
-0.784740157480315
 20
1.8123149606299214
 30
0.0
 10
-0.7854330708661418
 20
1.063275590551181
 30
0.0
 10
-0.7854330708661418
 20
1.063275590551181
 30
0.0
 10
-0.7854330708661418
 20
1.063275590551181
 30
0.0
 10
-0.7854330708661418
 20
1.063275590551181
 30
0.0
 10
-0.8062204724409449
 20
1.0577322834645668
 30
0.0
 10
-0.8062204724409449
 20
1.0577322834645668
 30
0.0
  0
SPLINE
  5
3B
100
AcDbEntity
  8
P1-Layer 1
 62
     9
100
AcDbSpline
210
0.0
220
0.0
230
1.0
 70
     1
 71
     3
 72
    20
 73
    16
 74
     0
 42
0.0000000001
 43
0.0000000001
 40
0.0
 40
0.0
 40
0.0
 40
0.0
 40
0.25
 40
0.25
 40
0.25
 40
0.25
 40
0.5
 40
0.5
 40
0.5
 40
0.5
 40
0.75
 40
0.75
 40
0.75
 40
0.75
 40
1.0
 40
1.0
 40
1.0
 40
1.0
 10
-0.7854330708661418
 20
1.063275590551181
 30
0.0
 10
-0.7854330708661418
 20
1.063275590551181
 30
0.0
 10
-0.784740157480315
 20
1.8123149606299214
 30
0.0
 10
-0.784740157480315
 20
1.8123149606299214
 30
0.0
 10
-0.784740157480315
 20
1.8123149606299214
 30
0.0
 10
-0.784740157480315
 20
1.8123149606299214
 30
0.0
 10
-0.7591023622047244
 20
1.8137007874015747
 30
0.0
 10
-0.7591023622047244
 20
1.8137007874015747
 30
0.0
 10
-0.7591023622047244
 20
1.8137007874015747
 30
0.0
 10
-0.7591023622047244
 20
1.8137007874015747
 30
0.0
 10
-0.7597952755905512
 20
1.0639685039370079
 30
0.0
 10
-0.7597952755905512
 20
1.0639685039370079
 30
0.0
 10
-0.7597952755905512
 20
1.0639685039370079
 30
0.0
 10
-0.7597952755905512
 20
1.0639685039370079
 30
0.0
 10
-0.7854330708661418
 20
1.063275590551181
 30
0.0
 10
-0.7854330708661418
 20
1.063275590551181
 30
0.0
  0
SPLINE
  5
3C
100
AcDbEntity
  8
P1-Layer 1
 62
     9
100
AcDbSpline
210
0.0
220
0.0
230
1.0
 70
     1
 71
     3
 72
    20
 73
    16
 74
     0
 42
0.0000000001
 43
0.0000000001
 40
0.0
 40
0.0
 40
0.0
 40
0.0
 40
0.25
 40
0.25
 40
0.25
 40
0.25
 40
0.5
 40
0.5
 40
0.5
 40
0.5
 40
0.75
 40
0.75
 40
0.75
 40
0.75
 40
1.0
 40
1.0
 40
1.0
 40
1.0
 10
-0.7597952755905512
 20
1.0639685039370079
 30
0.0
 10
-0.7597952755905512
 20
1.0639685039370079
 30
0.0
 10
-0.7591023622047244
 20
1.8137007874015747
 30
0.0
 10
-0.7591023622047244
 20
1.8137007874015747
 30
0.0
 10
-0.7591023622047244
 20
1.8137007874015747
 30
0.0
 10
-0.7591023622047244
 20
1.8137007874015747
 30
0.0
 10
-0.7313858267716535
 20
1.8102362204724409
 30
0.0
 10
-0.7313858267716535
 20
1.8102362204724409
 30
0.0
 10
-0.7313858267716535
 20
1.8102362204724409
 30
0.0
 10
-0.7313858267716535
 20
1.8102362204724409
 30
0.0
 10
-0.7313858267716535
 20
1.0605039370078739
 30
0.0
 10
-0.7313858267716535
 20
1.0605039370078739
 30
0.0
 10
-0.7313858267716535
 20
1.0605039370078739
 30
0.0
 10
-0.7313858267716535
 20
1.0605039370078739
 30
0.0
 10
-0.7597952755905512
 20
1.0639685039370079
 30
0.0
 10
-0.7597952755905512
 20
1.0639685039370079
 30
0.0
  0
SPLINE
  5
3D
100
AcDbEntity
  8
P1-Layer 1
 62
     9
100
AcDbSpline
210
0.0
220
0.0
230
1.0
 70
     1
 71
     3
 72
    20
 73
    16
 74
     0
 42
0.0000000001
 43
0.0000000001
 40
0.0
 40
0.0
 40
0.0
 40
0.0
 40
0.25
 40
0.25
 40
0.25
 40
0.25
 40
0.5
 40
0.5
 40
0.5
 40
0.5
 40
0.75
 40
0.75
 40
0.75
 40
0.75
 40
1.0
 40
1.0
 40
1.0
 40
1.0
 10
-0.7313858267716535
 20
1.0605039370078739
 30
0.0
 10
-0.7313858267716535
 20
1.0605039370078739
 30
0.0
 10
-0.7313858267716535
 20
1.8102362204724409
 30
0.0
 10
-0.7313858267716535
 20
1.8102362204724409
 30
0.0
 10
-0.7313858267716535
 20
1.8102362204724409
 30
0.0
 10
-0.7313858267716535
 20
1.8102362204724409
 30
0.0
 10
-0.672488188976378
 20
1.7901417322834645
 30
0.0
 10
-0.672488188976378
 20
1.7901417322834645
 30
0.0
 10
-0.672488188976378
 20
1.7901417322834645
 30
0.0
 10
-0.672488188976378
 20
1.7901417322834645
 30
0.0
 10
-0.6731811023622047
 20
1.0411023622047244
 30
0.0
 10
-0.6731811023622047
 20
1.0411023622047244
 30
0.0
 10
-0.6731811023622047
 20
1.0411023622047244
 30
0.0
 10
-0.6731811023622047
 20
1.0411023622047244
 30
0.0
 10
-0.7313858267716535
 20
1.0605039370078739
 30
0.0
 10
-0.7313858267716535
 20
1.0605039370078739
 30
0.0
  0
SPLINE
  5
3E
100
AcDbEntity
  8
P1-Layer 1
 62
     9
100
AcDbSpline
210
0.0
220
0.0
230
1.0
 70
     1
 71
     3
 72
    20
 73
    16
 74
     0
 42
0.0000000001
 43
0.0000000001
 40
0.0
 40
0.0
 40
0.0
 40
0.0
 40
0.25
 40
0.25
 40
0.25
 40
0.25
 40
0.5
 40
0.5
 40
0.5
 40
0.5
 40
0.75
 40
0.75
 40
0.75
 40
0.75
 40
1.0
 40
1.0
 40
1.0
 40
1.0
 10
-0.6731811023622047
 20
1.0411023622047244
 30
0.0
 10
-0.6731811023622047
 20
1.0411023622047244
 30
0.0
 10
-0.672488188976378
 20
1.7901417322834645
 30
0.0
 10
-0.672488188976378
 20
1.7901417322834645
 30
0.0
 10
-0.672488188976378
 20
1.7901417322834645
 30
0.0
 10
-0.672488188976378
 20
1.7901417322834645
 30
0.0
 10
-0.6447716535433071
 20
1.7735118110236221
 30
0.0
 10
-0.6447716535433071
 20
1.7735118110236221
 30
0.0
 10
-0.6447716535433071
 20
1.7735118110236221
 30
0.0
 10
-0.6447716535433071
 20
1.7735118110236221
 30
0.0
 10
-0.6454645669291339
 20
1.024472440944882
 30
0.0
 10
-0.6454645669291339
 20
1.024472440944882
 30
0.0
 10
-0.6454645669291339
 20
1.024472440944882
 30
0.0
 10
-0.6454645669291339
 20
1.024472440944882
 30
0.0
 10
-0.6731811023622047
 20
1.0411023622047244
 30
0.0
 10
-0.6731811023622047
 20
1.0411023622047244
 30
0.0
  0
SPLINE
  5
3F
100
AcDbEntity
  8
P1-Layer 1
 62
     9
100
AcDbSpline
210
0.0
220
0.0
230
1.0
 70
     1
 71
     3
 72
    20
 73
    16
 74
     0
 42
0.0000000001
 43
0.0000000001
 40
0.0
 40
0.0
 40
0.0
 40
0.0
 40
0.25
 40
0.25
 40
0.25
 40
0.25
 40
0.5
 40
0.5
 40
0.5
 40
0.5
 40
0.75
 40
0.75
 40
0.75
 40
0.75
 40
1.0
 40
1.0
 40
1.0
 40
1.0
 10
-0.6454645669291339
 20
1.024472440944882
 30
0.0
 10
-0.6454645669291339
 20
1.024472440944882
 30
0.0
 10
-0.6447716535433071
 20
1.7735118110236221
 30
0.0
 10
-0.6447716535433071
 20
1.7735118110236221
 30
0.0
 10
-0.6447716535433071
 20
1.7735118110236221
 30
0.0
 10
-0.6447716535433071
 20
1.7735118110236221
 30
0.0
 10
-0.6198267716535433
 20
1.7527244094488188
 30
0.0
 10
-0.6198267716535433
 20
1.7527244094488188
 30
0.0
 10
-0.6198267716535433
 20
1.7527244094488188
 30
0.0
 10
-0.6198267716535433
 20
1.7527244094488188
 30
0.0
 10
-0.6205196850393701
 20
1.002992125984252
 30
0.0
 10
-0.6205196850393701
 20
1.002992125984252
 30
0.0
 10
-0.6205196850393701
 20
1.002992125984252
 30
0.0
 10
-0.6205196850393701
 20
1.002992125984252
 30
0.0
 10
-0.6454645669291339
 20
1.024472440944882
 30
0.0
 10
-0.6454645669291339
 20
1.024472440944882
 30
0.0
  0
SPLINE
  5
40
100
AcDbEntity
  8
P1-Layer 1
 62
     9
100
AcDbSpline
210
0.0
220
0.0
230
1.0
 70
     1
 71
     3
 72
    20
 73
    16
 74
     0
 42
0.0000000001
 43
0.0000000001
 40
0.0
 40
0.0
 40
0.0
 40
0.0
 40
0.25
 40
0.25
 40
0.25
 40
0.25
 40
0.5
 40
0.5
 40
0.5
 40
0.5
 40
0.75
 40
0.75
 40
0.75
 40
0.75
 40
1.0
 40
1.0
 40
1.0
 40
1.0
 10
-0.6205196850393701
 20
1.002992125984252
 30
0.0
 10
-0.6205196850393701
 20
1.002992125984252
 30
0.0
 10
-0.6198267716535433
 20
1.7527244094488188
 30
0.0
 10
-0.6198267716535433
 20
1.7527244094488188
 30
0.0
 10
-0.6198267716535433
 20
1.7527244094488188
 30
0.0
 10
-0.6198267716535433
 20
1.7527244094488188
 30
0.0
 10
-0.5796377952755906
 20
1.716
 30
0.0
 10
-0.5796377952755906
 20
1.716
 30
0.0
 10
-0.5796377952755906
 20
1.716
 30
0.0
 10
-0.5796377952755906
 20
1.716
 30
0.0
 10
-0.5796377952755906
 20
0.9662677165354331
 30
0.0
 10
-0.5796377952755906
 20
0.9662677165354331
 30
0.0
 10
-0.5796377952755906
 20
0.9662677165354331
 30
0.0
 10
-0.5796377952755906
 20
0.9662677165354331
 30
0.0
 10
-0.6205196850393701
 20
1.002992125984252
 30
0.0
 10
-0.6205196850393701
 20
1.002992125984252
 30
0.0
  0
SPLINE
  5
41
100
AcDbEntity
  8
P1-Layer 1
 62
     9
100
AcDbSpline
210
0.0
220
0.0
230
1.0
 70
     1
 71
     3
 72
    20
 73
    16
 74
     0
 42
0.0000000001
 43
0.0000000001
 40
0.0
 40
0.0
 40
0.0
 40
0.0
 40
0.25
 40
0.25
 40
0.25
 40
0.25
 40
0.5
 40
0.5
 40
0.5
 40
0.5
 40
0.75
 40
0.75
 40
0.75
 40
0.75
 40
1.0
 40
1.0
 40
1.0
 40
1.0
 10
-0.5796377952755906
 20
0.9662677165354331
 30
0.0
 10
-0.5796377952755906
 20
0.9662677165354331
 30
0.0
 10
-0.5796377952755906
 20
1.716
 30
0.0
 10
-0.5796377952755906
 20
1.716
 30
0.0
 10
-0.5796377952755906
 20
1.716
 30
0.0
 10
-0.5796377952755906
 20
1.716
 30
0.0
 10
-0.535984251968504
 20
1.6834330708661418
 30
0.0
 10
-0.535984251968504
 20
1.6834330708661418
 30
0.0
 10
-0.535984251968504
 20
1.6834330708661418
 30
0.0
 10
-0.535984251968504
 20
1.6834330708661418
 30
0.0
 10
-0.535984251968504
 20
0.9337007874015748
 30
0.0
 10
-0.535984251968504
 20
0.9337007874015748
 30
0.0
 10
-0.535984251968504
 20
0.9337007874015748
 30
0.0
 10
-0.535984251968504
 20
0.9337007874015748
 30
0.0
 10
-0.5796377952755906
 20
0.9662677165354331
 30
0.0
 10
-0.5796377952755906
 20
0.9662677165354331
 30
0.0
  0
SPLINE
  5
42
100
AcDbEntity
  8
P1-Layer 1
 62
     9
100
AcDbSpline
210
0.0
220
0.0
230
1.0
 70
     1
 71
     3
 72
    20
 73
    16
 74
     0
 42
0.0000000001
 43
0.0000000001
 40
0.0
 40
0.0
 40
0.0
 40
0.0
 40
0.25
 40
0.25
 40
0.25
 40
0.25
 40
0.5
 40
0.5
 40
0.5
 40
0.5
 40
0.75
 40
0.75
 40
0.75
 40
0.75
 40
1.0
 40
1.0
 40
1.0
 40
1.0
 10
-0.535984251968504
 20
0.9337007874015748
 30
0.0
 10
-0.535984251968504
 20
0.9337007874015748
 30
0.0
 10
-0.535984251968504
 20
1.6834330708661418
 30
0.0
 10
-0.535984251968504
 20
1.6834330708661418
 30
0.0
 10
-0.535984251968504
 20
1.6834330708661418
 30
0.0
 10
-0.535984251968504
 20
1.6834330708661418
 30
0.0
 10
-0.4881732283464567
 20
1.6564094488188976
 30
0.0
 10
-0.4881732283464567
 20
1.6564094488188976
 30
0.0
 10
-0.4881732283464567
 20
1.6564094488188976
 30
0.0
 10
-0.4881732283464567
 20
1.6564094488188976
 30
0.0
 10
-0.4888661417322835
 20
0.9066771653543307
 30
0.0
 10
-0.4888661417322835
 20
0.9066771653543307
 30
0.0
 10
-0.4888661417322835
 20
0.9066771653543307
 30
0.0
 10
-0.4888661417322835
 20
0.9066771653543307
 30
0.0
 10
-0.535984251968504
 20
0.9337007874015748
 30
0.0
 10
-0.535984251968504
 20
0.9337007874015748
 30
0.0
  0
SPLINE
  5
43
100
AcDbEntity
  8
P1-Layer 1
 62
     9
100
AcDbSpline
210
0.0
220
0.0
230
1.0
 70
     1
 71
     3
 72
    20
 73
    16
 74
     0
 42
0.0000000001
 43
0.0000000001
 40
0.0
 40
0.0
 40
0.0
 40
0.0
 40
0.25
 40
0.25
 40
0.25
 40
0.25
 40
0.5
 40
0.5
 40
0.5
 40
0.5
 40
0.75
 40
0.75
 40
0.75
 40
0.75
 40
1.0
 40
1.0
 40
1.0
 40
1.0
 10
-0.4888661417322835
 20
0.9066771653543307
 30
0.0
 10
-0.4888661417322835
 20
0.9066771653543307
 30
0.0
 10
-0.4881732283464567
 20
1.6564094488188976
 30
0.0
 10
-0.4881732283464567
 20
1.6564094488188976
 30
0.0
 10
-0.4881732283464567
 20
1.6564094488188976
 30
0.0
 10
-0.4881732283464567
 20
1.6564094488188976
 30
0.0
 10
-0.4362047244094488
 20
1.6377007874015748
 30
0.0
 10
-0.4362047244094488
 20
1.6377007874015748
 30
0.0
 10
-0.4362047244094488
 20
1.6377007874015748
 30
0.0
 10
-0.4362047244094488
 20
1.6377007874015748
 30
0.0
 10
-0.4362047244094488
 20
0.8879685039370079
 30
0.0
 10
-0.4362047244094488
 20
0.8879685039370079
 30
0.0
 10
-0.4362047244094488
 20
0.8879685039370079
 30
0.0
 10
-0.4362047244094488
 20
0.8879685039370079
 30
0.0
 10
-0.4888661417322835
 20
0.9066771653543307
 30
0.0
 10
-0.4888661417322835
 20
0.9066771653543307
 30
0.0
  0
SPLINE
  5
44
100
AcDbEntity
  8
P1-Layer 1
 62
     7
100
AcDbSpline
210
0.0
220
0.0
230
1.0
 70
     1
 71
     3
 72
   140
 73
   136
 74
     0
 42
0.0000000001
 43
0.0000000001
 40
0.0
 40
0.0
 40
0.0
 40
0.0
 40
0.0294117647058824
 40
0.0294117647058824
 40
0.0294117647058824
 40
0.0294117647058824
 40
0.0588235294117647
 40
0.0588235294117647
 40
0.0588235294117647
 40
0.0588235294117647
 40
0.0882352941176471
 40
0.0882352941176471
 40
0.0882352941176471
 40
0.0882352941176471
 40
0.1176470588235294
 40
0.1176470588235294
 40
0.1176470588235294
 40
0.1176470588235294
 40
0.1470588235294118
 40
0.1470588235294118
 40
0.1470588235294118
 40
0.1470588235294118
 40
0.1764705882352941
 40
0.1764705882352941
 40
0.1764705882352941
 40
0.1764705882352941
 40
0.2058823529411765
 40
0.2058823529411765
 40
0.2058823529411765
 40
0.2058823529411765
 40
0.2352941176470589
 40
0.2352941176470589
 40
0.2352941176470589
 40
0.2352941176470589
 40
0.2647058823529412
 40
0.2647058823529412
 40
0.2647058823529412
 40
0.2647058823529412
 40
0.2941176470588235
 40
0.2941176470588235
 40
0.2941176470588235
 40
0.2941176470588235
 40
0.3235294117647059
 40
0.3235294117647059
 40
0.3235294117647059
 40
0.3235294117647059
 40
0.3529411764705883
 40
0.3529411764705883
 40
0.3529411764705883
 40
0.3529411764705883
 40
0.3823529411764706
 40
0.3823529411764706
 40
0.3823529411764706
 40
0.3823529411764706
 40
0.411764705882353
 40
0.411764705882353
 40
0.411764705882353
 40
0.411764705882353
 40
0.4411764705882353
 40
0.4411764705882353
 40
0.4411764705882353
 40
0.4411764705882353
 40
0.4705882352941177
 40
0.4705882352941177
 40
0.4705882352941177
 40
0.4705882352941177
 40
0.5
 40
0.5
 40
0.5
 40
0.5
 40
0.5294117647058824
 40
0.5294117647058824
 40
0.5294117647058824
 40
0.5294117647058824
 40
0.5588235294117647
 40
0.5588235294117647
 40
0.5588235294117647
 40
0.5588235294117647
 40
0.5882352941176471
 40
0.5882352941176471
 40
0.5882352941176471
 40
0.5882352941176471
 40
0.6176470588235294
 40
0.6176470588235294
 40
0.6176470588235294
 40
0.6176470588235294
 40
0.6470588235294118
 40
0.6470588235294118
 40
0.6470588235294118
 40
0.6470588235294118
 40
0.6764705882352942
 40
0.6764705882352942
 40
0.6764705882352942
 40
0.6764705882352942
 40
0.7058823529411765
 40
0.7058823529411765
 40
0.7058823529411765
 40
0.7058823529411765
 40
0.7352941176470589
 40
0.7352941176470589
 40
0.7352941176470589
 40
0.7352941176470589
 40
0.7647058823529412
 40
0.7647058823529412
 40
0.7647058823529412
 40
0.7647058823529412
 40
0.7941176470588236
 40
0.7941176470588236
 40
0.7941176470588236
 40
0.7941176470588236
 40
0.823529411764706
 40
0.823529411764706
 40
0.823529411764706
 40
0.823529411764706
 40
0.8529411764705883
 40
0.8529411764705883
 40
0.8529411764705883
 40
0.8529411764705883
 40
0.8823529411764707
 40
0.8823529411764707
 40
0.8823529411764707
 40
0.8823529411764707
 40
0.911764705882353
 40
0.911764705882353
 40
0.911764705882353
 40
0.911764705882353
 40
0.9411764705882354
 40
0.9411764705882354
 40
0.9411764705882354
 40
0.9411764705882354
 40
0.9705882352941178
 40
0.9705882352941178
 40
0.9705882352941178
 40
0.9705882352941178
 40
1.0
 40
1.0
 40
1.0
 40
1.0
 10
-0.4368976377952756
 20
0.8879685039370079
 30
0.0
 10
-0.4368976377952756
 20
0.8879685039370079
 30
0.0
 10
-0.4368976377952756
 20
0.7992755905511811
 30
0.0
 10
-0.4368976377952756
 20
0.7992755905511811
 30
0.0
 10
-0.4368976377952756
 20
0.7992755905511811
 30
0.0
 10
-0.4368976377952756
 20
0.7992755905511811
 30
0.0
 10
-1.2351338582677165
 20
0.7992755905511811
 30
0.0
 10
-1.2351338582677165
 20
0.7992755905511811
 30
0.0
 10
-1.2351338582677165
 20
0.7992755905511811
 30
0.0
 10
-1.2351338582677165
 20
0.7992755905511811
 30
0.0
 10
-1.2351338582677165
 20
0.0474645669291339
 30
0.0
 10
-1.2351338582677165
 20
0.0474645669291339
 30
0.0
 10
-1.2351338582677165
 20
0.0474645669291339
 30
0.0
 10
-1.2351338582677165
 20
0.0474645669291339
 30
0.0
 10
-1.7541259842519685
 20
0.0474645669291339
 30
0.0
 10
-1.7541259842519685
 20
0.0474645669291339
 30
0.0
 10
-1.7541259842519685
 20
0.0474645669291339
 30
0.0
 10
-1.7541259842519685
 20
0.0474645669291339
 30
0.0
 10
-1.7541259842519685
 20
0.9759685039370079
 30
0.0
 10
-1.7541259842519685
 20
0.9759685039370079
 30
0.0
 10
-1.7541259842519685
 20
0.9759685039370079
 30
0.0
 10
-1.7541259842519685
 20
0.9759685039370079
 30
0.0
 10
-1.7506614173228348
 20
1.0168503937007873
 30
0.0
 10
-1.7506614173228348
 20
1.0168503937007873
 30
0.0
 10
-1.7506614173228348
 20
1.0168503937007873
 30
0.0
 10
-1.7506614173228348
 20
1.0168503937007873
 30
0.0
 10
-1.7388818897637794
 20
1.0521889763779528
 30
0.0
 10
-1.7388818897637794
 20
1.0521889763779528
 30
0.0
 10
-1.7388818897637794
 20
1.0521889763779528
 30
0.0
 10
-1.7388818897637794
 20
1.0521889763779528
 30
0.0
 10
-1.7201732283464566
 20
1.0826771653543308
 30
0.0
 10
-1.7201732283464566
 20
1.0826771653543308
 30
0.0
 10
-1.7201732283464566
 20
1.0826771653543308
 30
0.0
 10
-1.7201732283464566
 20
1.0826771653543308
 30
0.0
 10
-1.6945354330708662
 20
1.1076220472440945
 30
0.0
 10
-1.6945354330708662
 20
1.1076220472440945
 30
0.0
 10
-1.6945354330708662
 20
1.1076220472440945
 30
0.0
 10
-1.6945354330708662
 20
1.1076220472440945
 30
0.0
 10
-1.6633543307086613
 20
1.1277165354330709
 30
0.0
 10
-1.6633543307086613
 20
1.1277165354330709
 30
0.0
 10
-1.6633543307086613
 20
1.1277165354330709
 30
0.0
 10
-1.6633543307086613
 20
1.1277165354330709
 30
0.0
 10
-1.6266299212598425
 20
1.1415748031496062
 30
0.0
 10
-1.6266299212598425
 20
1.1415748031496062
 30
0.0
 10
-1.6266299212598425
 20
1.1415748031496062
 30
0.0
 10
-1.6266299212598425
 20
1.1415748031496062
 30
0.0
 10
-1.5850551181102361
 20
1.1498897637795276
 30
0.0
 10
-1.5850551181102361
 20
1.1498897637795276
 30
0.0
 10
-1.5850551181102361
 20
1.1498897637795276
 30
0.0
 10
-1.5850551181102361
 20
1.1498897637795276
 30
0.0
 10
-1.5386299212598424
 20
1.1533543307086613
 30
0.0
 10
-1.5386299212598424
 20
1.1533543307086613
 30
0.0
 10
-1.5386299212598424
 20
1.1533543307086613
 30
0.0
 10
-1.5386299212598424
 20
1.1533543307086613
 30
0.0
 10
-1.0591338582677166
 20
1.1533543307086613
 30
0.0
 10
-1.0591338582677166
 20
1.1533543307086613
 30
0.0
 10
-1.0591338582677166
 20
1.1533543307086613
 30
0.0
 10
-1.0591338582677166
 20
1.1533543307086613
 30
0.0
 10
-1.0258740157480315
 20
1.1533543307086613
 30
0.0
 10
-1.0258740157480315
 20
1.1533543307086613
 30
0.0
 10
-1.0258740157480315
 20
1.1533543307086613
 30
0.0
 10
-1.0258740157480315
 20
1.1533543307086613
 30
0.0
 10
-0.9912283464566929
 20
1.1533543307086613
 30
0.0
 10
-0.9912283464566929
 20
1.1533543307086613
 30
0.0
 10
-0.9912283464566929
 20
1.1533543307086613
 30
0.0
 10
-0.9912283464566929
 20
1.1533543307086613
 30
0.0
 10
-0.9233228346456693
 20
1.1450393700787402
 30
0.0
 10
-0.9233228346456693
 20
1.1450393700787402
 30
0.0
 10
-0.9233228346456693
 20
1.1450393700787402
 30
0.0
 10
-0.9233228346456693
 20
1.1450393700787402
 30
0.0
 10
-0.8928346456692914
 20
1.1332598425196851
 30
0.0
 10
-0.8928346456692914
 20
1.1332598425196851
 30
0.0
 10
-0.8928346456692914
 20
1.1332598425196851
 30
0.0
 10
-0.8928346456692914
 20
1.1332598425196851
 30
0.0
 10
-0.8678897637795275
 20
1.1138582677165354
 30
0.0
 10
-0.8678897637795275
 20
1.1138582677165354
 30
0.0
 10
-0.8678897637795275
 20
1.1138582677165354
 30
0.0
 10
-0.8678897637795275
 20
1.1138582677165354
 30
0.0
 10
-0.8498740157480315
 20
1.0861417322834646
 30
0.0
 10
-0.8498740157480315
 20
1.0861417322834646
 30
0.0
 10
-0.8498740157480315
 20
1.0861417322834646
 30
0.0
 10
-0.8498740157480315
 20
1.0861417322834646
 30
0.0
 10
-0.8394803149606299
 20
1.0473385826771653
 30
0.0
 10
-0.8394803149606299
 20
1.0473385826771653
 30
0.0
 10
-0.8394803149606299
 20
1.0473385826771653
 30
0.0
 10
-0.8394803149606299
 20
1.0473385826771653
 30
0.0
 10
-0.8221574803149606
 20
1.0473385826771653
 30
0.0
 10
-0.8221574803149606
 20
1.0473385826771653
 30
0.0
 10
-0.8221574803149606
 20
1.0473385826771653
 30
0.0
 10
-0.8221574803149606
 20
1.0473385826771653
 30
0.0
 10
-0.8062204724409449
 20
1.0577322834645668
 30
0.0
 10
-0.8062204724409449
 20
1.0577322834645668
 30
0.0
 10
-0.8062204724409449
 20
1.0577322834645668
 30
0.0
 10
-0.8062204724409449
 20
1.0577322834645668
 30
0.0
 10
-0.7854330708661418
 20
1.063275590551181
 30
0.0
 10
-0.7854330708661418
 20
1.063275590551181
 30
0.0
 10
-0.7854330708661418
 20
1.063275590551181
 30
0.0
 10
-0.7854330708661418
 20
1.063275590551181
 30
0.0
 10
-0.7597952755905512
 20
1.0639685039370079
 30
0.0
 10
-0.7597952755905512
 20
1.0639685039370079
 30
0.0
 10
-0.7597952755905512
 20
1.0639685039370079
 30
0.0
 10
-0.7597952755905512
 20
1.0639685039370079
 30
0.0
 10
-0.7313858267716535
 20
1.0605039370078739
 30
0.0
 10
-0.7313858267716535
 20
1.0605039370078739
 30
0.0
 10
-0.7313858267716535
 20
1.0605039370078739
 30
0.0
 10
-0.7313858267716535
 20
1.0605039370078739
 30
0.0
 10
-0.6731811023622047
 20
1.0411023622047244
 30
0.0
 10
-0.6731811023622047
 20
1.0411023622047244
 30
0.0
 10
-0.6731811023622047
 20
1.0411023622047244
 30
0.0
 10
-0.6731811023622047
 20
1.0411023622047244
 30
0.0
 10
-0.6454645669291339
 20
1.024472440944882
 30
0.0
 10
-0.6454645669291339
 20
1.024472440944882
 30
0.0
 10
-0.6454645669291339
 20
1.024472440944882
 30
0.0
 10
-0.6454645669291339
 20
1.024472440944882
 30
0.0
 10
-0.6205196850393701
 20
1.002992125984252
 30
0.0
 10
-0.6205196850393701
 20
1.002992125984252
 30
0.0
 10
-0.6205196850393701
 20
1.002992125984252
 30
0.0
 10
-0.6205196850393701
 20
1.002992125984252
 30
0.0
 10
-0.5796377952755906
 20
0.9662677165354331
 30
0.0
 10
-0.5796377952755906
 20
0.9662677165354331
 30
0.0
 10
-0.5796377952755906
 20
0.9662677165354331
 30
0.0
 10
-0.5796377952755906
 20
0.9662677165354331
 30
0.0
 10
-0.535984251968504
 20
0.9337007874015748
 30
0.0
 10
-0.535984251968504
 20
0.9337007874015748
 30
0.0
 10
-0.535984251968504
 20
0.9337007874015748
 30
0.0
 10
-0.535984251968504
 20
0.9337007874015748
 30
0.0
 10
-0.4888661417322835
 20
0.9066771653543307
 30
0.0
 10
-0.4888661417322835
 20
0.9066771653543307
 30
0.0
 10
-0.4888661417322835
 20
0.9066771653543307
 30
0.0
 10
-0.4888661417322835
 20
0.9066771653543307
 30
0.0
 10
-0.4362047244094488
 20
0.8879685039370079
 30
0.0
 10
-0.4362047244094488
 20
0.8879685039370079
 30
0.0
 10
-0.4362047244094488
 20
0.8879685039370079
 30
0.0
 10
-0.4362047244094488
 20
0.8879685039370079
 30
0.0
 10
-0.4368976377952756
 20
0.8879685039370079
 30
0.0
 10
-0.4368976377952756
 20
0.8879685039370079
 30
0.0
  0
MTEXT
  5
45
100
AcDbEntity
  8
P1-Layer 1
100
AcDbMText
 10
-1.443569
 20
-0.184945
 30
0.0
 40
0.166992
 41
0.0
 71
     1
 72
     1
  1
\fArial;BA  1282
 11
1.00047
 21
0.0
 31
0.0
 73
     1
 44
1.0
  0
MTEXT
  5
46
100
AcDbEntity
  8
P1-Layer 1
100
AcDbMText
 10
-1.650646
 20
-0.376882
 30
0.0
 40
0.166992
 41
0.0
 71
     1
 72
     1
  1
\fTimes New Roman;1-1/8" x 1-5/16"
 11
1.00047
 21
0.0
 31
0.0
 73
     1
 44
1.0
  0
MTEXT
  5
47
100
AcDbEntity
  8
P1-Layer 1
100
AcDbMText
 10
0.598505
 20
-0.053252
 30
0.0
 40
0.166992
 41
0.0
 71
     1
 72
     1
  1
\fTimes New Roman;BA  1282
 11
1.058403
 21
0.0
 31
0.0
 73
     1
 44
1.0
  0
MTEXT
  5
48
100
AcDbEntity
  8
P1-Layer 1
100
AcDbMText
 10
0.359539
 20
-0.245189
 30
0.0
 40
0.166992
 41
0.0
 71
     1
 72
     1
  1
\fTimes New Roman;1-1/8" x 1-5/16"
 11
1.058403
 21
0.0
 31
0.0
 73
     1
 44
1.0
  0
ENDSEC
  0
SECTION
  2
OBJECTS
  0
DICTIONARY
  5
19
100
AcDbDictionary
280
     0
281
     1
  3
ACAD_GROUP
350
1A
  3
ACAD_MLINESTYLE
350
1B
  3
ACAD_LAYOUT
350
1E
  3
ACAD_PLOTSETTINGS
350
22
  3
ACAD_PLOTSTYLENAME
350
1F
  3
ACAD_WIPEOUT_VARS
350
23
  0
DICTIONARY
  5
1A
102
{ACAD_REACTORS
330
19
102
}
100
AcDbDictionary
280
     0
281
     1
  0
DICTIONARY
  5
1B
102
{ACAD_REACTORS
330
19
102
}
100
AcDbDictionary
280
     0
281
     1
  3
Standard
350
1C
  0
MLINESTYLE
  5
1C
102
{ACAD_REACTORS
330
1B
102
}
100
AcDbMlineStyle
  2
Standard
 70
     0
  3

 62
     0
 51
90.0
 52
90.0
 71
     2
 49
0.5
 62
   256
  6
BYLAYER
 49
-0.5
 62
   256
  6
BYLAYER
  0
ACDBDICTIONARYWDFLT
  5
1F
102
{ACAD_REACTORS
330
19
102
}
100
AcDbDictionary
281
     1
  3
Normal
350
1D
100
AcDbDictionaryWithDefault
340
1D
  0
ACDBPLACEHOLDER
  5
1D
102
{ACAD_REACTORS
330
1F
102
}
  0
LAYOUT
  5
20
102
{ACAD_REACTORS
330
1E
102
}
100
AcDbPlotSettings
  1

  2

  4

  6

 40
0.0
 41
0.0
 42
0.0
 43
0.0
 44
0.0
 45
0.0
 46
0.0
 47
0.0
 48
0.0
 49
0.0
140
0.0
141
0.0
142
1.0
143
1.0
 70
  1024
 72
     0
 73
     0
 74
     0
  7

 75
     0
147
1.0
148
0.0
149
0.0
100
AcDbLayout
  1
Model
 70
     0
 71
     0
 10
0.0
 20
0.0
 11
0.0
 21
0.0
 12
0.0
 22
0.0
 32
0.0
 14
0.0
 24
0.0
 34
0.0
 15
0.0
 25
0.0
 35
0.0
146
0.0
 13
0.0
 23
0.0
 33
0.0
 16
0.0
 26
0.0
 36
0.0
 17
0.0
 27
0.0
 37
0.0
 76
     0
330
A
331
0
345
0
346
0
  0
LAYOUT
  5
21
102
{ACAD_REACTORS
330
1E
102
}
100
AcDbPlotSettings
  1

  2

  4

  6

 40
0.0
 41
0.0
 42
0.0
 43
0.0
 44
0.0
 45
0.0
 46
0.0
 47
0.0
 48
0.0
 49
0.0
140
0.0
141
0.0
142
1.0
143
1.0
 70
     0
 72
     0
 73
     0
 74
     0
  7

 75
     0
147
1.0
148
0.0
149
0.0
100
AcDbLayout
  1
Layout1
 70
     0
 71
     0
 10
0.0
 20
0.0
 11
0.0
 21
0.0
 12
0.0
 22
0.0
 32
0.0
 14
0.0
 24
0.0
 34
0.0
 15
0.0
 25
0.0
 35
0.0
146
0.0
 13
0.0
 23
0.0
 33
0.0
 16
0.0
 26
0.0
 36
0.0
 17
0.0
 27
0.0
 37
0.0
 76
     0
330
B
331
0
345
0
346
0
  0
DICTIONARY
  5
1E
102
{ACAD_REACTORS
330
19
102
}
100
AcDbDictionary
280
     0
281
     1
  3
Layout1
350
21
  3
Model
350
20
  0
DICTIONARY
  5
22
102
{ACAD_REACTORS
330
19
102
}
100
AcDbDictionary
280
     0
281
     1
  0
WIPEOUTVARIABLES
  5
23
100
AcDbWipeoutVariables
 70
     1
  0
ENDSEC
  0
EOF
