  0
SECTION
  2
HEADER
  9
$ACADVER
  1
AC1006
  9
$EXTMIN
 10
2.327600
 20
1.515800
  9
$EXTMAX
 10
5.958480
 20
7.316760
  9
$LTSCALE
 40
0.044000
  9
$PDMODE
 70
    35
  9
$PDSIZE
 40
0.035200
  0
ENDSEC
  0
SECTION
  2
TABLES
  0
TABLE
  2
LTYPE
 70
     9
  0
LTYPE
  2
CONTINUOUS
 70
    64
  3
Solid line
 72
    65
 73
     0
 40
0.000000
  0
LTYPE
  2
DASHED
 70
    64
  3
__ __ __ __ __ __ __ __ __ __ __ __ __ __ __
 72
    65
 73
     2
 40
0.000330
 49
0.000220
 49
-0.000110
  0
LTYPE
  2
HIDDEN
 70
    64
  3
 _ _ _ _ _ _ _ _ _ _ _ _ _ _ _ _ _ _ _ _ _ _
 72
    65
 73
     2
 40
0.000165
 49
0.000110
 49
-0.000055
  0
LTYPE
  2
CENTER
 70
    64
  3
____ _ ____ _ ____ _ ____ _ ____ _ ____ _ ____
 72
    65
 73
     4
 40
0.000880
 49
0.000550
 49
-0.000110
 49
0.000110
 49
-0.000110
  0
LTYPE
  2
PHANTOM
 70
    64
  3
_____ _ _ _____ _ _ _____ _ _ _____ _ _ ____
 72
    65
 73
     6
 40
0.001100
 49
0.000550
 49
-0.000110
 49
0.000110
 49
-0.000110
 49
0.000110
 49
-0.000110
  0
LTYPE
  2
DOT
 70
    64
  3
...............................................
 72
    65
 73
     2
 40
0.000110
 49
0.000000
 49
-0.000110
  0
LTYPE
  2
DASHDOT
 70
    64
  3
__ . __ . __ . __ . __ . __ . __ . __ . __ . __
 72
    65
 73
     4
 40
0.000440
 49
0.000220
 49
-0.000110
 49
0.000000
 49
-0.000110
  0
LTYPE
  2
BORDER
 70
    64
  3
__ __ . __ __ . __ __ . __ __ . __ __ . __ __
 72
    65
 73
     6
 40
0.000770
 49
0.000220
 49
-0.000110
 49
0.000220
 49
-0.000110
 49
0.000000
 49
-0.000110
  0
LTYPE
  2
DIVIDE
 70
    64
  3
__ . . __ . . __ . . __ . . __ . . __ . . __
 72
    65
 73
     6
 40
0.000550
 49
0.000220
 49
-0.000110
 49
0.000000
 49
-0.000110
 49
0.000000
 49
-0.000110
  0
LTYPE
  2
DOTDOT
 70
    64
  3
 . .  . .  . .  . .  . .  . . 
 72
    65
 73
     5
 40
0.000242
 49
-0.000110
 49
0.000000
 49
-0.000110
 49
0.000000
 49
-0.000110
  0
ENDTAB
  0
TABLE
  2
STYLE
 70
     2
  0
STYLE
 70
     0
  2
SN0
 40
0.000000
 41
0.000440
 50
0.000000
 71
     0
 42
0.000000
  3
ROMAND
  0
STYLE
 70
    68
  2
SV0
 40
0.000000
 41
0.000440
 50
0.000000
 71
     0
 42
0.000000
  3
ROMAND
  0
ENDTAB
  0
TABLE
  2
LAYER
 70
     3
  0
LAYER
  2
FOREGROUND
 70
    64
 62
     7
  6
CONTINUOUS
  0
LAYER
  2
BACKGROUND
 70
    65
 62
    -7
  6
CONTINUOUS
  0
LAYER
  2
0
 70
    64
 62
     7
  6
CONTINUOUS
  0
ENDTAB
  0
ENDSEC
  0
SECTION
  2
ENTITIES
  0
POLYLINE
  8
FOREGROUND
  6
CONTINUOUS
 66
     1
 40
0.000000
 41
0.000000
  0
VERTEX
  8
FOREGROUND
  6
CONTINUOUS
 10
0.000000
 20
8.832560
  0
VERTEX
  8
FOREGROUND
  6
CONTINUOUS
 10
8.499920
 20
8.832560
  0
VERTEX
  8
FOREGROUND
  6
CONTINUOUS
 10
8.499920
 20
-2.167440
  0
VERTEX
  8
FOREGROUND
  6
CONTINUOUS
 10
0.000000
 20
-2.167440
  0
VERTEX
  8
FOREGROUND
  6
CONTINUOUS
 10
0.000000
 20
8.832560
  0
SEQEND
  8
0
  0
POLYLINE
  8
FOREGROUND
  6
CONTINUOUS
 66
     1
 40
0.000000
 41
0.000000
  0
VERTEX
  8
FOREGROUND
  6
CONTINUOUS
 10
0.000000
 20
8.832560
  0
VERTEX
  8
FOREGROUND
  6
CONTINUOUS
 10
8.499920
 20
8.832560
  0
VERTEX
  8
FOREGROUND
  6
CONTINUOUS
 10
8.499920
 20
-2.167440
  0
VERTEX
  8
FOREGROUND
  6
CONTINUOUS
 10
0.000000
 20
-2.167440
  0
VERTEX
  8
FOREGROUND
  6
CONTINUOUS
 10
0.000000
 20
8.832560
  0
SEQEND
  8
0
  0
POLYLINE
  8
0
  6
CONTINUOUS
 66
     1
 40
0.014080
 41
0.014080
  0
VERTEX
  8
0
  6
CONTINUOUS
 10
5.951440
 20
6.500120
  0
VERTEX
  8
0
  6
CONTINUOUS
 10
2.335520
 20
6.500120
  0
VERTEX
  8
0
  6
CONTINUOUS
 10
2.335960
 20
7.131960
  0
VERTEX
  8
0
  6
CONTINUOUS
 10
2.342120
 20
7.161880
  0
VERTEX
  8
0
  6
CONTINUOUS
 10
2.350040
 20
7.180360
  0
VERTEX
  8
0
  6
CONTINUOUS
 10
2.367200
 20
7.206320
  0
VERTEX
  8
0
  6
CONTINUOUS
 10
2.390080
 20
7.229200
  0
VERTEX
  8
0
  6
CONTINUOUS
 10
2.408120
 20
7.243280
  0
VERTEX
  8
0
  6
CONTINUOUS
 10
2.428360
 20
7.256040
  0
VERTEX
  8
0
  6
CONTINUOUS
 10
2.449920
 20
7.267480
  0
VERTEX
  8
0
  6
CONTINUOUS
 10
2.473240
 20
7.277600
  0
VERTEX
  8
0
  6
CONTINUOUS
 10
2.497880
 20
7.286400
  0
VERTEX
  8
0
  6
CONTINUOUS
 10
2.550680
 20
7.299600
  0
VERTEX
  8
0
  6
CONTINUOUS
 10
2.577960
 20
7.304440
  0
VERTEX
  8
0
  6
CONTINUOUS
 10
2.606120
 20
7.307520
  0
VERTEX
  8
0
  6
CONTINUOUS
 10
2.662880
 20
7.309280
  0
VERTEX
  8
0
  6
CONTINUOUS
 10
2.719200
 20
7.304880
  0
VERTEX
  8
0
  6
CONTINUOUS
 10
2.773320
 20
7.293880
  0
VERTEX
  8
0
  6
CONTINUOUS
 10
2.823480
 20
7.276720
  0
VERTEX
  8
0
  6
CONTINUOUS
 10
2.846800
 20
7.265280
  0
VERTEX
  8
0
  6
CONTINUOUS
 10
2.878480
 20
7.245040
  0
VERTEX
  8
0
  6
CONTINUOUS
 10
2.906200
 20
7.220840
  0
VERTEX
  8
0
  6
CONTINUOUS
 10
2.928640
 20
7.192240
  0
VERTEX
  8
0
  6
CONTINUOUS
 10
2.940520
 20
7.171120
  0
VERTEX
  8
0
  6
CONTINUOUS
 10
2.949760
 20
7.147800
  0
VERTEX
  8
0
  6
CONTINUOUS
 10
2.955920
 20
7.122720
  0
VERTEX
  8
0
  6
CONTINUOUS
 10
2.957680
 20
7.109520
  0
VERTEX
  8
0
  6
CONTINUOUS
 10
3.043920
 20
7.109520
  0
VERTEX
  8
0
  6
CONTINUOUS
 10
3.077800
 20
7.079160
  0
VERTEX
  8
0
  6
CONTINUOUS
 10
3.109920
 20
7.056280
  0
VERTEX
  8
0
  6
CONTINUOUS
 10
3.141600
 20
7.040000
  0
VERTEX
  8
0
  6
CONTINUOUS
 10
3.173280
 20
7.028560
  0
VERTEX
  8
0
  6
CONTINUOUS
 10
3.205400
 20
7.021960
  0
VERTEX
  8
0
  6
CONTINUOUS
 10
3.239280
 20
7.019320
  0
VERTEX
  8
0
  6
CONTINUOUS
 10
3.294280
 20
7.019320
  0
VERTEX
  8
0
  6
CONTINUOUS
 10
3.314080
 20
7.020200
  0
VERTEX
  8
0
  6
CONTINUOUS
 10
3.314080
 20
6.929120
  0
VERTEX
  8
0
  6
CONTINUOUS
 10
4.827240
 20
6.929120
  0
VERTEX
  8
0
  6
CONTINUOUS
 10
4.827240
 20
6.879840
  0
VERTEX
  8
0
  6
CONTINUOUS
 10
5.951440
 20
6.879840
  0
VERTEX
  8
0
  6
CONTINUOUS
 10
5.951440
 20
6.500120
  0
SEQEND
  8
0
  0
POLYLINE
  8
0
  6
CONTINUOUS
 66
     1
 40
0.000000
 41
0.000000
  0
VERTEX
  8
0
  6
CONTINUOUS
 10
5.951440
 20
1.516240
  0
VERTEX
  8
0
  6
CONTINUOUS
 10
2.335520
 20
1.516240
  0
VERTEX
  8
0
  6
CONTINUOUS
 10
2.335960
 20
2.148080
  0
VERTEX
  8
0
  6
CONTINUOUS
 10
2.342120
 20
2.178000
  0
VERTEX
  8
0
  6
CONTINUOUS
 10
2.350040
 20
2.196480
  0
VERTEX
  8
0
  6
CONTINUOUS
 10
2.367200
 20
2.222440
  0
VERTEX
  8
0
  6
CONTINUOUS
 10
2.390080
 20
2.245320
  0
VERTEX
  8
0
  6
CONTINUOUS
 10
2.408120
 20
2.259400
  0
VERTEX
  8
0
  6
CONTINUOUS
 10
2.428360
 20
2.272160
  0
VERTEX
  8
0
  6
CONTINUOUS
 10
2.449920
 20
2.283600
  0
VERTEX
  8
0
  6
CONTINUOUS
 10
2.473240
 20
2.293720
  0
VERTEX
  8
0
  6
CONTINUOUS
 10
2.523840
 20
2.309560
  0
VERTEX
  8
0
  6
CONTINUOUS
 10
2.550680
 20
2.315720
  0
VERTEX
  8
0
  6
CONTINUOUS
 10
2.606120
 20
2.323200
  0
VERTEX
  8
0
  6
CONTINUOUS
 10
2.634280
 20
2.324960
  0
VERTEX
  8
0
  6
CONTINUOUS
 10
2.662880
 20
2.324960
  0
VERTEX
  8
0
  6
CONTINUOUS
 10
2.691040
 20
2.323640
  0
VERTEX
  8
0
  6
CONTINUOUS
 10
2.746480
 20
2.316160
  0
VERTEX
  8
0
  6
CONTINUOUS
 10
2.773320
 20
2.310000
  0
VERTEX
  8
0
  6
CONTINUOUS
 10
2.798840
 20
2.302080
  0
VERTEX
  8
0
  6
CONTINUOUS
 10
2.823480
 20
2.292400
  0
VERTEX
  8
0
  6
CONTINUOUS
 10
2.846800
 20
2.281400
  0
VERTEX
  8
0
  6
CONTINUOUS
 10
2.878480
 20
2.261160
  0
VERTEX
  8
0
  6
CONTINUOUS
 10
2.906200
 20
2.236960
  0
VERTEX
  8
0
  6
CONTINUOUS
 10
2.928640
 20
2.208360
  0
VERTEX
  8
0
  6
CONTINUOUS
 10
2.940520
 20
2.187240
  0
VERTEX
  8
0
  6
CONTINUOUS
 10
2.949760
 20
2.163920
  0
VERTEX
  8
0
  6
CONTINUOUS
 10
2.955920
 20
2.138840
  0
VERTEX
  8
0
  6
CONTINUOUS
 10
2.957680
 20
2.125640
  0
VERTEX
  8
0
  6
CONTINUOUS
 10
3.043920
 20
2.125640
  0
VERTEX
  8
0
  6
CONTINUOUS
 10
3.077800
 20
2.095280
  0
VERTEX
  8
0
  6
CONTINUOUS
 10
3.109920
 20
2.072400
  0
VERTEX
  8
0
  6
CONTINUOUS
 10
3.141600
 20
2.056120
  0
VERTEX
  8
0
  6
CONTINUOUS
 10
3.173280
 20
2.044680
  0
VERTEX
  8
0
  6
CONTINUOUS
 10
3.205400
 20
2.038080
  0
VERTEX
  8
0
  6
CONTINUOUS
 10
3.239280
 20
2.035440
  0
VERTEX
  8
0
  6
CONTINUOUS
 10
3.294280
 20
2.035440
  0
VERTEX
  8
0
  6
CONTINUOUS
 10
3.314080
 20
2.036320
  0
VERTEX
  8
0
  6
CONTINUOUS
 10
3.314080
 20
1.944800
  0
VERTEX
  8
0
  6
CONTINUOUS
 10
4.827240
 20
1.944800
  0
VERTEX
  8
0
  6
CONTINUOUS
 10
4.827240
 20
1.895960
  0
VERTEX
  8
0
  6
CONTINUOUS
 10
5.951440
 20
1.895960
  0
VERTEX
  8
0
  6
CONTINUOUS
 10
5.951440
 20
1.516240
  0
SEQEND
  8
0
  0
POLYLINE
  8
0
  6
CONTINUOUS
 66
     1
 40
0.000000
 41
0.000000
  0
VERTEX
  8
0
  6
CONTINUOUS
 10
2.335520
 20
2.928200
  0
VERTEX
  8
0
  6
CONTINUOUS
 10
5.951440
 20
2.928200
  0
VERTEX
  8
0
  6
CONTINUOUS
 10
5.951000
 20
3.560040
  0
VERTEX
  8
0
  6
CONTINUOUS
 10
5.944840
 20
3.589960
  0
VERTEX
  8
0
  6
CONTINUOUS
 10
5.936920
 20
3.608440
  0
VERTEX
  8
0
  6
CONTINUOUS
 10
5.919760
 20
3.634400
  0
VERTEX
  8
0
  6
CONTINUOUS
 10
5.896880
 20
3.657280
  0
VERTEX
  8
0
  6
CONTINUOUS
 10
5.878840
 20
3.671360
  0
VERTEX
  8
0
  6
CONTINUOUS
 10
5.837040
 20
3.695560
  0
VERTEX
  8
0
  6
CONTINUOUS
 10
5.813720
 20
3.705680
  0
VERTEX
  8
0
  6
CONTINUOUS
 10
5.763120
 20
3.721520
  0
VERTEX
  8
0
  6
CONTINUOUS
 10
5.736280
 20
3.727680
  0
VERTEX
  8
0
  6
CONTINUOUS
 10
5.680840
 20
3.735160
  0
VERTEX
  8
0
  6
CONTINUOUS
 10
5.652240
 20
3.736920
  0
VERTEX
  8
0
  6
CONTINUOUS
 10
5.595480
 20
3.735600
  0
VERTEX
  8
0
  6
CONTINUOUS
 10
5.540040
 20
3.728120
  0
VERTEX
  8
0
  6
CONTINUOUS
 10
5.513640
 20
3.721960
  0
VERTEX
  8
0
  6
CONTINUOUS
 10
5.487680
 20
3.714040
  0
VERTEX
  8
0
  6
CONTINUOUS
 10
5.439720
 20
3.693360
  0
VERTEX
  8
0
  6
CONTINUOUS
 10
5.408040
 20
3.673120
  0
VERTEX
  8
0
  6
CONTINUOUS
 10
5.380760
 20
3.648920
  0
VERTEX
  8
0
  6
CONTINUOUS
 10
5.357880
 20
3.620320
  0
VERTEX
  8
0
  6
CONTINUOUS
 10
5.346000
 20
3.599200
  0
VERTEX
  8
0
  6
CONTINUOUS
 10
5.336760
 20
3.575880
  0
VERTEX
  8
0
  6
CONTINUOUS
 10
5.330600
 20
3.550800
  0
VERTEX
  8
0
  6
CONTINUOUS
 10
5.328840
 20
3.537600
  0
VERTEX
  8
0
  6
CONTINUOUS
 10
5.243040
 20
3.537600
  0
VERTEX
  8
0
  6
CONTINUOUS
 10
5.209160
 20
3.507240
  0
VERTEX
  8
0
  6
CONTINUOUS
 10
5.177040
 20
3.484360
  0
VERTEX
  8
0
  6
CONTINUOUS
 10
5.145360
 20
3.468080
  0
VERTEX
  8
0
  6
CONTINUOUS
 10
5.113680
 20
3.456640
  0
VERTEX
  8
0
  6
CONTINUOUS
 10
5.081560
 20
3.450040
  0
VERTEX
  8
0
  6
CONTINUOUS
 10
5.047680
 20
3.447400
  0
VERTEX
  8
0
  6
CONTINUOUS
 10
4.992680
 20
3.447400
  0
VERTEX
  8
0
  6
CONTINUOUS
 10
4.972880
 20
3.448280
  0
VERTEX
  8
0
  6
CONTINUOUS
 10
4.972880
 20
3.356760
  0
VERTEX
  8
0
  6
CONTINUOUS
 10
3.459280
 20
3.356760
  0
VERTEX
  8
0
  6
CONTINUOUS
 10
3.459280
 20
3.307920
  0
VERTEX
  8
0
  6
CONTINUOUS
 10
2.335520
 20
3.307920
  0
VERTEX
  8
0
  6
CONTINUOUS
 10
2.335520
 20
2.928200
  0
SEQEND
  8
0
  0
SOLID
  8
0
 62
    15
 10
2.889040
 20
4.975520
 11
2.887280
 21
5.724400
 12
2.922480
 22
4.940320
 13
2.921160
 23
5.689200
  0
POLYLINE
  8
0
  6
CONTINUOUS
 66
     1
 40
0.000000
 41
0.000000
  0
VERTEX
  8
0
  6
CONTINUOUS
 10
2.889040
 20
4.975520
  0
VERTEX
  8
0
  6
CONTINUOUS
 10
2.887280
 20
5.724400
  0
VERTEX
  8
0
  6
CONTINUOUS
 10
2.921160
 20
5.689200
  0
VERTEX
  8
0
  6
CONTINUOUS
 10
2.922480
 20
4.940320
  0
VERTEX
  8
0
  6
CONTINUOUS
 10
2.889040
 20
4.975520
  0
SEQEND
  8
0
  0
SOLID
  8
0
 62
    15
 10
2.335960
 20
4.859360
 11
2.334640
 21
5.608680
 12
2.342560
 22
4.900280
 13
2.341240
 23
5.649160
  0
POLYLINE
  8
0
  6
CONTINUOUS
 66
     1
 40
0.000000
 41
0.000000
  0
VERTEX
  8
0
  6
CONTINUOUS
 10
2.335960
 20
4.859360
  0
VERTEX
  8
0
  6
CONTINUOUS
 10
2.334640
 20
5.608680
  0
VERTEX
  8
0
  6
CONTINUOUS
 10
2.341240
 20
5.649160
  0
VERTEX
  8
0
  6
CONTINUOUS
 10
2.342560
 20
4.900280
  0
VERTEX
  8
0
  6
CONTINUOUS
 10
2.335960
 20
4.859360
  0
SEQEND
  8
0
  0
SOLID
  8
0
 62
    15
 10
2.342560
 20
4.900280
 11
2.341240
 21
5.649160
 12
2.361480
 22
4.935920
 13
2.360160
 23
5.685240
  0
POLYLINE
  8
0
  6
CONTINUOUS
 66
     1
 40
0.000000
 41
0.000000
  0
VERTEX
  8
0
  6
CONTINUOUS
 10
2.342560
 20
4.900280
  0
VERTEX
  8
0
  6
CONTINUOUS
 10
2.341240
 20
5.649160
  0
VERTEX
  8
0
  6
CONTINUOUS
 10
2.360160
 20
5.685240
  0
VERTEX
  8
0
  6
CONTINUOUS
 10
2.361480
 20
4.935920
  0
VERTEX
  8
0
  6
CONTINUOUS
 10
2.342560
 20
4.900280
  0
SEQEND
  8
0
  0
SOLID
  8
0
 62
    15
 10
2.361480
 20
4.935920
 11
2.360160
 21
5.685240
 12
2.390520
 22
4.967600
 13
2.389200
 23
5.716480
  0
POLYLINE
  8
0
  6
CONTINUOUS
 66
     1
 40
0.000000
 41
0.000000
  0
VERTEX
  8
0
  6
CONTINUOUS
 10
2.361480
 20
4.935920
  0
VERTEX
  8
0
  6
CONTINUOUS
 10
2.360160
 20
5.685240
  0
VERTEX
  8
0
  6
CONTINUOUS
 10
2.389200
 20
5.716480
  0
VERTEX
  8
0
  6
CONTINUOUS
 10
2.390520
 20
4.967600
  0
VERTEX
  8
0
  6
CONTINUOUS
 10
2.361480
 20
4.935920
  0
SEQEND
  8
0
  0
SOLID
  8
0
 62
    15
 10
2.390520
 20
4.967600
 11
2.389200
 21
5.716480
 12
2.428800
 22
4.994000
 13
2.427040
 23
5.742880
  0
POLYLINE
  8
0
  6
CONTINUOUS
 66
     1
 40
0.000000
 41
0.000000
  0
VERTEX
  8
0
  6
CONTINUOUS
 10
2.390520
 20
4.967600
  0
VERTEX
  8
0
  6
CONTINUOUS
 10
2.389200
 20
5.716480
  0
VERTEX
  8
0
  6
CONTINUOUS
 10
2.427040
 20
5.742880
  0
VERTEX
  8
0
  6
CONTINUOUS
 10
2.428800
 20
4.994000
  0
VERTEX
  8
0
  6
CONTINUOUS
 10
2.390520
 20
4.967600
  0
SEQEND
  8
0
  0
SOLID
  8
0
 62
    15
 10
2.428800
 20
4.994000
 11
2.427040
 21
5.742880
 12
2.473680
 22
5.015560
 13
2.472360
 23
5.764440
  0
POLYLINE
  8
0
  6
CONTINUOUS
 66
     1
 40
0.000000
 41
0.000000
  0
VERTEX
  8
0
  6
CONTINUOUS
 10
2.428800
 20
4.994000
  0
VERTEX
  8
0
  6
CONTINUOUS
 10
2.427040
 20
5.742880
  0
VERTEX
  8
0
  6
CONTINUOUS
 10
2.472360
 20
5.764440
  0
VERTEX
  8
0
  6
CONTINUOUS
 10
2.473680
 20
5.015560
  0
VERTEX
  8
0
  6
CONTINUOUS
 10
2.428800
 20
4.994000
  0
SEQEND
  8
0
  0
SOLID
  8
0
 62
    15
 10
2.473680
 20
5.015560
 11
2.472360
 21
5.764440
 12
2.524280
 22
5.031840
 13
2.522960
 23
5.780720
  0
POLYLINE
  8
0
  6
CONTINUOUS
 66
     1
 40
0.000000
 41
0.000000
  0
VERTEX
  8
0
  6
CONTINUOUS
 10
2.473680
 20
5.015560
  0
VERTEX
  8
0
  6
CONTINUOUS
 10
2.472360
 20
5.764440
  0
VERTEX
  8
0
  6
CONTINUOUS
 10
2.522960
 20
5.780720
  0
VERTEX
  8
0
  6
CONTINUOUS
 10
2.524280
 20
5.031840
  0
VERTEX
  8
0
  6
CONTINUOUS
 10
2.473680
 20
5.015560
  0
SEQEND
  8
0
  0
SOLID
  8
0
 62
    15
 10
2.524280
 20
5.031840
 11
2.522960
 21
5.780720
 12
2.578400
 22
5.042400
 13
2.577080
 23
5.791280
  0
POLYLINE
  8
0
  6
CONTINUOUS
 66
     1
 40
0.000000
 41
0.000000
  0
VERTEX
  8
0
  6
CONTINUOUS
 10
2.524280
 20
5.031840
  0
VERTEX
  8
0
  6
CONTINUOUS
 10
2.522960
 20
5.780720
  0
VERTEX
  8
0
  6
CONTINUOUS
 10
2.577080
 20
5.791280
  0
VERTEX
  8
0
  6
CONTINUOUS
 10
2.578400
 20
5.042400
  0
VERTEX
  8
0
  6
CONTINUOUS
 10
2.524280
 20
5.031840
  0
SEQEND
  8
0
  0
SOLID
  8
0
 62
    15
 10
2.578400
 20
5.042400
 11
2.577080
 21
5.791280
 12
2.635160
 22
5.046800
 13
2.633400
 23
5.796120
  0
POLYLINE
  8
0
  6
CONTINUOUS
 66
     1
 40
0.000000
 41
0.000000
  0
VERTEX
  8
0
  6
CONTINUOUS
 10
2.578400
 20
5.042400
  0
VERTEX
  8
0
  6
CONTINUOUS
 10
2.577080
 20
5.791280
  0
VERTEX
  8
0
  6
CONTINUOUS
 10
2.633400
 20
5.796120
  0
VERTEX
  8
0
  6
CONTINUOUS
 10
2.635160
 20
5.046800
  0
VERTEX
  8
0
  6
CONTINUOUS
 10
2.578400
 20
5.042400
  0
SEQEND
  8
0
  0
SOLID
  8
0
 62
    15
 10
2.635160
 20
5.046800
 11
2.633400
 21
5.796120
 12
2.691480
 22
5.045920
 13
2.690160
 23
5.794800
  0
POLYLINE
  8
0
  6
CONTINUOUS
 66
     1
 40
0.000000
 41
0.000000
  0
VERTEX
  8
0
  6
CONTINUOUS
 10
2.635160
 20
5.046800
  0
VERTEX
  8
0
  6
CONTINUOUS
 10
2.633400
 20
5.796120
  0
VERTEX
  8
0
  6
CONTINUOUS
 10
2.690160
 20
5.794800
  0
VERTEX
  8
0
  6
CONTINUOUS
 10
2.691480
 20
5.045920
  0
VERTEX
  8
0
  6
CONTINUOUS
 10
2.635160
 20
5.046800
  0
SEQEND
  8
0
  0
SOLID
  8
0
 62
    15
 10
2.691480
 20
5.045920
 11
2.690160
 21
5.794800
 12
2.747360
 22
5.038000
 13
2.745600
 23
5.787320
  0
POLYLINE
  8
0
  6
CONTINUOUS
 66
     1
 40
0.000000
 41
0.000000
  0
VERTEX
  8
0
  6
CONTINUOUS
 10
2.691480
 20
5.045920
  0
VERTEX
  8
0
  6
CONTINUOUS
 10
2.690160
 20
5.794800
  0
VERTEX
  8
0
  6
CONTINUOUS
 10
2.745600
 20
5.787320
  0
VERTEX
  8
0
  6
CONTINUOUS
 10
2.747360
 20
5.038000
  0
VERTEX
  8
0
  6
CONTINUOUS
 10
2.691480
 20
5.045920
  0
SEQEND
  8
0
  0
SOLID
  8
0
 62
    15
 10
2.747360
 20
5.038000
 11
2.745600
 21
5.787320
 12
2.799720
 22
5.023920
 13
2.798400
 23
5.773240
  0
POLYLINE
  8
0
  6
CONTINUOUS
 66
     1
 40
0.000000
 41
0.000000
  0
VERTEX
  8
0
  6
CONTINUOUS
 10
2.747360
 20
5.038000
  0
VERTEX
  8
0
  6
CONTINUOUS
 10
2.745600
 20
5.787320
  0
VERTEX
  8
0
  6
CONTINUOUS
 10
2.798400
 20
5.773240
  0
VERTEX
  8
0
  6
CONTINUOUS
 10
2.799720
 20
5.023920
  0
VERTEX
  8
0
  6
CONTINUOUS
 10
2.747360
 20
5.038000
  0
SEQEND
  8
0
  0
SOLID
  8
0
 62
    15
 10
2.799720
 20
5.023920
 11
2.798400
 21
5.773240
 12
2.847680
 22
5.003240
 13
2.845920
 23
5.752120
  0
POLYLINE
  8
0
  6
CONTINUOUS
 66
     1
 40
0.000000
 41
0.000000
  0
VERTEX
  8
0
  6
CONTINUOUS
 10
2.799720
 20
5.023920
  0
VERTEX
  8
0
  6
CONTINUOUS
 10
2.798400
 20
5.773240
  0
VERTEX
  8
0
  6
CONTINUOUS
 10
2.845920
 20
5.752120
  0
VERTEX
  8
0
  6
CONTINUOUS
 10
2.847680
 20
5.003240
  0
VERTEX
  8
0
  6
CONTINUOUS
 10
2.799720
 20
5.023920
  0
SEQEND
  8
0
  0
SOLID
  8
0
 62
    15
 10
2.847680
 20
5.003240
 11
2.845920
 21
5.752120
 12
2.889040
 22
4.975520
 13
2.887280
 23
5.724400
  0
POLYLINE
  8
0
  6
CONTINUOUS
 66
     1
 40
0.000000
 41
0.000000
  0
VERTEX
  8
0
  6
CONTINUOUS
 10
2.847680
 20
5.003240
  0
VERTEX
  8
0
  6
CONTINUOUS
 10
2.845920
 20
5.752120
  0
VERTEX
  8
0
  6
CONTINUOUS
 10
2.887280
 20
5.724400
  0
VERTEX
  8
0
  6
CONTINUOUS
 10
2.889040
 20
4.975520
  0
VERTEX
  8
0
  6
CONTINUOUS
 10
2.847680
 20
5.003240
  0
SEQEND
  8
0
  0
SOLID
  8
0
 62
    15
 10
2.335960
 20
4.238080
 11
2.334640
 21
4.986960
 12
2.335960
 22
4.859360
 13
2.334640
 23
5.608680
  0
POLYLINE
  8
0
  6
CONTINUOUS
 66
     1
 40
0.000000
 41
0.000000
  0
VERTEX
  8
0
  6
CONTINUOUS
 10
2.335960
 20
4.238080
  0
VERTEX
  8
0
  6
CONTINUOUS
 10
2.334640
 20
4.986960
  0
VERTEX
  8
0
  6
CONTINUOUS
 10
2.334640
 20
5.608680
  0
VERTEX
  8
0
  6
CONTINUOUS
 10
2.335960
 20
4.859360
  0
VERTEX
  8
0
  6
CONTINUOUS
 10
2.335960
 20
4.238080
  0
SEQEND
  8
0
  0
SOLID
  8
0
 62
    15
 10
2.922480
 20
4.940320
 11
2.921160
 21
5.689200
 12
2.946240
 22
4.897640
 13
2.944920
 23
5.646960
  0
POLYLINE
  8
0
  6
CONTINUOUS
 66
     1
 40
0.000000
 41
0.000000
  0
VERTEX
  8
0
  6
CONTINUOUS
 10
2.922480
 20
4.940320
  0
VERTEX
  8
0
  6
CONTINUOUS
 10
2.921160
 20
5.689200
  0
VERTEX
  8
0
  6
CONTINUOUS
 10
2.944920
 20
5.646960
  0
VERTEX
  8
0
  6
CONTINUOUS
 10
2.946240
 20
4.897640
  0
VERTEX
  8
0
  6
CONTINUOUS
 10
2.922480
 20
4.940320
  0
SEQEND
  8
0
  0
SOLID
  8
0
 62
    15
 10
2.946240
 20
4.897640
 11
2.944920
 21
5.646960
 12
2.958560
 22
4.847480
 13
2.957240
 23
5.596360
  0
POLYLINE
  8
0
  6
CONTINUOUS
 66
     1
 40
0.000000
 41
0.000000
  0
VERTEX
  8
0
  6
CONTINUOUS
 10
2.946240
 20
4.897640
  0
VERTEX
  8
0
  6
CONTINUOUS
 10
2.944920
 20
5.646960
  0
VERTEX
  8
0
  6
CONTINUOUS
 10
2.957240
 20
5.596360
  0
VERTEX
  8
0
  6
CONTINUOUS
 10
2.958560
 20
4.847480
  0
VERTEX
  8
0
  6
CONTINUOUS
 10
2.946240
 20
4.897640
  0
SEQEND
  8
0
  0
SOLID
  8
0
 62
    15
 10
2.958560
 20
4.847480
 11
2.957240
 21
5.596360
 12
3.044360
 22
4.847480
 13
3.043040
 23
5.596360
  0
POLYLINE
  8
0
  6
CONTINUOUS
 66
     1
 40
0.000000
 41
0.000000
  0
VERTEX
  8
0
  6
CONTINUOUS
 10
2.958560
 20
4.847480
  0
VERTEX
  8
0
  6
CONTINUOUS
 10
2.957240
 20
5.596360
  0
VERTEX
  8
0
  6
CONTINUOUS
 10
3.043040
 20
5.596360
  0
VERTEX
  8
0
  6
CONTINUOUS
 10
3.044360
 20
4.847480
  0
VERTEX
  8
0
  6
CONTINUOUS
 10
2.958560
 20
4.847480
  0
SEQEND
  8
0
  0
SOLID
  8
0
 62
    15
 10
3.044360
 20
4.847480
 11
3.043040
 21
5.596360
 12
3.078240
 22
4.817120
 13
3.076920
 23
5.566440
  0
POLYLINE
  8
0
  6
CONTINUOUS
 66
     1
 40
0.000000
 41
0.000000
  0
VERTEX
  8
0
  6
CONTINUOUS
 10
3.044360
 20
4.847480
  0
VERTEX
  8
0
  6
CONTINUOUS
 10
3.043040
 20
5.596360
  0
VERTEX
  8
0
  6
CONTINUOUS
 10
3.076920
 20
5.566440
  0
VERTEX
  8
0
  6
CONTINUOUS
 10
3.078240
 20
4.817120
  0
VERTEX
  8
0
  6
CONTINUOUS
 10
3.044360
 20
4.847480
  0
SEQEND
  8
0
  0
SOLID
  8
0
 62
    15
 10
3.078240
 20
4.817120
 11
3.076920
 21
5.566440
 12
3.110800
 22
4.794240
 13
3.109480
 23
5.543120
  0
POLYLINE
  8
0
  6
CONTINUOUS
 66
     1
 40
0.000000
 41
0.000000
  0
VERTEX
  8
0
  6
CONTINUOUS
 10
3.078240
 20
4.817120
  0
VERTEX
  8
0
  6
CONTINUOUS
 10
3.076920
 20
5.566440
  0
VERTEX
  8
0
  6
CONTINUOUS
 10
3.109480
 20
5.543120
  0
VERTEX
  8
0
  6
CONTINUOUS
 10
3.110800
 20
4.794240
  0
VERTEX
  8
0
  6
CONTINUOUS
 10
3.078240
 20
4.817120
  0
SEQEND
  8
0
  0
SOLID
  8
0
 62
    15
 10
3.110800
 20
4.794240
 11
3.109480
 21
5.543120
 12
3.142040
 22
4.777960
 13
3.140720
 23
5.526840
  0
POLYLINE
  8
0
  6
CONTINUOUS
 66
     1
 40
0.000000
 41
0.000000
  0
VERTEX
  8
0
  6
CONTINUOUS
 10
3.110800
 20
4.794240
  0
VERTEX
  8
0
  6
CONTINUOUS
 10
3.109480
 20
5.543120
  0
VERTEX
  8
0
  6
CONTINUOUS
 10
3.140720
 20
5.526840
  0
VERTEX
  8
0
  6
CONTINUOUS
 10
3.142040
 20
4.777960
  0
VERTEX
  8
0
  6
CONTINUOUS
 10
3.110800
 20
4.794240
  0
SEQEND
  8
0
  0
SOLID
  8
0
 62
    15
 10
3.142040
 20
4.777960
 11
3.140720
 21
5.526840
 12
3.173720
 22
4.766520
 13
3.172400
 23
5.515840
  0
POLYLINE
  8
0
  6
CONTINUOUS
 66
     1
 40
0.000000
 41
0.000000
  0
VERTEX
  8
0
  6
CONTINUOUS
 10
3.142040
 20
4.777960
  0
VERTEX
  8
0
  6
CONTINUOUS
 10
3.140720
 20
5.526840
  0
VERTEX
  8
0
  6
CONTINUOUS
 10
3.172400
 20
5.515840
  0
VERTEX
  8
0
  6
CONTINUOUS
 10
3.173720
 20
4.766520
  0
VERTEX
  8
0
  6
CONTINUOUS
 10
3.142040
 20
4.777960
  0
SEQEND
  8
0
  0
SOLID
  8
0
 62
    15
 10
3.173720
 20
4.766520
 11
3.172400
 21
5.515840
 12
3.205840
 22
4.759920
 13
3.204520
 23
5.509240
  0
POLYLINE
  8
0
  6
CONTINUOUS
 66
     1
 40
0.000000
 41
0.000000
  0
VERTEX
  8
0
  6
CONTINUOUS
 10
3.173720
 20
4.766520
  0
VERTEX
  8
0
  6
CONTINUOUS
 10
3.172400
 20
5.515840
  0
VERTEX
  8
0
  6
CONTINUOUS
 10
3.204520
 20
5.509240
  0
VERTEX
  8
0
  6
CONTINUOUS
 10
3.205840
 20
4.759920
  0
VERTEX
  8
0
  6
CONTINUOUS
 10
3.173720
 20
4.766520
  0
SEQEND
  8
0
  0
SOLID
  8
0
 62
    15
 10
3.205840
 20
4.759920
 11
3.204520
 21
5.509240
 12
3.239720
 22
4.757280
 13
3.238400
 23
5.506160
  0
POLYLINE
  8
0
  6
CONTINUOUS
 66
     1
 40
0.000000
 41
0.000000
  0
VERTEX
  8
0
  6
CONTINUOUS
 10
3.205840
 20
4.759920
  0
VERTEX
  8
0
  6
CONTINUOUS
 10
3.204520
 20
5.509240
  0
VERTEX
  8
0
  6
CONTINUOUS
 10
3.238400
 20
5.506160
  0
VERTEX
  8
0
  6
CONTINUOUS
 10
3.239720
 20
4.757280
  0
VERTEX
  8
0
  6
CONTINUOUS
 10
3.205840
 20
4.759920
  0
SEQEND
  8
0
  0
POLYLINE
  8
0
  6
CONTINUOUS
 66
     1
 40
0.000000
 41
0.000000
  0
VERTEX
  8
0
  6
CONTINUOUS
 10
5.952320
 20
4.238080
  0
VERTEX
  8
0
  6
CONTINUOUS
 10
5.950560
 20
4.986960
  0
VERTEX
  8
0
  6
CONTINUOUS
 10
5.952320
 20
4.238080
  0
SEQEND
  8
0
  0
SOLID
  8
0
 62
    15
 10
4.828120
 20
4.617800
 11
4.826360
 21
5.366680
 12
5.952320
 22
4.617800
 13
5.950560
 23
5.366680
  0
POLYLINE
  8
0
  6
CONTINUOUS
 66
     1
 40
0.000000
 41
0.000000
  0
VERTEX
  8
0
  6
CONTINUOUS
 10
4.828120
 20
4.617800
  0
VERTEX
  8
0
  6
CONTINUOUS
 10
4.826360
 20
5.366680
  0
VERTEX
  8
0
  6
CONTINUOUS
 10
5.950560
 20
5.366680
  0
VERTEX
  8
0
  6
CONTINUOUS
 10
5.952320
 20
4.617800
  0
VERTEX
  8
0
  6
CONTINUOUS
 10
4.828120
 20
4.617800
  0
SEQEND
  8
0
  0
SOLID
  8
0
 62
    15
 10
3.314520
 20
4.667080
 11
3.313200
 21
5.415960
 12
4.828120
 22
4.667080
 13
4.826360
 23
5.415960
  0
POLYLINE
  8
0
  6
CONTINUOUS
 66
     1
 40
0.000000
 41
0.000000
  0
VERTEX
  8
0
  6
CONTINUOUS
 10
3.314520
 20
4.667080
  0
VERTEX
  8
0
  6
CONTINUOUS
 10
3.313200
 20
5.415960
  0
VERTEX
  8
0
  6
CONTINUOUS
 10
4.826360
 20
5.415960
  0
VERTEX
  8
0
  6
CONTINUOUS
 10
4.828120
 20
4.667080
  0
VERTEX
  8
0
  6
CONTINUOUS
 10
3.314520
 20
4.667080
  0
SEQEND
  8
0
  0
SOLID
  8
0
 62
    15
 10
3.239720
 20
4.757280
 11
3.238400
 21
5.506160
 12
3.314520
 22
4.758160
 13
3.313200
 23
5.507040
  0
POLYLINE
  8
0
  6
CONTINUOUS
 66
     1
 40
0.000000
 41
0.000000
  0
VERTEX
  8
0
  6
CONTINUOUS
 10
3.239720
 20
4.757280
  0
VERTEX
  8
0
  6
CONTINUOUS
 10
3.238400
 20
5.506160
  0
VERTEX
  8
0
  6
CONTINUOUS
 10
3.313200
 20
5.507040
  0
VERTEX
  8
0
  6
CONTINUOUS
 10
3.314520
 20
4.758160
  0
VERTEX
  8
0
  6
CONTINUOUS
 10
3.239720
 20
4.757280
  0
SEQEND
  8
0
  0
POLYLINE
  8
0
  6
CONTINUOUS
 66
     1
 40
0.000000
 41
0.000000
  0
VERTEX
  8
0
  6
CONTINUOUS
 10
5.952320
 20
4.238080
  0
VERTEX
  8
0
  6
CONTINUOUS
 10
2.335960
 20
4.238080
  0
VERTEX
  8
0
  6
CONTINUOUS
 10
2.335960
 20
4.859360
  0
VERTEX
  8
0
  6
CONTINUOUS
 10
2.342560
 20
4.900280
  0
VERTEX
  8
0
  6
CONTINUOUS
 10
2.361480
 20
4.935920
  0
VERTEX
  8
0
  6
CONTINUOUS
 10
2.390520
 20
4.967600
  0
VERTEX
  8
0
  6
CONTINUOUS
 10
2.428800
 20
4.994000
  0
VERTEX
  8
0
  6
CONTINUOUS
 10
2.473680
 20
5.015560
  0
VERTEX
  8
0
  6
CONTINUOUS
 10
2.524280
 20
5.031840
  0
VERTEX
  8
0
  6
CONTINUOUS
 10
2.578400
 20
5.042400
  0
VERTEX
  8
0
  6
CONTINUOUS
 10
2.635160
 20
5.046800
  0
VERTEX
  8
0
  6
CONTINUOUS
 10
2.691480
 20
5.045920
  0
VERTEX
  8
0
  6
CONTINUOUS
 10
2.747360
 20
5.038000
  0
VERTEX
  8
0
  6
CONTINUOUS
 10
2.799720
 20
5.023920
  0
VERTEX
  8
0
  6
CONTINUOUS
 10
2.847680
 20
5.003240
  0
VERTEX
  8
0
  6
CONTINUOUS
 10
2.889040
 20
4.975520
  0
VERTEX
  8
0
  6
CONTINUOUS
 10
2.922480
 20
4.940320
  0
VERTEX
  8
0
  6
CONTINUOUS
 10
2.946240
 20
4.897640
  0
VERTEX
  8
0
  6
CONTINUOUS
 10
2.958560
 20
4.847480
  0
VERTEX
  8
0
  6
CONTINUOUS
 10
3.044360
 20
4.847480
  0
VERTEX
  8
0
  6
CONTINUOUS
 10
3.078240
 20
4.817120
  0
VERTEX
  8
0
  6
CONTINUOUS
 10
3.110800
 20
4.794240
  0
VERTEX
  8
0
  6
CONTINUOUS
 10
3.142040
 20
4.777960
  0
VERTEX
  8
0
  6
CONTINUOUS
 10
3.173720
 20
4.766520
  0
VERTEX
  8
0
  6
CONTINUOUS
 10
3.205840
 20
4.759920
  0
VERTEX
  8
0
  6
CONTINUOUS
 10
3.239720
 20
4.757280
  0
VERTEX
  8
0
  6
CONTINUOUS
 10
3.314520
 20
4.758160
  0
VERTEX
  8
0
  6
CONTINUOUS
 10
3.314520
 20
4.667080
  0
VERTEX
  8
0
  6
CONTINUOUS
 10
4.828120
 20
4.667080
  0
VERTEX
  8
0
  6
CONTINUOUS
 10
4.828120
 20
4.617800
  0
VERTEX
  8
0
  6
CONTINUOUS
 10
5.952320
 20
4.617800
  0
VERTEX
  8
0
  6
CONTINUOUS
 10
5.952320
 20
4.238080
  0
SEQEND
  8
0
  0
TEXT
  8
0
 10
3.802480
 20
3.970120
 40
0.138261
  1
BA  1281
 41
1.000000
  7
SN0
 71
     0
 72
     5
 11
4.484963
 21
3.970120
  0
TEXT
  8
0
 10
3.600520
 20
3.778280
 40
0.138261
  1
13/16" x 3-5/8"
 41
1.000000
  7
SN0
 71
     0
 72
     5
 11
4.685590
 21
3.778280
  0
TEXT
  8
0
 10
3.802480
 20
6.753560
 40
0.138261
  1
BA  1281
 41
1.000000
  7
SN0
 71
     0
 72
     5
 11
4.484963
 21
6.753560
  0
TEXT
  8
0
 10
3.600520
 20
6.561720
 40
0.138261
  1
13/16" x 3-5/8"
 41
1.000000
  7
SN0
 71
     0
 72
     5
 11
4.685590
 21
6.561720
  0
ENDSEC
  0
EOF
