  0
SECTION
  2
HEADER
  9
$ACADVER
  1
AC1006
  9
$EXTMIN
 10
2.831840
 20
2.877160
  9
$EXTMAX
 10
4.656520
 20
7.943320
  9
$LTSCALE
 40
0.044000
  9
$PDMODE
 70
    35
  9
$PDSIZE
 40
0.035200
  0
ENDSEC
  0
SECTION
  2
TABLES
  0
TABLE
  2
LTYPE
 70
     9
  0
LTYPE
  2
CONTINUOUS
 70
    64
  3
Solid line
 72
    65
 73
     0
 40
0.000000
  0
LTYPE
  2
DASHED
 70
    64
  3
__ __ __ __ __ __ __ __ __ __ __ __ __ __ __
 72
    65
 73
     2
 40
0.000330
 49
0.000220
 49
-0.000110
  0
LTYPE
  2
HIDDEN
 70
    64
  3
 _ _ _ _ _ _ _ _ _ _ _ _ _ _ _ _ _ _ _ _ _ _
 72
    65
 73
     2
 40
0.000165
 49
0.000110
 49
-0.000055
  0
LTYPE
  2
CENTER
 70
    64
  3
____ _ ____ _ ____ _ ____ _ ____ _ ____ _ ____
 72
    65
 73
     4
 40
0.000880
 49
0.000550
 49
-0.000110
 49
0.000110
 49
-0.000110
  0
LTYPE
  2
PHANTOM
 70
    64
  3
_____ _ _ _____ _ _ _____ _ _ _____ _ _ ____
 72
    65
 73
     6
 40
0.001100
 49
0.000550
 49
-0.000110
 49
0.000110
 49
-0.000110
 49
0.000110
 49
-0.000110
  0
LTYPE
  2
DOT
 70
    64
  3
...............................................
 72
    65
 73
     2
 40
0.000110
 49
0.000000
 49
-0.000110
  0
LTYPE
  2
DASHDOT
 70
    64
  3
__ . __ . __ . __ . __ . __ . __ . __ . __ . __
 72
    65
 73
     4
 40
0.000440
 49
0.000220
 49
-0.000110
 49
0.000000
 49
-0.000110
  0
LTYPE
  2
BORDER
 70
    64
  3
__ __ . __ __ . __ __ . __ __ . __ __ . __ __
 72
    65
 73
     6
 40
0.000770
 49
0.000220
 49
-0.000110
 49
0.000220
 49
-0.000110
 49
0.000000
 49
-0.000110
  0
LTYPE
  2
DIVIDE
 70
    64
  3
__ . . __ . . __ . . __ . . __ . . __ . . __
 72
    65
 73
     6
 40
0.000550
 49
0.000220
 49
-0.000110
 49
0.000000
 49
-0.000110
 49
0.000000
 49
-0.000110
  0
LTYPE
  2
DOTDOT
 70
    64
  3
 . .  . .  . .  . .  . .  . . 
 72
    65
 73
     5
 40
0.000242
 49
-0.000110
 49
0.000000
 49
-0.000110
 49
0.000000
 49
-0.000110
  0
ENDTAB
  0
TABLE
  2
STYLE
 70
     2
  0
STYLE
 70
     0
  2
SN0
 40
0.000000
 41
0.000440
 50
0.000000
 71
     0
 42
0.000000
  3
ROMAND
  0
STYLE
 70
    68
  2
SV0
 40
0.000000
 41
0.000440
 50
0.000000
 71
     0
 42
0.000000
  3
ROMAND
  0
ENDTAB
  0
TABLE
  2
LAYER
 70
     3
  0
LAYER
  2
FOREGROUND
 70
    64
 62
     7
  6
CONTINUOUS
  0
LAYER
  2
BACKGROUND
 70
    65
 62
    -7
  6
CONTINUOUS
  0
LAYER
  2
0
 70
    64
 62
     7
  6
CONTINUOUS
  0
ENDTAB
  0
ENDSEC
  0
SECTION
  2
ENTITIES
  0
POLYLINE
  8
FOREGROUND
  6
CONTINUOUS
 66
     1
 40
0.000000
 41
0.000000
  0
VERTEX
  8
FOREGROUND
  6
CONTINUOUS
 10
0.000000
 20
10.820480
  0
VERTEX
  8
FOREGROUND
  6
CONTINUOUS
 10
8.499920
 20
10.820480
  0
VERTEX
  8
FOREGROUND
  6
CONTINUOUS
 10
8.499920
 20
-0.179520
  0
VERTEX
  8
FOREGROUND
  6
CONTINUOUS
 10
0.000000
 20
-0.179520
  0
VERTEX
  8
FOREGROUND
  6
CONTINUOUS
 10
0.000000
 20
10.820480
  0
SEQEND
  8
0
  0
POLYLINE
  8
FOREGROUND
  6
CONTINUOUS
 66
     1
 40
0.000000
 41
0.000000
  0
VERTEX
  8
FOREGROUND
  6
CONTINUOUS
 10
0.000000
 20
10.820480
  0
VERTEX
  8
FOREGROUND
  6
CONTINUOUS
 10
8.499920
 20
10.820480
  0
VERTEX
  8
FOREGROUND
  6
CONTINUOUS
 10
8.499920
 20
-0.179520
  0
VERTEX
  8
FOREGROUND
  6
CONTINUOUS
 10
0.000000
 20
-0.179520
  0
VERTEX
  8
FOREGROUND
  6
CONTINUOUS
 10
0.000000
 20
10.820480
  0
SEQEND
  8
0
  0
POLYLINE
  8
0
  6
CONTINUOUS
 66
     1
 40
0.014080
 41
0.014080
  0
VERTEX
  8
0
  6
CONTINUOUS
 10
3.383600
 20
7.935400
  0
VERTEX
  8
0
  6
CONTINUOUS
 10
3.634400
 20
7.935400
  0
VERTEX
  8
0
  6
CONTINUOUS
 10
3.637480
 20
7.893600
  0
VERTEX
  8
0
  6
CONTINUOUS
 10
3.644080
 20
7.852240
  0
VERTEX
  8
0
  6
CONTINUOUS
 10
3.654640
 20
7.812200
  0
VERTEX
  8
0
  6
CONTINUOUS
 10
3.668280
 20
7.773040
  0
VERTEX
  8
0
  6
CONTINUOUS
 10
3.685440
 20
7.735640
  0
VERTEX
  8
0
  6
CONTINUOUS
 10
3.715800
 20
7.683280
  0
VERTEX
  8
0
  6
CONTINUOUS
 10
3.751880
 20
7.635760
  0
VERTEX
  8
0
  6
CONTINUOUS
 10
3.791920
 20
7.594400
  0
VERTEX
  8
0
  6
CONTINUOUS
 10
3.820520
 20
7.570200
  0
VERTEX
  8
0
  6
CONTINUOUS
 10
3.850440
 20
7.549520
  0
VERTEX
  8
0
  6
CONTINUOUS
 10
3.881680
 20
7.531920
  0
VERTEX
  8
0
  6
CONTINUOUS
 10
3.912920
 20
7.518280
  0
VERTEX
  8
0
  6
CONTINUOUS
 10
3.944600
 20
7.508600
  0
VERTEX
  8
0
  6
CONTINUOUS
 10
3.976720
 20
7.503320
  0
VERTEX
  8
0
  6
CONTINUOUS
 10
3.992560
 20
7.502440
  0
VERTEX
  8
0
  6
CONTINUOUS
 10
3.992560
 20
7.374400
  0
VERTEX
  8
0
  6
CONTINUOUS
 10
4.018080
 20
7.368240
  0
VERTEX
  8
0
  6
CONTINUOUS
 10
4.041400
 20
7.360760
  0
VERTEX
  8
0
  6
CONTINUOUS
 10
4.063400
 20
7.351520
  0
VERTEX
  8
0
  6
CONTINUOUS
 10
4.083640
 20
7.340960
  0
VERTEX
  8
0
  6
CONTINUOUS
 10
4.118840
 20
7.316320
  0
VERTEX
  8
0
  6
CONTINUOUS
 10
4.133800
 20
7.302240
  0
VERTEX
  8
0
  6
CONTINUOUS
 10
4.158880
 20
7.271880
  0
VERTEX
  8
0
  6
CONTINUOUS
 10
4.177360
 20
7.238000
  0
VERTEX
  8
0
  6
CONTINUOUS
 10
4.184400
 20
7.220400
  0
VERTEX
  8
0
  6
CONTINUOUS
 10
4.193200
 20
7.183880
  0
VERTEX
  8
0
  6
CONTINUOUS
 10
4.195840
 20
7.146480
  0
VERTEX
  8
0
  6
CONTINUOUS
 10
4.191880
 20
7.109080
  0
VERTEX
  8
0
  6
CONTINUOUS
 10
4.187920
 20
7.090160
  0
VERTEX
  8
0
  6
CONTINUOUS
 10
4.175160
 20
7.054080
  0
VERTEX
  8
0
  6
CONTINUOUS
 10
4.166800
 20
7.036480
  0
VERTEX
  8
0
  6
CONTINUOUS
 10
4.145240
 20
7.003920
  0
VERTEX
  8
0
  6
CONTINUOUS
 10
4.118400
 20
6.974000
  0
VERTEX
  8
0
  6
CONTINUOUS
 10
4.085840
 20
6.948040
  0
VERTEX
  8
0
  6
CONTINUOUS
 10
4.047560
 20
6.926920
  0
VERTEX
  8
0
  6
CONTINUOUS
 10
4.026440
 20
6.918560
  0
VERTEX
  8
0
  6
CONTINUOUS
 10
4.004000
 20
6.911520
  0
VERTEX
  8
0
  6
CONTINUOUS
 10
4.004000
 20
6.854760
  0
VERTEX
  8
0
  6
CONTINUOUS
 10
3.383600
 20
6.854760
  0
VERTEX
  8
0
  6
CONTINUOUS
 10
3.383600
 20
7.935400
  0
SEQEND
  8
0
  0
POLYLINE
  8
0
  6
CONTINUOUS
 66
     1
 40
0.000000
 41
0.000000
  0
VERTEX
  8
0
  6
CONTINUOUS
 10
3.644520
 20
4.258320
  0
VERTEX
  8
0
  6
CONTINUOUS
 10
3.394160
 20
4.258320
  0
VERTEX
  8
0
  6
CONTINUOUS
 10
3.391080
 20
4.216520
  0
VERTEX
  8
0
  6
CONTINUOUS
 10
3.384480
 20
4.175160
  0
VERTEX
  8
0
  6
CONTINUOUS
 10
3.373920
 20
4.134680
  0
VERTEX
  8
0
  6
CONTINUOUS
 10
3.351920
 20
4.077040
  0
VERTEX
  8
0
  6
CONTINUOUS
 10
3.323320
 20
4.023360
  0
VERTEX
  8
0
  6
CONTINUOUS
 10
3.289000
 20
3.974080
  0
VERTEX
  8
0
  6
CONTINUOUS
 10
3.250280
 20
3.930080
  0
VERTEX
  8
0
  6
CONTINUOUS
 10
3.207600
 20
3.892680
  0
VERTEX
  8
0
  6
CONTINUOUS
 10
3.162280
 20
3.862760
  0
VERTEX
  8
0
  6
CONTINUOUS
 10
3.131040
 20
3.847360
  0
VERTEX
  8
0
  6
CONTINUOUS
 10
3.099360
 20
3.835480
  0
VERTEX
  8
0
  6
CONTINUOUS
 10
3.067680
 20
3.828000
  0
VERTEX
  8
0
  6
CONTINUOUS
 10
3.036000
 20
3.824920
  0
VERTEX
  8
0
  6
CONTINUOUS
 10
3.036000
 20
3.697320
  0
VERTEX
  8
0
  6
CONTINUOUS
 10
3.010480
 20
3.691160
  0
VERTEX
  8
0
  6
CONTINUOUS
 10
2.965160
 20
3.674440
  0
VERTEX
  8
0
  6
CONTINUOUS
 10
2.944920
 20
3.663880
  0
VERTEX
  8
0
  6
CONTINUOUS
 10
2.926440
 20
3.652000
  0
VERTEX
  8
0
  6
CONTINUOUS
 10
2.894320
 20
3.625160
  0
VERTEX
  8
0
  6
CONTINUOUS
 10
2.869240
 20
3.594360
  0
VERTEX
  8
0
  6
CONTINUOUS
 10
2.859120
 20
3.578080
  0
VERTEX
  8
0
  6
CONTINUOUS
 10
2.850760
 20
3.560920
  0
VERTEX
  8
0
  6
CONTINUOUS
 10
2.838880
 20
3.524840
  0
VERTEX
  8
0
  6
CONTINUOUS
 10
2.833160
 20
3.487880
  0
VERTEX
  8
0
  6
CONTINUOUS
 10
2.832720
 20
3.468960
  0
VERTEX
  8
0
  6
CONTINUOUS
 10
2.833600
 20
3.450480
  0
VERTEX
  8
0
  6
CONTINUOUS
 10
2.840200
 20
3.413080
  0
VERTEX
  8
0
  6
CONTINUOUS
 10
2.852960
 20
3.377000
  0
VERTEX
  8
0
  6
CONTINUOUS
 10
2.861320
 20
3.359400
  0
VERTEX
  8
0
  6
CONTINUOUS
 10
2.882880
 20
3.326400
  0
VERTEX
  8
0
  6
CONTINUOUS
 10
2.895640
 20
3.311000
  0
VERTEX
  8
0
  6
CONTINUOUS
 10
2.925560
 20
3.283280
  0
VERTEX
  8
0
  6
CONTINUOUS
 10
2.961200
 20
3.259960
  0
VERTEX
  8
0
  6
CONTINUOUS
 10
2.981000
 20
3.249840
  0
VERTEX
  8
0
  6
CONTINUOUS
 10
3.024560
 20
3.234440
  0
VERTEX
  8
0
  6
CONTINUOUS
 10
3.024560
 20
3.177240
  0
VERTEX
  8
0
  6
CONTINUOUS
 10
3.644960
 20
3.177240
  0
VERTEX
  8
0
  6
CONTINUOUS
 10
3.644520
 20
4.258320
  0
SEQEND
  8
0
  0
POLYLINE
  8
0
  6
CONTINUOUS
 66
     1
 40
0.000000
 41
0.000000
  0
VERTEX
  8
0
  6
CONTINUOUS
 10
3.844280
 20
4.277240
  0
VERTEX
  8
0
  6
CONTINUOUS
 10
4.094640
 20
4.277240
  0
VERTEX
  8
0
  6
CONTINUOUS
 10
4.097720
 20
4.235440
  0
VERTEX
  8
0
  6
CONTINUOUS
 10
4.104320
 20
4.194080
  0
VERTEX
  8
0
  6
CONTINUOUS
 10
4.114880
 20
4.154040
  0
VERTEX
  8
0
  6
CONTINUOUS
 10
4.136880
 20
4.095960
  0
VERTEX
  8
0
  6
CONTINUOUS
 10
4.165480
 20
4.042280
  0
VERTEX
  8
0
  6
CONTINUOUS
 10
4.199800
 20
3.993000
  0
VERTEX
  8
0
  6
CONTINUOUS
 10
4.238520
 20
3.949440
  0
VERTEX
  8
0
  6
CONTINUOUS
 10
4.266680
 20
3.923480
  0
VERTEX
  8
0
  6
CONTINUOUS
 10
4.311120
 20
3.890920
  0
VERTEX
  8
0
  6
CONTINUOUS
 10
4.341920
 20
3.873760
  0
VERTEX
  8
0
  6
CONTINUOUS
 10
4.373160
 20
3.860120
  0
VERTEX
  8
0
  6
CONTINUOUS
 10
4.405280
 20
3.850440
  0
VERTEX
  8
0
  6
CONTINUOUS
 10
4.436960
 20
3.844720
  0
VERTEX
  8
0
  6
CONTINUOUS
 10
4.452800
 20
3.843840
  0
VERTEX
  8
0
  6
CONTINUOUS
 10
4.452800
 20
3.716240
  0
VERTEX
  8
0
  6
CONTINUOUS
 10
4.478320
 20
3.710080
  0
VERTEX
  8
0
  6
CONTINUOUS
 10
4.502080
 20
3.702600
  0
VERTEX
  8
0
  6
CONTINUOUS
 10
4.523640
 20
3.693360
  0
VERTEX
  8
0
  6
CONTINUOUS
 10
4.543880
 20
3.682800
  0
VERTEX
  8
0
  6
CONTINUOUS
 10
4.579080
 20
3.658160
  0
VERTEX
  8
0
  6
CONTINUOUS
 10
4.594480
 20
3.644080
  0
VERTEX
  8
0
  6
CONTINUOUS
 10
4.619560
 20
3.613720
  0
VERTEX
  8
0
  6
CONTINUOUS
 10
4.638040
 20
3.579840
  0
VERTEX
  8
0
  6
CONTINUOUS
 10
4.649920
 20
3.544200
  0
VERTEX
  8
0
  6
CONTINUOUS
 10
4.655640
 20
3.507240
  0
VERTEX
  8
0
  6
CONTINUOUS
 10
4.656080
 20
3.488320
  0
VERTEX
  8
0
  6
CONTINUOUS
 10
4.655200
 20
3.469400
  0
VERTEX
  8
0
  6
CONTINUOUS
 10
4.648600
 20
3.432000
  0
VERTEX
  8
0
  6
CONTINUOUS
 10
4.635840
 20
3.395920
  0
VERTEX
  8
0
  6
CONTINUOUS
 10
4.627480
 20
3.378320
  0
VERTEX
  8
0
  6
CONTINUOUS
 10
4.605920
 20
3.345760
  0
VERTEX
  8
0
  6
CONTINUOUS
 10
4.593160
 20
3.330360
  0
VERTEX
  8
0
  6
CONTINUOUS
 10
4.563240
 20
3.302200
  0
VERTEX
  8
0
  6
CONTINUOUS
 10
4.546080
 20
3.289880
  0
VERTEX
  8
0
  6
CONTINUOUS
 10
4.507800
 20
3.268760
  0
VERTEX
  8
0
  6
CONTINUOUS
 10
4.486680
 20
3.260400
  0
VERTEX
  8
0
  6
CONTINUOUS
 10
4.464240
 20
3.253360
  0
VERTEX
  8
0
  6
CONTINUOUS
 10
4.464240
 20
3.196600
  0
VERTEX
  8
0
  6
CONTINUOUS
 10
3.843840
 20
3.196600
  0
VERTEX
  8
0
  6
CONTINUOUS
 10
3.844280
 20
4.277240
  0
SEQEND
  8
0
  0
TEXT
  8
0
 10
3.424080
 20
2.913240
 40
0.138163
  1
Base Cap
 41
1.000000
  7
SN0
 71
     0
 72
     5
 11
4.152847
 21
2.913240
  0
SOLID
  8
0
 62
    15
 10
3.785320
 20
5.373280
 11
4.436960
 21
5.748600
 12
3.827120
 22
5.353480
 13
4.479200
 23
5.729240
  0
POLYLINE
  8
0
  6
CONTINUOUS
 66
     1
 40
0.000000
 41
0.000000
  0
VERTEX
  8
0
  6
CONTINUOUS
 10
3.785320
 20
5.373280
  0
VERTEX
  8
0
  6
CONTINUOUS
 10
4.436960
 20
5.748600
  0
VERTEX
  8
0
  6
CONTINUOUS
 10
4.479200
 20
5.729240
  0
VERTEX
  8
0
  6
CONTINUOUS
 10
3.827120
 20
5.353480
  0
VERTEX
  8
0
  6
CONTINUOUS
 10
3.785320
 20
5.373280
  0
SEQEND
  8
0
  0
SOLID
  8
0
 62
    15
 10
3.378320
 20
5.947920
 11
4.029960
 21
6.323680
 12
3.380960
 22
5.906120
 13
4.033040
 23
6.281440
  0
POLYLINE
  8
0
  6
CONTINUOUS
 66
     1
 40
0.000000
 41
0.000000
  0
VERTEX
  8
0
  6
CONTINUOUS
 10
3.378320
 20
5.947920
  0
VERTEX
  8
0
  6
CONTINUOUS
 10
4.029960
 20
6.323680
  0
VERTEX
  8
0
  6
CONTINUOUS
 10
4.033040
 20
6.281440
  0
VERTEX
  8
0
  6
CONTINUOUS
 10
3.380960
 20
5.906120
  0
VERTEX
  8
0
  6
CONTINUOUS
 10
3.378320
 20
5.947920
  0
SEQEND
  8
0
  0
SOLID
  8
0
 62
    15
 10
3.380960
 20
5.906120
 11
4.033040
 21
6.281440
 12
3.388000
 22
5.864760
 13
4.039640
 23
6.240520
  0
POLYLINE
  8
0
  6
CONTINUOUS
 66
     1
 40
0.000000
 41
0.000000
  0
VERTEX
  8
0
  6
CONTINUOUS
 10
3.380960
 20
5.906120
  0
VERTEX
  8
0
  6
CONTINUOUS
 10
4.033040
 20
6.281440
  0
VERTEX
  8
0
  6
CONTINUOUS
 10
4.039640
 20
6.240520
  0
VERTEX
  8
0
  6
CONTINUOUS
 10
3.388000
 20
5.864760
  0
VERTEX
  8
0
  6
CONTINUOUS
 10
3.380960
 20
5.906120
  0
SEQEND
  8
0
  0
SOLID
  8
0
 62
    15
 10
3.388000
 20
5.864760
 11
4.039640
 21
6.240520
 12
3.412200
 22
5.786000
 13
4.064280
 23
6.161320
  0
POLYLINE
  8
0
  6
CONTINUOUS
 66
     1
 40
0.000000
 41
0.000000
  0
VERTEX
  8
0
  6
CONTINUOUS
 10
3.388000
 20
5.864760
  0
VERTEX
  8
0
  6
CONTINUOUS
 10
4.039640
 20
6.240520
  0
VERTEX
  8
0
  6
CONTINUOUS
 10
4.064280
 20
6.161320
  0
VERTEX
  8
0
  6
CONTINUOUS
 10
3.412200
 20
5.786000
  0
VERTEX
  8
0
  6
CONTINUOUS
 10
3.388000
 20
5.864760
  0
SEQEND
  8
0
  0
SOLID
  8
0
 62
    15
 10
3.412200
 20
5.786000
 11
4.064280
 21
6.161320
 12
3.448720
 22
5.712960
 13
4.100800
 23
6.088720
  0
POLYLINE
  8
0
  6
CONTINUOUS
 66
     1
 40
0.000000
 41
0.000000
  0
VERTEX
  8
0
  6
CONTINUOUS
 10
3.412200
 20
5.786000
  0
VERTEX
  8
0
  6
CONTINUOUS
 10
4.064280
 20
6.161320
  0
VERTEX
  8
0
  6
CONTINUOUS
 10
4.100800
 20
6.088720
  0
VERTEX
  8
0
  6
CONTINUOUS
 10
3.448720
 20
5.712960
  0
VERTEX
  8
0
  6
CONTINUOUS
 10
3.412200
 20
5.786000
  0
SEQEND
  8
0
  0
SOLID
  8
0
 62
    15
 10
3.448720
 20
5.712960
 11
4.100800
 21
6.088720
 12
3.495360
 22
5.648280
 13
4.147440
 23
6.024040
  0
POLYLINE
  8
0
  6
CONTINUOUS
 66
     1
 40
0.000000
 41
0.000000
  0
VERTEX
  8
0
  6
CONTINUOUS
 10
3.448720
 20
5.712960
  0
VERTEX
  8
0
  6
CONTINUOUS
 10
4.100800
 20
6.088720
  0
VERTEX
  8
0
  6
CONTINUOUS
 10
4.147440
 20
6.024040
  0
VERTEX
  8
0
  6
CONTINUOUS
 10
3.495360
 20
5.648280
  0
VERTEX
  8
0
  6
CONTINUOUS
 10
3.448720
 20
5.712960
  0
SEQEND
  8
0
  0
SOLID
  8
0
 62
    15
 10
3.495360
 20
5.648280
 11
4.147440
 21
6.024040
 12
3.549920
 22
5.594160
 13
4.202000
 23
5.969920
  0
POLYLINE
  8
0
  6
CONTINUOUS
 66
     1
 40
0.000000
 41
0.000000
  0
VERTEX
  8
0
  6
CONTINUOUS
 10
3.495360
 20
5.648280
  0
VERTEX
  8
0
  6
CONTINUOUS
 10
4.147440
 20
6.024040
  0
VERTEX
  8
0
  6
CONTINUOUS
 10
4.202000
 20
5.969920
  0
VERTEX
  8
0
  6
CONTINUOUS
 10
3.549920
 20
5.594160
  0
VERTEX
  8
0
  6
CONTINUOUS
 10
3.495360
 20
5.648280
  0
SEQEND
  8
0
  0
SOLID
  8
0
 62
    15
 10
3.549920
 20
5.594160
 11
4.202000
 21
5.969920
 12
3.609760
 22
5.552800
 13
4.261400
 23
5.928120
  0
POLYLINE
  8
0
  6
CONTINUOUS
 66
     1
 40
0.000000
 41
0.000000
  0
VERTEX
  8
0
  6
CONTINUOUS
 10
3.549920
 20
5.594160
  0
VERTEX
  8
0
  6
CONTINUOUS
 10
4.202000
 20
5.969920
  0
VERTEX
  8
0
  6
CONTINUOUS
 10
4.261400
 20
5.928120
  0
VERTEX
  8
0
  6
CONTINUOUS
 10
3.609760
 20
5.552800
  0
VERTEX
  8
0
  6
CONTINUOUS
 10
3.549920
 20
5.594160
  0
SEQEND
  8
0
  0
SOLID
  8
0
 62
    15
 10
3.609760
 20
5.552800
 11
4.261400
 21
5.928120
 12
3.641000
 22
5.536960
 13
4.292640
 23
5.912720
  0
POLYLINE
  8
0
  6
CONTINUOUS
 66
     1
 40
0.000000
 41
0.000000
  0
VERTEX
  8
0
  6
CONTINUOUS
 10
3.609760
 20
5.552800
  0
VERTEX
  8
0
  6
CONTINUOUS
 10
4.261400
 20
5.928120
  0
VERTEX
  8
0
  6
CONTINUOUS
 10
4.292640
 20
5.912720
  0
VERTEX
  8
0
  6
CONTINUOUS
 10
3.641000
 20
5.536960
  0
VERTEX
  8
0
  6
CONTINUOUS
 10
3.609760
 20
5.552800
  0
SEQEND
  8
0
  0
SOLID
  8
0
 62
    15
 10
3.641000
 20
5.536960
 11
4.292640
 21
5.912720
 12
3.672680
 22
5.525520
 13
4.324320
 23
5.900840
  0
POLYLINE
  8
0
  6
CONTINUOUS
 66
     1
 40
0.000000
 41
0.000000
  0
VERTEX
  8
0
  6
CONTINUOUS
 10
3.641000
 20
5.536960
  0
VERTEX
  8
0
  6
CONTINUOUS
 10
4.292640
 20
5.912720
  0
VERTEX
  8
0
  6
CONTINUOUS
 10
4.324320
 20
5.900840
  0
VERTEX
  8
0
  6
CONTINUOUS
 10
3.672680
 20
5.525520
  0
VERTEX
  8
0
  6
CONTINUOUS
 10
3.641000
 20
5.536960
  0
SEQEND
  8
0
  0
SOLID
  8
0
 62
    15
 10
3.672680
 20
5.525520
 11
4.324320
 21
5.900840
 12
3.704360
 22
5.518040
 13
4.356440
 23
5.893360
  0
POLYLINE
  8
0
  6
CONTINUOUS
 66
     1
 40
0.000000
 41
0.000000
  0
VERTEX
  8
0
  6
CONTINUOUS
 10
3.672680
 20
5.525520
  0
VERTEX
  8
0
  6
CONTINUOUS
 10
4.324320
 20
5.900840
  0
VERTEX
  8
0
  6
CONTINUOUS
 10
4.356440
 20
5.893360
  0
VERTEX
  8
0
  6
CONTINUOUS
 10
3.704360
 20
5.518040
  0
VERTEX
  8
0
  6
CONTINUOUS
 10
3.672680
 20
5.525520
  0
SEQEND
  8
0
  0
SOLID
  8
0
 62
    15
 10
3.704360
 20
5.518040
 11
4.356440
 21
5.893360
 12
3.736040
 22
5.514960
 13
4.388120
 23
5.890280
  0
POLYLINE
  8
0
  6
CONTINUOUS
 66
     1
 40
0.000000
 41
0.000000
  0
VERTEX
  8
0
  6
CONTINUOUS
 10
3.704360
 20
5.518040
  0
VERTEX
  8
0
  6
CONTINUOUS
 10
4.356440
 20
5.893360
  0
VERTEX
  8
0
  6
CONTINUOUS
 10
4.388120
 20
5.890280
  0
VERTEX
  8
0
  6
CONTINUOUS
 10
3.736040
 20
5.514960
  0
VERTEX
  8
0
  6
CONTINUOUS
 10
3.704360
 20
5.518040
  0
SEQEND
  8
0
  0
SOLID
  8
0
 62
    15
 10
3.736040
 20
5.514960
 11
4.388120
 21
5.890280
 12
3.736040
 22
5.386920
 13
4.388120
 23
5.762680
  0
POLYLINE
  8
0
  6
CONTINUOUS
 66
     1
 40
0.000000
 41
0.000000
  0
VERTEX
  8
0
  6
CONTINUOUS
 10
3.736040
 20
5.514960
  0
VERTEX
  8
0
  6
CONTINUOUS
 10
4.388120
 20
5.890280
  0
VERTEX
  8
0
  6
CONTINUOUS
 10
4.388120
 20
5.762680
  0
VERTEX
  8
0
  6
CONTINUOUS
 10
3.736040
 20
5.386920
  0
VERTEX
  8
0
  6
CONTINUOUS
 10
3.736040
 20
5.514960
  0
SEQEND
  8
0
  0
SOLID
  8
0
 62
    15
 10
3.736040
 20
5.386920
 11
4.388120
 21
5.762680
 12
3.785320
 22
5.373280
 13
4.436960
 23
5.748600
  0
POLYLINE
  8
0
  6
CONTINUOUS
 66
     1
 40
0.000000
 41
0.000000
  0
VERTEX
  8
0
  6
CONTINUOUS
 10
3.736040
 20
5.386920
  0
VERTEX
  8
0
  6
CONTINUOUS
 10
4.388120
 20
5.762680
  0
VERTEX
  8
0
  6
CONTINUOUS
 10
4.436960
 20
5.748600
  0
VERTEX
  8
0
  6
CONTINUOUS
 10
3.785320
 20
5.373280
  0
VERTEX
  8
0
  6
CONTINUOUS
 10
3.736040
 20
5.386920
  0
SEQEND
  8
0
  0
SOLID
  8
0
 62
    15
 10
3.127520
 20
5.947920
 11
3.779160
 21
6.323680
 12
3.378320
 22
5.947920
 13
4.029960
 23
6.323680
  0
POLYLINE
  8
0
  6
CONTINUOUS
 66
     1
 40
0.000000
 41
0.000000
  0
VERTEX
  8
0
  6
CONTINUOUS
 10
3.127520
 20
5.947920
  0
VERTEX
  8
0
  6
CONTINUOUS
 10
3.779160
 20
6.323680
  0
VERTEX
  8
0
  6
CONTINUOUS
 10
4.029960
 20
6.323680
  0
VERTEX
  8
0
  6
CONTINUOUS
 10
3.378320
 20
5.947920
  0
VERTEX
  8
0
  6
CONTINUOUS
 10
3.127520
 20
5.947920
  0
SEQEND
  8
0
  0
SOLID
  8
0
 62
    15
 10
3.827120
 20
5.353480
 11
4.479200
 21
5.729240
 12
3.862320
 22
5.328840
 13
4.514400
 23
5.704160
  0
POLYLINE
  8
0
  6
CONTINUOUS
 66
     1
 40
0.000000
 41
0.000000
  0
VERTEX
  8
0
  6
CONTINUOUS
 10
3.827120
 20
5.353480
  0
VERTEX
  8
0
  6
CONTINUOUS
 10
4.479200
 20
5.729240
  0
VERTEX
  8
0
  6
CONTINUOUS
 10
4.514400
 20
5.704160
  0
VERTEX
  8
0
  6
CONTINUOUS
 10
3.862320
 20
5.328840
  0
VERTEX
  8
0
  6
CONTINUOUS
 10
3.827120
 20
5.353480
  0
SEQEND
  8
0
  0
SOLID
  8
0
 62
    15
 10
3.862320
 20
5.328840
 11
4.514400
 21
5.704160
 12
3.890920
 22
5.299800
 13
4.543000
 23
5.675560
  0
POLYLINE
  8
0
  6
CONTINUOUS
 66
     1
 40
0.000000
 41
0.000000
  0
VERTEX
  8
0
  6
CONTINUOUS
 10
3.862320
 20
5.328840
  0
VERTEX
  8
0
  6
CONTINUOUS
 10
4.514400
 20
5.704160
  0
VERTEX
  8
0
  6
CONTINUOUS
 10
4.543000
 20
5.675560
  0
VERTEX
  8
0
  6
CONTINUOUS
 10
3.890920
 20
5.299800
  0
VERTEX
  8
0
  6
CONTINUOUS
 10
3.862320
 20
5.328840
  0
SEQEND
  8
0
  0
SOLID
  8
0
 62
    15
 10
3.890920
 20
5.299800
 11
4.543000
 21
5.675560
 12
3.912920
 22
5.267680
 13
4.564560
 23
5.643440
  0
POLYLINE
  8
0
  6
CONTINUOUS
 66
     1
 40
0.000000
 41
0.000000
  0
VERTEX
  8
0
  6
CONTINUOUS
 10
3.890920
 20
5.299800
  0
VERTEX
  8
0
  6
CONTINUOUS
 10
4.543000
 20
5.675560
  0
VERTEX
  8
0
  6
CONTINUOUS
 10
4.564560
 20
5.643440
  0
VERTEX
  8
0
  6
CONTINUOUS
 10
3.912920
 20
5.267680
  0
VERTEX
  8
0
  6
CONTINUOUS
 10
3.890920
 20
5.299800
  0
SEQEND
  8
0
  0
SOLID
  8
0
 62
    15
 10
3.912920
 20
5.267680
 11
4.564560
 21
5.643440
 12
3.927880
 22
5.232920
 13
4.579960
 23
5.608680
  0
POLYLINE
  8
0
  6
CONTINUOUS
 66
     1
 40
0.000000
 41
0.000000
  0
VERTEX
  8
0
  6
CONTINUOUS
 10
3.912920
 20
5.267680
  0
VERTEX
  8
0
  6
CONTINUOUS
 10
4.564560
 20
5.643440
  0
VERTEX
  8
0
  6
CONTINUOUS
 10
4.579960
 20
5.608680
  0
VERTEX
  8
0
  6
CONTINUOUS
 10
3.927880
 20
5.232920
  0
VERTEX
  8
0
  6
CONTINUOUS
 10
3.912920
 20
5.267680
  0
SEQEND
  8
0
  0
SOLID
  8
0
 62
    15
 10
3.927880
 20
5.232920
 11
4.579960
 21
5.608680
 12
3.936680
 22
5.196400
 13
4.588760
 23
5.572160
  0
POLYLINE
  8
0
  6
CONTINUOUS
 66
     1
 40
0.000000
 41
0.000000
  0
VERTEX
  8
0
  6
CONTINUOUS
 10
3.927880
 20
5.232920
  0
VERTEX
  8
0
  6
CONTINUOUS
 10
4.579960
 20
5.608680
  0
VERTEX
  8
0
  6
CONTINUOUS
 10
4.588760
 20
5.572160
  0
VERTEX
  8
0
  6
CONTINUOUS
 10
3.936680
 20
5.196400
  0
VERTEX
  8
0
  6
CONTINUOUS
 10
3.927880
 20
5.232920
  0
SEQEND
  8
0
  0
SOLID
  8
0
 62
    15
 10
3.936680
 20
5.196400
 11
4.588760
 21
5.572160
 12
3.939320
 22
5.159000
 13
4.591400
 23
5.534320
  0
POLYLINE
  8
0
  6
CONTINUOUS
 66
     1
 40
0.000000
 41
0.000000
  0
VERTEX
  8
0
  6
CONTINUOUS
 10
3.936680
 20
5.196400
  0
VERTEX
  8
0
  6
CONTINUOUS
 10
4.588760
 20
5.572160
  0
VERTEX
  8
0
  6
CONTINUOUS
 10
4.591400
 20
5.534320
  0
VERTEX
  8
0
  6
CONTINUOUS
 10
3.939320
 20
5.159000
  0
VERTEX
  8
0
  6
CONTINUOUS
 10
3.936680
 20
5.196400
  0
SEQEND
  8
0
  0
SOLID
  8
0
 62
    15
 10
3.939320
 20
5.159000
 11
4.591400
 21
5.534320
 12
3.935800
 22
5.121600
 13
4.587880
 23
5.496920
  0
POLYLINE
  8
0
  6
CONTINUOUS
 66
     1
 40
0.000000
 41
0.000000
  0
VERTEX
  8
0
  6
CONTINUOUS
 10
3.939320
 20
5.159000
  0
VERTEX
  8
0
  6
CONTINUOUS
 10
4.591400
 20
5.534320
  0
VERTEX
  8
0
  6
CONTINUOUS
 10
4.587880
 20
5.496920
  0
VERTEX
  8
0
  6
CONTINUOUS
 10
3.935800
 20
5.121600
  0
VERTEX
  8
0
  6
CONTINUOUS
 10
3.939320
 20
5.159000
  0
SEQEND
  8
0
  0
SOLID
  8
0
 62
    15
 10
3.935800
 20
5.121600
 11
4.587880
 21
5.496920
 12
3.926120
 22
5.084640
 13
4.578200
 23
5.459960
  0
POLYLINE
  8
0
  6
CONTINUOUS
 66
     1
 40
0.000000
 41
0.000000
  0
VERTEX
  8
0
  6
CONTINUOUS
 10
3.935800
 20
5.121600
  0
VERTEX
  8
0
  6
CONTINUOUS
 10
4.587880
 20
5.496920
  0
VERTEX
  8
0
  6
CONTINUOUS
 10
4.578200
 20
5.459960
  0
VERTEX
  8
0
  6
CONTINUOUS
 10
3.926120
 20
5.084640
  0
VERTEX
  8
0
  6
CONTINUOUS
 10
3.935800
 20
5.121600
  0
SEQEND
  8
0
  0
SOLID
  8
0
 62
    15
 10
3.926120
 20
5.084640
 11
4.578200
 21
5.459960
 12
3.910720
 22
5.049440
 13
4.562360
 23
5.424760
  0
POLYLINE
  8
0
  6
CONTINUOUS
 66
     1
 40
0.000000
 41
0.000000
  0
VERTEX
  8
0
  6
CONTINUOUS
 10
3.926120
 20
5.084640
  0
VERTEX
  8
0
  6
CONTINUOUS
 10
4.578200
 20
5.459960
  0
VERTEX
  8
0
  6
CONTINUOUS
 10
4.562360
 20
5.424760
  0
VERTEX
  8
0
  6
CONTINUOUS
 10
3.910720
 20
5.049440
  0
VERTEX
  8
0
  6
CONTINUOUS
 10
3.926120
 20
5.084640
  0
SEQEND
  8
0
  0
SOLID
  8
0
 62
    15
 10
3.910720
 20
5.049440
 11
4.562360
 21
5.424760
 12
3.889160
 22
5.016440
 13
4.541240
 23
5.391760
  0
POLYLINE
  8
0
  6
CONTINUOUS
 66
     1
 40
0.000000
 41
0.000000
  0
VERTEX
  8
0
  6
CONTINUOUS
 10
3.910720
 20
5.049440
  0
VERTEX
  8
0
  6
CONTINUOUS
 10
4.562360
 20
5.424760
  0
VERTEX
  8
0
  6
CONTINUOUS
 10
4.541240
 20
5.391760
  0
VERTEX
  8
0
  6
CONTINUOUS
 10
3.889160
 20
5.016440
  0
VERTEX
  8
0
  6
CONTINUOUS
 10
3.910720
 20
5.049440
  0
SEQEND
  8
0
  0
SOLID
  8
0
 62
    15
 10
3.747480
 20
4.924040
 11
4.399560
 21
5.299800
 12
3.747480
 22
4.867280
 13
4.399560
 23
5.242600
  0
POLYLINE
  8
0
  6
CONTINUOUS
 66
     1
 40
0.000000
 41
0.000000
  0
VERTEX
  8
0
  6
CONTINUOUS
 10
3.747480
 20
4.924040
  0
VERTEX
  8
0
  6
CONTINUOUS
 10
4.399560
 20
5.299800
  0
VERTEX
  8
0
  6
CONTINUOUS
 10
4.399560
 20
5.242600
  0
VERTEX
  8
0
  6
CONTINUOUS
 10
3.747480
 20
4.867280
  0
VERTEX
  8
0
  6
CONTINUOUS
 10
3.747480
 20
4.924040
  0
SEQEND
  8
0
  0
SOLID
  8
0
 62
    15
 10
3.861880
 20
4.986520
 11
4.513960
 21
5.361840
 12
3.829320
 22
4.960560
 13
4.481400
 23
5.336320
  0
POLYLINE
  8
0
  6
CONTINUOUS
 66
     1
 40
0.000000
 41
0.000000
  0
VERTEX
  8
0
  6
CONTINUOUS
 10
3.861880
 20
4.986520
  0
VERTEX
  8
0
  6
CONTINUOUS
 10
4.513960
 20
5.361840
  0
VERTEX
  8
0
  6
CONTINUOUS
 10
4.481400
 20
5.336320
  0
VERTEX
  8
0
  6
CONTINUOUS
 10
3.829320
 20
4.960560
  0
VERTEX
  8
0
  6
CONTINUOUS
 10
3.861880
 20
4.986520
  0
SEQEND
  8
0
  0
SOLID
  8
0
 62
    15
 10
3.889160
 20
5.016440
 11
4.541240
 21
5.391760
 12
3.861880
 22
4.986520
 13
4.513960
 23
5.361840
  0
POLYLINE
  8
0
  6
CONTINUOUS
 66
     1
 40
0.000000
 41
0.000000
  0
VERTEX
  8
0
  6
CONTINUOUS
 10
3.889160
 20
5.016440
  0
VERTEX
  8
0
  6
CONTINUOUS
 10
4.541240
 20
5.391760
  0
VERTEX
  8
0
  6
CONTINUOUS
 10
4.513960
 20
5.361840
  0
VERTEX
  8
0
  6
CONTINUOUS
 10
3.861880
 20
4.986520
  0
VERTEX
  8
0
  6
CONTINUOUS
 10
3.889160
 20
5.016440
  0
SEQEND
  8
0
  0
SOLID
  8
0
 62
    15
 10
3.127080
 20
5.947920
 11
3.779160
 21
6.323680
 12
3.127080
 22
5.947920
 13
3.127520
 23
5.947920
  0
POLYLINE
  8
0
  6
CONTINUOUS
 66
     1
 40
0.000000
 41
0.000000
  0
VERTEX
  8
0
  6
CONTINUOUS
 10
3.127080
 20
5.947920
  0
VERTEX
  8
0
  6
CONTINUOUS
 10
3.779160
 20
6.323680
  0
VERTEX
  8
0
  6
CONTINUOUS
 10
3.127520
 20
5.947920
  0
VERTEX
  8
0
  6
CONTINUOUS
 10
3.127080
 20
5.947920
  0
SEQEND
  8
0
  0
POLYLINE
  8
0
  6
CONTINUOUS
 66
     1
 40
0.000000
 41
0.000000
  0
VERTEX
  8
0
  6
CONTINUOUS
 10
3.127520
 20
5.947920
  0
VERTEX
  8
0
  6
CONTINUOUS
 10
3.378320
 20
5.947920
  0
VERTEX
  8
0
  6
CONTINUOUS
 10
3.380960
 20
5.906120
  0
VERTEX
  8
0
  6
CONTINUOUS
 10
3.388000
 20
5.864760
  0
VERTEX
  8
0
  6
CONTINUOUS
 10
3.412200
 20
5.786000
  0
VERTEX
  8
0
  6
CONTINUOUS
 10
3.448720
 20
5.712960
  0
VERTEX
  8
0
  6
CONTINUOUS
 10
3.495360
 20
5.648280
  0
VERTEX
  8
0
  6
CONTINUOUS
 10
3.549920
 20
5.594160
  0
VERTEX
  8
0
  6
CONTINUOUS
 10
3.609760
 20
5.552800
  0
VERTEX
  8
0
  6
CONTINUOUS
 10
3.641000
 20
5.536960
  0
VERTEX
  8
0
  6
CONTINUOUS
 10
3.672680
 20
5.525520
  0
VERTEX
  8
0
  6
CONTINUOUS
 10
3.704360
 20
5.518040
  0
VERTEX
  8
0
  6
CONTINUOUS
 10
3.736040
 20
5.514960
  0
VERTEX
  8
0
  6
CONTINUOUS
 10
3.736040
 20
5.386920
  0
VERTEX
  8
0
  6
CONTINUOUS
 10
3.785320
 20
5.373280
  0
VERTEX
  8
0
  6
CONTINUOUS
 10
3.827120
 20
5.353480
  0
VERTEX
  8
0
  6
CONTINUOUS
 10
3.862320
 20
5.328840
  0
VERTEX
  8
0
  6
CONTINUOUS
 10
3.890920
 20
5.299800
  0
VERTEX
  8
0
  6
CONTINUOUS
 10
3.912920
 20
5.267680
  0
VERTEX
  8
0
  6
CONTINUOUS
 10
3.927880
 20
5.232920
  0
VERTEX
  8
0
  6
CONTINUOUS
 10
3.936680
 20
5.196400
  0
VERTEX
  8
0
  6
CONTINUOUS
 10
3.939320
 20
5.159000
  0
VERTEX
  8
0
  6
CONTINUOUS
 10
3.935800
 20
5.121600
  0
VERTEX
  8
0
  6
CONTINUOUS
 10
3.926120
 20
5.084640
  0
VERTEX
  8
0
  6
CONTINUOUS
 10
3.910720
 20
5.049440
  0
VERTEX
  8
0
  6
CONTINUOUS
 10
3.889160
 20
5.016440
  0
VERTEX
  8
0
  6
CONTINUOUS
 10
3.861880
 20
4.986520
  0
VERTEX
  8
0
  6
CONTINUOUS
 10
3.829320
 20
4.960560
  0
VERTEX
  8
0
  6
CONTINUOUS
 10
3.791040
 20
4.939440
  0
VERTEX
  8
0
  6
CONTINUOUS
 10
3.747480
 20
4.924040
  0
VERTEX
  8
0
  6
CONTINUOUS
 10
3.747480
 20
4.867280
  0
VERTEX
  8
0
  6
CONTINUOUS
 10
3.127080
 20
4.867280
  0
VERTEX
  8
0
  6
CONTINUOUS
 10
3.127080
 20
5.947920
  0
VERTEX
  8
0
  6
CONTINUOUS
 10
3.127520
 20
5.947920
  0
SEQEND
  8
0
  0
TEXT
  8
0
 10
3.517360
 20
4.632760
 40
0.138163
  1
BA  1280
 41
1.000000
  7
SN0
 71
     0
 72
     5
 11
4.200025
 21
4.632760
  0
TEXT
  8
0
 10
3.269200
 20
4.431240
 40
0.138163
  1
13/16" x 1-1/16"
 41
1.000000
  7
SN0
 71
     0
 72
     5
 11
4.447336
 21
4.431240
  0
TEXT
  8
0
 10
3.436400
 20
6.672160
 40
0.138163
  1
BA  1280
 41
1.000000
  7
SN0
 71
     0
 72
     5
 11
4.119065
 21
6.672160
  0
TEXT
  8
0
 10
3.188240
 20
6.471080
 40
0.138163
  1
13/16" x 1-1/16"
 41
1.000000
  7
SN0
 71
     0
 72
     5
 11
4.366376
 21
6.471080
  0
ENDSEC
  0
EOF
