  0
SECTION
  2
HEADER
  9
$ACADVER
  1
AC1006
  9
$EXTMIN
 10
2.433200
 20
0.872520
  9
$EXTMAX
 10
6.020080
 20
7.194880
  9
$LTSCALE
 40
0.044000
  9
$PDMODE
 70
    35
  9
$PDSIZE
 40
0.035200
  0
ENDSEC
  0
SECTION
  2
TABLES
  0
TABLE
  2
LTYPE
 70
     9
  0
LTYPE
  2
CONTINUOUS
 70
    64
  3
Solid line
 72
    65
 73
     0
 40
0.000000
  0
LTYPE
  2
DASHED
 70
    64
  3
__ __ __ __ __ __ __ __ __ __ __ __ __ __ __
 72
    65
 73
     2
 40
0.000330
 49
0.000220
 49
-0.000110
  0
LTYPE
  2
HIDDEN
 70
    64
  3
 _ _ _ _ _ _ _ _ _ _ _ _ _ _ _ _ _ _ _ _ _ _
 72
    65
 73
     2
 40
0.000165
 49
0.000110
 49
-0.000055
  0
LTYPE
  2
CENTER
 70
    64
  3
____ _ ____ _ ____ _ ____ _ ____ _ ____ _ ____
 72
    65
 73
     4
 40
0.000880
 49
0.000550
 49
-0.000110
 49
0.000110
 49
-0.000110
  0
LTYPE
  2
PHANTOM
 70
    64
  3
_____ _ _ _____ _ _ _____ _ _ _____ _ _ ____
 72
    65
 73
     6
 40
0.001100
 49
0.000550
 49
-0.000110
 49
0.000110
 49
-0.000110
 49
0.000110
 49
-0.000110
  0
LTYPE
  2
DOT
 70
    64
  3
...............................................
 72
    65
 73
     2
 40
0.000110
 49
0.000000
 49
-0.000110
  0
LTYPE
  2
DASHDOT
 70
    64
  3
__ . __ . __ . __ . __ . __ . __ . __ . __ . __
 72
    65
 73
     4
 40
0.000440
 49
0.000220
 49
-0.000110
 49
0.000000
 49
-0.000110
  0
LTYPE
  2
BORDER
 70
    64
  3
__ __ . __ __ . __ __ . __ __ . __ __ . __ __
 72
    65
 73
     6
 40
0.000770
 49
0.000220
 49
-0.000110
 49
0.000220
 49
-0.000110
 49
0.000000
 49
-0.000110
  0
LTYPE
  2
DIVIDE
 70
    64
  3
__ . . __ . . __ . . __ . . __ . . __ . . __
 72
    65
 73
     6
 40
0.000550
 49
0.000220
 49
-0.000110
 49
0.000000
 49
-0.000110
 49
0.000000
 49
-0.000110
  0
LTYPE
  2
DOTDOT
 70
    64
  3
 . .  . .  . .  . .  . .  . . 
 72
    65
 73
     5
 40
0.000242
 49
-0.000110
 49
0.000000
 49
-0.000110
 49
0.000000
 49
-0.000110
  0
ENDTAB
  0
TABLE
  2
STYLE
 70
     2
  0
STYLE
 70
     0
  2
SN0
 40
0.000000
 41
0.000440
 50
0.000000
 71
     0
 42
0.000000
  3
ROMAND
  0
STYLE
 70
    68
  2
SV0
 40
0.000000
 41
0.000440
 50
0.000000
 71
     0
 42
0.000000
  3
ROMAND
  0
ENDTAB
  0
TABLE
  2
LAYER
 70
     3
  0
LAYER
  2
FOREGROUND
 70
    64
 62
     7
  6
CONTINUOUS
  0
LAYER
  2
BACKGROUND
 70
    65
 62
    -7
  6
CONTINUOUS
  0
LAYER
  2
0
 70
    64
 62
     7
  6
CONTINUOUS
  0
ENDTAB
  0
ENDSEC
  0
SECTION
  2
ENTITIES
  0
POLYLINE
  8
FOREGROUND
  6
CONTINUOUS
 66
     1
 40
0.000000
 41
0.000000
  0
VERTEX
  8
FOREGROUND
  6
CONTINUOUS
 10
0.000000
 20
8.067400
  0
VERTEX
  8
FOREGROUND
  6
CONTINUOUS
 10
8.499920
 20
8.067400
  0
VERTEX
  8
FOREGROUND
  6
CONTINUOUS
 10
8.499920
 20
-2.932600
  0
VERTEX
  8
FOREGROUND
  6
CONTINUOUS
 10
0.000000
 20
-2.932600
  0
VERTEX
  8
FOREGROUND
  6
CONTINUOUS
 10
0.000000
 20
8.067400
  0
SEQEND
  8
0
  0
POLYLINE
  8
FOREGROUND
  6
CONTINUOUS
 66
     1
 40
0.000000
 41
0.000000
  0
VERTEX
  8
FOREGROUND
  6
CONTINUOUS
 10
0.000000
 20
8.067400
  0
VERTEX
  8
FOREGROUND
  6
CONTINUOUS
 10
8.499920
 20
8.067400
  0
VERTEX
  8
FOREGROUND
  6
CONTINUOUS
 10
8.499920
 20
-2.932600
  0
VERTEX
  8
FOREGROUND
  6
CONTINUOUS
 10
0.000000
 20
-2.932600
  0
VERTEX
  8
FOREGROUND
  6
CONTINUOUS
 10
0.000000
 20
8.067400
  0
SEQEND
  8
0
  0
POLYLINE
  8
0
  6
CONTINUOUS
 66
     1
 40
0.014080
 41
0.014080
  0
VERTEX
  8
0
  6
CONTINUOUS
 10
5.608680
 20
6.622000
  0
VERTEX
  8
0
  6
CONTINUOUS
 10
5.644760
 20
6.629480
  0
VERTEX
  8
0
  6
CONTINUOUS
 10
5.666760
 20
6.630800
  0
VERTEX
  8
0
  6
CONTINUOUS
 10
5.688320
 20
6.628160
  0
VERTEX
  8
0
  6
CONTINUOUS
 10
5.709880
 20
6.621560
  0
VERTEX
  8
0
  6
CONTINUOUS
 10
5.731440
 20
6.610120
  0
VERTEX
  8
0
  6
CONTINUOUS
 10
5.753880
 20
6.592960
  0
VERTEX
  8
0
  6
CONTINUOUS
 10
5.789960
 20
6.555560
  0
VERTEX
  8
0
  6
CONTINUOUS
 10
5.815040
 20
6.528720
  0
VERTEX
  8
0
  6
CONTINUOUS
 10
5.841000
 20
6.506720
  0
VERTEX
  8
0
  6
CONTINUOUS
 10
5.867400
 20
6.489120
  0
VERTEX
  8
0
  6
CONTINUOUS
 10
5.906120
 20
6.470200
  0
VERTEX
  8
0
  6
CONTINUOUS
 10
5.941760
 20
6.458320
  0
VERTEX
  8
0
  6
CONTINUOUS
 10
5.972120
 20
6.453920
  0
VERTEX
  8
0
  6
CONTINUOUS
 10
5.980920
 20
6.453480
  0
VERTEX
  8
0
  6
CONTINUOUS
 10
5.980920
 20
6.316640
  0
VERTEX
  8
0
  6
CONTINUOUS
 10
2.479400
 20
6.316640
  0
VERTEX
  8
0
  6
CONTINUOUS
 10
2.479400
 20
7.187400
  0
VERTEX
  8
0
  6
CONTINUOUS
 10
3.225640
 20
7.187400
  0
VERTEX
  8
0
  6
CONTINUOUS
 10
3.255560
 20
7.089720
  0
VERTEX
  8
0
  6
CONTINUOUS
 10
3.304840
 20
7.091040
  0
VERTEX
  8
0
  6
CONTINUOUS
 10
3.326840
 20
7.090160
  0
VERTEX
  8
0
  6
CONTINUOUS
 10
3.347080
 20
7.087960
  0
VERTEX
  8
0
  6
CONTINUOUS
 10
3.384040
 20
7.079600
  0
VERTEX
  8
0
  6
CONTINUOUS
 10
3.400320
 20
7.073440
  0
VERTEX
  8
0
  6
CONTINUOUS
 10
3.416160
 20
7.065080
  0
VERTEX
  8
0
  6
CONTINUOUS
 10
3.446080
 20
7.043080
  0
VERTEX
  8
0
  6
CONTINUOUS
 10
3.474680
 20
7.011840
  0
VERTEX
  8
0
  6
CONTINUOUS
 10
3.503720
 20
6.970920
  0
VERTEX
  8
0
  6
CONTINUOUS
 10
3.534960
 20
6.918560
  0
VERTEX
  8
0
  6
CONTINUOUS
 10
3.653320
 20
6.918560
  0
VERTEX
  8
0
  6
CONTINUOUS
 10
3.672240
 20
6.801520
  0
VERTEX
  8
0
  6
CONTINUOUS
 10
5.093440
 20
6.801520
  0
VERTEX
  8
0
  6
CONTINUOUS
 10
5.118960
 20
6.707360
  0
VERTEX
  8
0
  6
CONTINUOUS
 10
5.558960
 20
6.707360
  0
VERTEX
  8
0
  6
CONTINUOUS
 10
5.590200
 20
6.621560
  0
VERTEX
  8
0
  6
CONTINUOUS
 10
5.608680
 20
6.622000
  0
SEQEND
  8
0
  0
POLYLINE
  8
0
  6
CONTINUOUS
 66
     1
 40
0.000000
 41
0.000000
  0
VERTEX
  8
0
  6
CONTINUOUS
 10
5.628480
 20
2.437160
  0
VERTEX
  8
0
  6
CONTINUOUS
 10
5.664560
 20
2.444640
  0
VERTEX
  8
0
  6
CONTINUOUS
 10
5.686560
 20
2.445960
  0
VERTEX
  8
0
  6
CONTINUOUS
 10
5.708120
 20
2.443760
  0
VERTEX
  8
0
  6
CONTINUOUS
 10
5.729680
 20
2.437160
  0
VERTEX
  8
0
  6
CONTINUOUS
 10
5.751240
 20
2.425720
  0
VERTEX
  8
0
  6
CONTINUOUS
 10
5.773680
 20
2.408560
  0
VERTEX
  8
0
  6
CONTINUOUS
 10
5.809760
 20
2.371160
  0
VERTEX
  8
0
  6
CONTINUOUS
 10
5.834840
 20
2.344320
  0
VERTEX
  8
0
  6
CONTINUOUS
 10
5.860800
 20
2.322320
  0
VERTEX
  8
0
  6
CONTINUOUS
 10
5.900400
 20
2.297240
  0
VERTEX
  8
0
  6
CONTINUOUS
 10
5.938240
 20
2.280960
  0
VERTEX
  8
0
  6
CONTINUOUS
 10
5.972120
 20
2.271720
  0
VERTEX
  8
0
  6
CONTINUOUS
 10
6.000720
 20
2.269080
  0
VERTEX
  8
0
  6
CONTINUOUS
 10
6.000720
 20
2.131800
  0
VERTEX
  8
0
  6
CONTINUOUS
 10
2.499200
 20
2.131800
  0
VERTEX
  8
0
  6
CONTINUOUS
 10
2.499200
 20
3.003000
  0
VERTEX
  8
0
  6
CONTINUOUS
 10
3.245880
 20
3.003000
  0
VERTEX
  8
0
  6
CONTINUOUS
 10
3.275800
 20
2.905320
  0
VERTEX
  8
0
  6
CONTINUOUS
 10
3.325080
 20
2.906200
  0
VERTEX
  8
0
  6
CONTINUOUS
 10
3.367320
 20
2.903560
  0
VERTEX
  8
0
  6
CONTINUOUS
 10
3.386240
 20
2.900040
  0
VERTEX
  8
0
  6
CONTINUOUS
 10
3.403840
 20
2.895200
  0
VERTEX
  8
0
  6
CONTINUOUS
 10
3.435960
 20
2.880680
  0
VERTEX
  8
0
  6
CONTINUOUS
 10
3.451360
 20
2.870560
  0
VERTEX
  8
0
  6
CONTINUOUS
 10
3.479960
 20
2.844160
  0
VERTEX
  8
0
  6
CONTINUOUS
 10
3.509000
 20
2.808080
  0
VERTEX
  8
0
  6
CONTINUOUS
 10
3.546840
 20
2.748240
  0
VERTEX
  8
0
  6
CONTINUOUS
 10
3.554760
 20
2.734160
  0
VERTEX
  8
0
  6
CONTINUOUS
 10
3.673120
 20
2.734160
  0
VERTEX
  8
0
  6
CONTINUOUS
 10
3.692040
 20
2.617120
  0
VERTEX
  8
0
  6
CONTINUOUS
 10
5.113680
 20
2.617120
  0
VERTEX
  8
0
  6
CONTINUOUS
 10
5.138760
 20
2.522960
  0
VERTEX
  8
0
  6
CONTINUOUS
 10
5.578760
 20
2.522960
  0
VERTEX
  8
0
  6
CONTINUOUS
 10
5.610000
 20
2.436720
  0
VERTEX
  8
0
  6
CONTINUOUS
 10
5.628480
 20
2.437160
  0
SEQEND
  8
0
  0
POLYLINE
  8
0
  6
CONTINUOUS
 66
     1
 40
0.000000
 41
0.000000
  0
VERTEX
  8
0
  6
CONTINUOUS
 10
2.890800
 20
1.177880
  0
VERTEX
  8
0
  6
CONTINUOUS
 10
2.854720
 20
1.185360
  0
VERTEX
  8
0
  6
CONTINUOUS
 10
2.832720
 20
1.186680
  0
VERTEX
  8
0
  6
CONTINUOUS
 10
2.811160
 20
1.184480
  0
VERTEX
  8
0
  6
CONTINUOUS
 10
2.789600
 20
1.177880
  0
VERTEX
  8
0
  6
CONTINUOUS
 10
2.768040
 20
1.166440
  0
VERTEX
  8
0
  6
CONTINUOUS
 10
2.745600
 20
1.149280
  0
VERTEX
  8
0
  6
CONTINUOUS
 10
2.709520
 20
1.111880
  0
VERTEX
  8
0
  6
CONTINUOUS
 10
2.684000
 20
1.085040
  0
VERTEX
  8
0
  6
CONTINUOUS
 10
2.658040
 20
1.063040
  0
VERTEX
  8
0
  6
CONTINUOUS
 10
2.618880
 20
1.037960
  0
VERTEX
  8
0
  6
CONTINUOUS
 10
2.581040
 20
1.021680
  0
VERTEX
  8
0
  6
CONTINUOUS
 10
2.547160
 20
1.012440
  0
VERTEX
  8
0
  6
CONTINUOUS
 10
2.518120
 20
1.009800
  0
VERTEX
  8
0
  6
CONTINUOUS
 10
2.518120
 20
0.872520
  0
VERTEX
  8
0
  6
CONTINUOUS
 10
6.019640
 20
0.872520
  0
VERTEX
  8
0
  6
CONTINUOUS
 10
6.019640
 20
1.743720
  0
VERTEX
  8
0
  6
CONTINUOUS
 10
5.273400
 20
1.743720
  0
VERTEX
  8
0
  6
CONTINUOUS
 10
5.243480
 20
1.646040
  0
VERTEX
  8
0
  6
CONTINUOUS
 10
5.194200
 20
1.646920
  0
VERTEX
  8
0
  6
CONTINUOUS
 10
5.151960
 20
1.644280
  0
VERTEX
  8
0
  6
CONTINUOUS
 10
5.115440
 20
1.635920
  0
VERTEX
  8
0
  6
CONTINUOUS
 10
5.083320
 20
1.621400
  0
VERTEX
  8
0
  6
CONTINUOUS
 10
5.067920
 20
1.611280
  0
VERTEX
  8
0
  6
CONTINUOUS
 10
5.038880
 20
1.584880
  0
VERTEX
  8
0
  6
CONTINUOUS
 10
5.010280
 20
1.548800
  0
VERTEX
  8
0
  6
CONTINUOUS
 10
4.979920
 20
1.502600
  0
VERTEX
  8
0
  6
CONTINUOUS
 10
4.964080
 20
1.474880
  0
VERTEX
  8
0
  6
CONTINUOUS
 10
4.846160
 20
1.474880
  0
VERTEX
  8
0
  6
CONTINUOUS
 10
4.826800
 20
1.357840
  0
VERTEX
  8
0
  6
CONTINUOUS
 10
3.405600
 20
1.357840
  0
VERTEX
  8
0
  6
CONTINUOUS
 10
3.380520
 20
1.263680
  0
VERTEX
  8
0
  6
CONTINUOUS
 10
2.940080
 20
1.263680
  0
VERTEX
  8
0
  6
CONTINUOUS
 10
2.909280
 20
1.177440
  0
VERTEX
  8
0
  6
CONTINUOUS
 10
2.890800
 20
1.177880
  0
SEQEND
  8
0
  0
SOLID
  8
0
 62
    15
 10
3.261720
 20
4.641560
 11
3.259520
 21
5.395280
 12
3.303960
 22
4.638480
 13
3.301760
 23
5.392640
  0
POLYLINE
  8
0
  6
CONTINUOUS
 66
     1
 40
0.000000
 41
0.000000
  0
VERTEX
  8
0
  6
CONTINUOUS
 10
3.261720
 20
4.641560
  0
VERTEX
  8
0
  6
CONTINUOUS
 10
3.259520
 20
5.395280
  0
VERTEX
  8
0
  6
CONTINUOUS
 10
3.301760
 20
5.392640
  0
VERTEX
  8
0
  6
CONTINUOUS
 10
3.303960
 20
4.638480
  0
VERTEX
  8
0
  6
CONTINUOUS
 10
3.261720
 20
4.641560
  0
SEQEND
  8
0
  0
SOLID
  8
0
 62
    15
 10
5.612200
 20
4.180880
 11
5.610440
 21
4.935040
 12
5.655760
 22
4.176040
 13
5.653560
 23
4.930200
  0
POLYLINE
  8
0
  6
CONTINUOUS
 66
     1
 40
0.000000
 41
0.000000
  0
VERTEX
  8
0
  6
CONTINUOUS
 10
5.612200
 20
4.180880
  0
VERTEX
  8
0
  6
CONTINUOUS
 10
5.610440
 20
4.935040
  0
VERTEX
  8
0
  6
CONTINUOUS
 10
5.653560
 20
4.930200
  0
VERTEX
  8
0
  6
CONTINUOUS
 10
5.655760
 20
4.176040
  0
VERTEX
  8
0
  6
CONTINUOUS
 10
5.612200
 20
4.180880
  0
SEQEND
  8
0
  0
SOLID
  8
0
 62
    15
 10
5.655760
 20
4.176040
 11
5.653560
 21
4.930200
 12
5.676880
 22
4.167240
 13
5.675120
 23
4.920960
  0
POLYLINE
  8
0
  6
CONTINUOUS
 66
     1
 40
0.000000
 41
0.000000
  0
VERTEX
  8
0
  6
CONTINUOUS
 10
5.655760
 20
4.176040
  0
VERTEX
  8
0
  6
CONTINUOUS
 10
5.653560
 20
4.930200
  0
VERTEX
  8
0
  6
CONTINUOUS
 10
5.675120
 20
4.920960
  0
VERTEX
  8
0
  6
CONTINUOUS
 10
5.676880
 20
4.167240
  0
VERTEX
  8
0
  6
CONTINUOUS
 10
5.655760
 20
4.176040
  0
SEQEND
  8
0
  0
SOLID
  8
0
 62
    15
 10
5.676880
 20
4.167240
 11
5.675120
 21
4.920960
 12
5.698880
 22
4.152720
 13
5.697120
 23
4.906880
  0
POLYLINE
  8
0
  6
CONTINUOUS
 66
     1
 40
0.000000
 41
0.000000
  0
VERTEX
  8
0
  6
CONTINUOUS
 10
5.676880
 20
4.167240
  0
VERTEX
  8
0
  6
CONTINUOUS
 10
5.675120
 20
4.920960
  0
VERTEX
  8
0
  6
CONTINUOUS
 10
5.697120
 20
4.906880
  0
VERTEX
  8
0
  6
CONTINUOUS
 10
5.698880
 20
4.152720
  0
VERTEX
  8
0
  6
CONTINUOUS
 10
5.676880
 20
4.167240
  0
SEQEND
  8
0
  0
SOLID
  8
0
 62
    15
 10
5.698880
 20
4.152720
 11
5.697120
 21
4.906880
 12
5.721760
 22
4.132920
 13
5.720000
 23
4.886640
  0
POLYLINE
  8
0
  6
CONTINUOUS
 66
     1
 40
0.000000
 41
0.000000
  0
VERTEX
  8
0
  6
CONTINUOUS
 10
5.698880
 20
4.152720
  0
VERTEX
  8
0
  6
CONTINUOUS
 10
5.697120
 20
4.906880
  0
VERTEX
  8
0
  6
CONTINUOUS
 10
5.720000
 20
4.886640
  0
VERTEX
  8
0
  6
CONTINUOUS
 10
5.721760
 20
4.132920
  0
VERTEX
  8
0
  6
CONTINUOUS
 10
5.698880
 20
4.152720
  0
SEQEND
  8
0
  0
SOLID
  8
0
 62
    15
 10
5.721760
 20
4.132920
 11
5.720000
 21
4.886640
 12
5.746400
 22
4.106080
 13
5.744640
 23
4.860240
  0
POLYLINE
  8
0
  6
CONTINUOUS
 66
     1
 40
0.000000
 41
0.000000
  0
VERTEX
  8
0
  6
CONTINUOUS
 10
5.721760
 20
4.132920
  0
VERTEX
  8
0
  6
CONTINUOUS
 10
5.720000
 20
4.886640
  0
VERTEX
  8
0
  6
CONTINUOUS
 10
5.744640
 20
4.860240
  0
VERTEX
  8
0
  6
CONTINUOUS
 10
5.746400
 20
4.106080
  0
VERTEX
  8
0
  6
CONTINUOUS
 10
5.721760
 20
4.132920
  0
SEQEND
  8
0
  0
SOLID
  8
0
 62
    15
 10
5.746400
 20
4.106080
 11
5.744640
 21
4.860240
 12
5.771480
 22
4.079680
 13
5.769720
 23
4.833400
  0
POLYLINE
  8
0
  6
CONTINUOUS
 66
     1
 40
0.000000
 41
0.000000
  0
VERTEX
  8
0
  6
CONTINUOUS
 10
5.746400
 20
4.106080
  0
VERTEX
  8
0
  6
CONTINUOUS
 10
5.744640
 20
4.860240
  0
VERTEX
  8
0
  6
CONTINUOUS
 10
5.769720
 20
4.833400
  0
VERTEX
  8
0
  6
CONTINUOUS
 10
5.771480
 20
4.079680
  0
VERTEX
  8
0
  6
CONTINUOUS
 10
5.746400
 20
4.106080
  0
SEQEND
  8
0
  0
SOLID
  8
0
 62
    15
 10
5.771480
 20
4.079680
 11
5.769720
 21
4.833400
 12
5.797440
 22
4.057680
 13
5.795680
 23
4.811400
  0
POLYLINE
  8
0
  6
CONTINUOUS
 66
     1
 40
0.000000
 41
0.000000
  0
VERTEX
  8
0
  6
CONTINUOUS
 10
5.771480
 20
4.079680
  0
VERTEX
  8
0
  6
CONTINUOUS
 10
5.769720
 20
4.833400
  0
VERTEX
  8
0
  6
CONTINUOUS
 10
5.795680
 20
4.811400
  0
VERTEX
  8
0
  6
CONTINUOUS
 10
5.797440
 20
4.057680
  0
VERTEX
  8
0
  6
CONTINUOUS
 10
5.771480
 20
4.079680
  0
SEQEND
  8
0
  0
SOLID
  8
0
 62
    15
 10
5.797440
 20
4.057680
 11
5.795680
 21
4.811400
 12
5.849800
 22
4.026000
 13
5.848040
 23
4.780160
  0
POLYLINE
  8
0
  6
CONTINUOUS
 66
     1
 40
0.000000
 41
0.000000
  0
VERTEX
  8
0
  6
CONTINUOUS
 10
5.797440
 20
4.057680
  0
VERTEX
  8
0
  6
CONTINUOUS
 10
5.795680
 20
4.811400
  0
VERTEX
  8
0
  6
CONTINUOUS
 10
5.848040
 20
4.780160
  0
VERTEX
  8
0
  6
CONTINUOUS
 10
5.849800
 20
4.026000
  0
VERTEX
  8
0
  6
CONTINUOUS
 10
5.797440
 20
4.057680
  0
SEQEND
  8
0
  0
SOLID
  8
0
 62
    15
 10
5.849800
 20
4.026000
 11
5.848040
 21
4.780160
 12
5.897760
 22
4.009280
 13
5.896000
 23
4.763440
  0
POLYLINE
  8
0
  6
CONTINUOUS
 66
     1
 40
0.000000
 41
0.000000
  0
VERTEX
  8
0
  6
CONTINUOUS
 10
5.849800
 20
4.026000
  0
VERTEX
  8
0
  6
CONTINUOUS
 10
5.848040
 20
4.780160
  0
VERTEX
  8
0
  6
CONTINUOUS
 10
5.896000
 20
4.763440
  0
VERTEX
  8
0
  6
CONTINUOUS
 10
5.897760
 20
4.009280
  0
VERTEX
  8
0
  6
CONTINUOUS
 10
5.849800
 20
4.026000
  0
SEQEND
  8
0
  0
SOLID
  8
0
 62
    15
 10
5.897760
 20
4.009280
 11
5.896000
 21
4.763440
 12
5.937360
 22
4.004440
 13
5.935600
 23
4.758160
  0
POLYLINE
  8
0
  6
CONTINUOUS
 66
     1
 40
0.000000
 41
0.000000
  0
VERTEX
  8
0
  6
CONTINUOUS
 10
5.897760
 20
4.009280
  0
VERTEX
  8
0
  6
CONTINUOUS
 10
5.896000
 20
4.763440
  0
VERTEX
  8
0
  6
CONTINUOUS
 10
5.935600
 20
4.758160
  0
VERTEX
  8
0
  6
CONTINUOUS
 10
5.937360
 20
4.004440
  0
VERTEX
  8
0
  6
CONTINUOUS
 10
5.897760
 20
4.009280
  0
SEQEND
  8
0
  0
SOLID
  8
0
 62
    15
 10
2.435840
 20
3.867160
 11
2.434080
 21
4.620880
 12
2.435840
 22
4.737920
 13
2.434080
 23
5.492080
  0
POLYLINE
  8
0
  6
CONTINUOUS
 66
     1
 40
0.000000
 41
0.000000
  0
VERTEX
  8
0
  6
CONTINUOUS
 10
2.435840
 20
3.867160
  0
VERTEX
  8
0
  6
CONTINUOUS
 10
2.434080
 20
4.620880
  0
VERTEX
  8
0
  6
CONTINUOUS
 10
2.434080
 20
5.492080
  0
VERTEX
  8
0
  6
CONTINUOUS
 10
2.435840
 20
4.737920
  0
VERTEX
  8
0
  6
CONTINUOUS
 10
2.435840
 20
3.867160
  0
SEQEND
  8
0
  0
SOLID
  8
0
 62
    15
 10
2.435840
 20
4.737920
 11
2.434080
 21
5.492080
 12
3.182520
 22
4.737920
 13
3.180320
 23
5.492080
  0
POLYLINE
  8
0
  6
CONTINUOUS
 66
     1
 40
0.000000
 41
0.000000
  0
VERTEX
  8
0
  6
CONTINUOUS
 10
2.435840
 20
4.737920
  0
VERTEX
  8
0
  6
CONTINUOUS
 10
2.434080
 20
5.492080
  0
VERTEX
  8
0
  6
CONTINUOUS
 10
3.180320
 20
5.492080
  0
VERTEX
  8
0
  6
CONTINUOUS
 10
3.182520
 20
4.737920
  0
VERTEX
  8
0
  6
CONTINUOUS
 10
2.435840
 20
4.737920
  0
SEQEND
  8
0
  0
SOLID
  8
0
 62
    15
 10
3.182520
 20
4.737920
 11
3.180320
 21
5.492080
 12
3.212440
 22
4.640240
 13
3.210240
 23
5.394400
  0
POLYLINE
  8
0
  6
CONTINUOUS
 66
     1
 40
0.000000
 41
0.000000
  0
VERTEX
  8
0
  6
CONTINUOUS
 10
3.182520
 20
4.737920
  0
VERTEX
  8
0
  6
CONTINUOUS
 10
3.180320
 20
5.492080
  0
VERTEX
  8
0
  6
CONTINUOUS
 10
3.210240
 20
5.394400
  0
VERTEX
  8
0
  6
CONTINUOUS
 10
3.212440
 20
4.640240
  0
VERTEX
  8
0
  6
CONTINUOUS
 10
3.182520
 20
4.737920
  0
SEQEND
  8
0
  0
SOLID
  8
0
 62
    15
 10
3.212440
 20
4.640240
 11
3.210240
 21
5.394400
 12
3.261720
 22
4.641560
 13
3.259520
 23
5.395280
  0
POLYLINE
  8
0
  6
CONTINUOUS
 66
     1
 40
0.000000
 41
0.000000
  0
VERTEX
  8
0
  6
CONTINUOUS
 10
3.212440
 20
4.640240
  0
VERTEX
  8
0
  6
CONTINUOUS
 10
3.210240
 20
5.394400
  0
VERTEX
  8
0
  6
CONTINUOUS
 10
3.259520
 20
5.395280
  0
VERTEX
  8
0
  6
CONTINUOUS
 10
3.261720
 20
4.641560
  0
VERTEX
  8
0
  6
CONTINUOUS
 10
3.212440
 20
4.640240
  0
SEQEND
  8
0
  0
SOLID
  8
0
 62
    15
 10
5.565120
 20
4.172520
 11
5.562920
 21
4.926240
 12
5.612200
 22
4.180880
 13
5.610440
 23
4.935040
  0
POLYLINE
  8
0
  6
CONTINUOUS
 66
     1
 40
0.000000
 41
0.000000
  0
VERTEX
  8
0
  6
CONTINUOUS
 10
5.565120
 20
4.172520
  0
VERTEX
  8
0
  6
CONTINUOUS
 10
5.562920
 20
4.926240
  0
VERTEX
  8
0
  6
CONTINUOUS
 10
5.610440
 20
4.935040
  0
VERTEX
  8
0
  6
CONTINUOUS
 10
5.612200
 20
4.180880
  0
VERTEX
  8
0
  6
CONTINUOUS
 10
5.565120
 20
4.172520
  0
SEQEND
  8
0
  0
SOLID
  8
0
 62
    15
 10
3.303960
 20
4.638480
 11
3.301760
 21
5.392640
 12
3.340480
 22
4.630120
 13
3.338280
 23
5.384280
  0
POLYLINE
  8
0
  6
CONTINUOUS
 66
     1
 40
0.000000
 41
0.000000
  0
VERTEX
  8
0
  6
CONTINUOUS
 10
3.303960
 20
4.638480
  0
VERTEX
  8
0
  6
CONTINUOUS
 10
3.301760
 20
5.392640
  0
VERTEX
  8
0
  6
CONTINUOUS
 10
3.338280
 20
5.384280
  0
VERTEX
  8
0
  6
CONTINUOUS
 10
3.340480
 20
4.630120
  0
VERTEX
  8
0
  6
CONTINUOUS
 10
3.303960
 20
4.638480
  0
SEQEND
  8
0
  0
SOLID
  8
0
 62
    15
 10
3.340480
 20
4.630120
 11
3.338280
 21
5.384280
 12
3.372600
 22
4.615600
 13
3.370840
 23
5.369760
  0
POLYLINE
  8
0
  6
CONTINUOUS
 66
     1
 40
0.000000
 41
0.000000
  0
VERTEX
  8
0
  6
CONTINUOUS
 10
3.340480
 20
4.630120
  0
VERTEX
  8
0
  6
CONTINUOUS
 10
3.338280
 20
5.384280
  0
VERTEX
  8
0
  6
CONTINUOUS
 10
3.370840
 20
5.369760
  0
VERTEX
  8
0
  6
CONTINUOUS
 10
3.372600
 20
4.615600
  0
VERTEX
  8
0
  6
CONTINUOUS
 10
3.340480
 20
4.630120
  0
SEQEND
  8
0
  0
SOLID
  8
0
 62
    15
 10
3.372600
 20
4.615600
 11
3.370840
 21
5.369760
 12
3.402520
 22
4.593600
 13
3.400320
 23
5.347320
  0
POLYLINE
  8
0
  6
CONTINUOUS
 66
     1
 40
0.000000
 41
0.000000
  0
VERTEX
  8
0
  6
CONTINUOUS
 10
3.372600
 20
4.615600
  0
VERTEX
  8
0
  6
CONTINUOUS
 10
3.370840
 20
5.369760
  0
VERTEX
  8
0
  6
CONTINUOUS
 10
3.400320
 20
5.347320
  0
VERTEX
  8
0
  6
CONTINUOUS
 10
3.402520
 20
4.593600
  0
VERTEX
  8
0
  6
CONTINUOUS
 10
3.372600
 20
4.615600
  0
SEQEND
  8
0
  0
SOLID
  8
0
 62
    15
 10
3.402520
 20
4.593600
 11
3.400320
 21
5.347320
 12
3.431120
 22
4.562360
 13
3.429360
 23
5.316520
  0
POLYLINE
  8
0
  6
CONTINUOUS
 66
     1
 40
0.000000
 41
0.000000
  0
VERTEX
  8
0
  6
CONTINUOUS
 10
3.402520
 20
4.593600
  0
VERTEX
  8
0
  6
CONTINUOUS
 10
3.400320
 20
5.347320
  0
VERTEX
  8
0
  6
CONTINUOUS
 10
3.429360
 20
5.316520
  0
VERTEX
  8
0
  6
CONTINUOUS
 10
3.431120
 20
4.562360
  0
VERTEX
  8
0
  6
CONTINUOUS
 10
3.402520
 20
4.593600
  0
SEQEND
  8
0
  0
SOLID
  8
0
 62
    15
 10
3.431120
 20
4.562360
 11
3.429360
 21
5.316520
 12
3.460160
 22
4.521440
 13
3.458400
 23
5.275600
  0
POLYLINE
  8
0
  6
CONTINUOUS
 66
     1
 40
0.000000
 41
0.000000
  0
VERTEX
  8
0
  6
CONTINUOUS
 10
3.431120
 20
4.562360
  0
VERTEX
  8
0
  6
CONTINUOUS
 10
3.429360
 20
5.316520
  0
VERTEX
  8
0
  6
CONTINUOUS
 10
3.458400
 20
5.275600
  0
VERTEX
  8
0
  6
CONTINUOUS
 10
3.460160
 20
4.521440
  0
VERTEX
  8
0
  6
CONTINUOUS
 10
3.431120
 20
4.562360
  0
SEQEND
  8
0
  0
SOLID
  8
0
 62
    15
 10
3.460160
 20
4.521440
 11
3.458400
 21
5.275600
 12
3.491400
 22
4.469520
 13
3.489640
 23
5.223240
  0
POLYLINE
  8
0
  6
CONTINUOUS
 66
     1
 40
0.000000
 41
0.000000
  0
VERTEX
  8
0
  6
CONTINUOUS
 10
3.460160
 20
4.521440
  0
VERTEX
  8
0
  6
CONTINUOUS
 10
3.458400
 20
5.275600
  0
VERTEX
  8
0
  6
CONTINUOUS
 10
3.489640
 20
5.223240
  0
VERTEX
  8
0
  6
CONTINUOUS
 10
3.491400
 20
4.469520
  0
VERTEX
  8
0
  6
CONTINUOUS
 10
3.460160
 20
4.521440
  0
SEQEND
  8
0
  0
SOLID
  8
0
 62
    15
 10
3.491400
 20
4.469520
 11
3.489640
 21
5.223240
 12
3.609760
 22
4.469520
 13
3.608000
 23
5.223240
  0
POLYLINE
  8
0
  6
CONTINUOUS
 66
     1
 40
0.000000
 41
0.000000
  0
VERTEX
  8
0
  6
CONTINUOUS
 10
3.491400
 20
4.469520
  0
VERTEX
  8
0
  6
CONTINUOUS
 10
3.489640
 20
5.223240
  0
VERTEX
  8
0
  6
CONTINUOUS
 10
3.608000
 20
5.223240
  0
VERTEX
  8
0
  6
CONTINUOUS
 10
3.609760
 20
4.469520
  0
VERTEX
  8
0
  6
CONTINUOUS
 10
3.491400
 20
4.469520
  0
SEQEND
  8
0
  0
SOLID
  8
0
 62
    15
 10
3.609760
 20
4.469520
 11
3.608000
 21
5.223240
 12
3.628680
 22
4.352480
 13
3.626920
 23
5.106200
  0
POLYLINE
  8
0
  6
CONTINUOUS
 66
     1
 40
0.000000
 41
0.000000
  0
VERTEX
  8
0
  6
CONTINUOUS
 10
3.609760
 20
4.469520
  0
VERTEX
  8
0
  6
CONTINUOUS
 10
3.608000
 20
5.223240
  0
VERTEX
  8
0
  6
CONTINUOUS
 10
3.626920
 20
5.106200
  0
VERTEX
  8
0
  6
CONTINUOUS
 10
3.628680
 20
4.352480
  0
VERTEX
  8
0
  6
CONTINUOUS
 10
3.609760
 20
4.469520
  0
SEQEND
  8
0
  0
SOLID
  8
0
 62
    15
 10
3.628680
 20
4.352480
 11
3.626920
 21
5.106200
 12
5.050320
 22
4.352480
 13
5.048120
 23
5.106200
  0
POLYLINE
  8
0
  6
CONTINUOUS
 66
     1
 40
0.000000
 41
0.000000
  0
VERTEX
  8
0
  6
CONTINUOUS
 10
3.628680
 20
4.352480
  0
VERTEX
  8
0
  6
CONTINUOUS
 10
3.626920
 20
5.106200
  0
VERTEX
  8
0
  6
CONTINUOUS
 10
5.048120
 20
5.106200
  0
VERTEX
  8
0
  6
CONTINUOUS
 10
5.050320
 20
4.352480
  0
VERTEX
  8
0
  6
CONTINUOUS
 10
3.628680
 20
4.352480
  0
SEQEND
  8
0
  0
SOLID
  8
0
 62
    15
 10
5.050320
 20
4.352480
 11
5.048120
 21
5.106200
 12
5.075400
 22
4.257880
 13
5.073640
 23
5.012040
  0
POLYLINE
  8
0
  6
CONTINUOUS
 66
     1
 40
0.000000
 41
0.000000
  0
VERTEX
  8
0
  6
CONTINUOUS
 10
5.050320
 20
4.352480
  0
VERTEX
  8
0
  6
CONTINUOUS
 10
5.048120
 20
5.106200
  0
VERTEX
  8
0
  6
CONTINUOUS
 10
5.073640
 20
5.012040
  0
VERTEX
  8
0
  6
CONTINUOUS
 10
5.075400
 20
4.257880
  0
VERTEX
  8
0
  6
CONTINUOUS
 10
5.050320
 20
4.352480
  0
SEQEND
  8
0
  0
SOLID
  8
0
 62
    15
 10
5.075400
 20
4.257880
 11
5.073640
 21
5.012040
 12
5.515400
 22
4.257880
 13
5.513640
 23
5.012040
  0
POLYLINE
  8
0
  6
CONTINUOUS
 66
     1
 40
0.000000
 41
0.000000
  0
VERTEX
  8
0
  6
CONTINUOUS
 10
5.075400
 20
4.257880
  0
VERTEX
  8
0
  6
CONTINUOUS
 10
5.073640
 20
5.012040
  0
VERTEX
  8
0
  6
CONTINUOUS
 10
5.513640
 20
5.012040
  0
VERTEX
  8
0
  6
CONTINUOUS
 10
5.515400
 20
4.257880
  0
VERTEX
  8
0
  6
CONTINUOUS
 10
5.075400
 20
4.257880
  0
SEQEND
  8
0
  0
SOLID
  8
0
 62
    15
 10
5.515400
 20
4.257880
 11
5.513640
 21
5.012040
 12
5.546640
 22
4.172080
 13
5.544880
 23
4.925800
  0
POLYLINE
  8
0
  6
CONTINUOUS
 66
     1
 40
0.000000
 41
0.000000
  0
VERTEX
  8
0
  6
CONTINUOUS
 10
5.515400
 20
4.257880
  0
VERTEX
  8
0
  6
CONTINUOUS
 10
5.513640
 20
5.012040
  0
VERTEX
  8
0
  6
CONTINUOUS
 10
5.544880
 20
4.925800
  0
VERTEX
  8
0
  6
CONTINUOUS
 10
5.546640
 20
4.172080
  0
VERTEX
  8
0
  6
CONTINUOUS
 10
5.515400
 20
4.257880
  0
SEQEND
  8
0
  0
SOLID
  8
0
 62
    15
 10
5.546640
 20
4.172080
 11
5.544880
 21
4.925800
 12
5.563360
 22
4.172080
 13
5.561600
 23
4.925800
  0
POLYLINE
  8
0
  6
CONTINUOUS
 66
     1
 40
0.000000
 41
0.000000
  0
VERTEX
  8
0
  6
CONTINUOUS
 10
5.546640
 20
4.172080
  0
VERTEX
  8
0
  6
CONTINUOUS
 10
5.544880
 20
4.925800
  0
VERTEX
  8
0
  6
CONTINUOUS
 10
5.561600
 20
4.925800
  0
VERTEX
  8
0
  6
CONTINUOUS
 10
5.563360
 20
4.172080
  0
VERTEX
  8
0
  6
CONTINUOUS
 10
5.546640
 20
4.172080
  0
SEQEND
  8
0
  0
SOLID
  8
0
 62
    15
 10
5.563360
 20
4.172080
 11
5.561600
 21
4.925800
 12
5.565120
 22
4.172520
 13
5.562920
 23
4.926240
  0
POLYLINE
  8
0
  6
CONTINUOUS
 66
     1
 40
0.000000
 41
0.000000
  0
VERTEX
  8
0
  6
CONTINUOUS
 10
5.563360
 20
4.172080
  0
VERTEX
  8
0
  6
CONTINUOUS
 10
5.561600
 20
4.925800
  0
VERTEX
  8
0
  6
CONTINUOUS
 10
5.562920
 20
4.926240
  0
VERTEX
  8
0
  6
CONTINUOUS
 10
5.565120
 20
4.172520
  0
VERTEX
  8
0
  6
CONTINUOUS
 10
5.563360
 20
4.172080
  0
SEQEND
  8
0
  0
POLYLINE
  8
0
  6
CONTINUOUS
 66
     1
 40
0.000000
 41
0.000000
  0
VERTEX
  8
0
  6
CONTINUOUS
 10
5.565120
 20
4.172520
  0
VERTEX
  8
0
  6
CONTINUOUS
 10
5.612200
 20
4.180880
  0
VERTEX
  8
0
  6
CONTINUOUS
 10
5.655760
 20
4.176040
  0
VERTEX
  8
0
  6
CONTINUOUS
 10
5.676880
 20
4.167240
  0
VERTEX
  8
0
  6
CONTINUOUS
 10
5.698880
 20
4.152720
  0
VERTEX
  8
0
  6
CONTINUOUS
 10
5.721760
 20
4.132920
  0
VERTEX
  8
0
  6
CONTINUOUS
 10
5.746400
 20
4.106080
  0
VERTEX
  8
0
  6
CONTINUOUS
 10
5.771480
 20
4.079680
  0
VERTEX
  8
0
  6
CONTINUOUS
 10
5.797440
 20
4.057680
  0
VERTEX
  8
0
  6
CONTINUOUS
 10
5.849800
 20
4.026000
  0
VERTEX
  8
0
  6
CONTINUOUS
 10
5.897760
 20
4.009280
  0
VERTEX
  8
0
  6
CONTINUOUS
 10
5.937360
 20
4.004440
  0
VERTEX
  8
0
  6
CONTINUOUS
 10
5.937360
 20
3.867160
  0
VERTEX
  8
0
  6
CONTINUOUS
 10
2.435840
 20
3.867160
  0
VERTEX
  8
0
  6
CONTINUOUS
 10
2.435840
 20
4.737920
  0
VERTEX
  8
0
  6
CONTINUOUS
 10
3.182520
 20
4.737920
  0
VERTEX
  8
0
  6
CONTINUOUS
 10
3.212440
 20
4.640240
  0
VERTEX
  8
0
  6
CONTINUOUS
 10
3.261720
 20
4.641560
  0
VERTEX
  8
0
  6
CONTINUOUS
 10
3.303960
 20
4.638480
  0
VERTEX
  8
0
  6
CONTINUOUS
 10
3.340480
 20
4.630120
  0
VERTEX
  8
0
  6
CONTINUOUS
 10
3.372600
 20
4.615600
  0
VERTEX
  8
0
  6
CONTINUOUS
 10
3.402520
 20
4.593600
  0
VERTEX
  8
0
  6
CONTINUOUS
 10
3.431120
 20
4.562360
  0
VERTEX
  8
0
  6
CONTINUOUS
 10
3.460160
 20
4.521440
  0
VERTEX
  8
0
  6
CONTINUOUS
 10
3.491400
 20
4.469520
  0
VERTEX
  8
0
  6
CONTINUOUS
 10
3.609760
 20
4.469520
  0
VERTEX
  8
0
  6
CONTINUOUS
 10
3.628680
 20
4.352480
  0
VERTEX
  8
0
  6
CONTINUOUS
 10
5.050320
 20
4.352480
  0
VERTEX
  8
0
  6
CONTINUOUS
 10
5.075400
 20
4.257880
  0
VERTEX
  8
0
  6
CONTINUOUS
 10
5.515400
 20
4.257880
  0
VERTEX
  8
0
  6
CONTINUOUS
 10
5.546640
 20
4.172080
  0
VERTEX
  8
0
  6
CONTINUOUS
 10
5.563360
 20
4.172080
  0
VERTEX
  8
0
  6
CONTINUOUS
 10
5.565120
 20
4.172520
  0
SEQEND
  8
0
  0
TEXT
  8
0
 10
3.845160
 20
3.600520
 40
0.138228
  1
BA  1279
 41
1.000000
  7
SN0
 71
     0
 72
     5
 11
4.528291
 21
3.600520
  0
TEXT
  8
0
 10
3.735160
 20
3.399000
 40
0.138228
  1
7/8" x 3-1/2"
 41
1.000000
  7
SN0
 71
     0
 72
     5
 11
4.636096
 21
3.399000
  0
TEXT
  8
0
 10
3.891800
 20
6.603080
 40
0.138228
  1
BA  1279
 41
1.000000
  7
SN0
 71
     0
 72
     5
 11
4.574931
 21
6.603080
  0
TEXT
  8
0
 10
3.782240
 20
6.402000
 40
0.138228
  1
7/8" x 3-1/2"
 41
1.000000
  7
SN0
 71
     0
 72
     5
 11
4.683176
 21
6.402000
  0
ENDSEC
  0
EOF
