  0
SECTION
  2
HEADER
  9
$ACADVER
  1
AC1006
  9
$EXTMIN
 10
3.138520
 20
2.931720
  9
$EXTMAX
 10
4.629680
 20
6.270000
  9
$LTSCALE
 40
0.044000
  9
$PDMODE
 70
    35
  9
$PDSIZE
 40
0.035200
  0
ENDSEC
  0
SECTION
  2
TABLES
  0
TABLE
  2
LTYPE
 70
     9
  0
LTYPE
  2
CONTINUOUS
 70
    64
  3
Solid line
 72
    65
 73
     0
 40
0.000000
  0
LTYPE
  2
DASHED
 70
    64
  3
__ __ __ __ __ __ __ __ __ __ __ __ __ __ __
 72
    65
 73
     2
 40
0.000330
 49
0.000220
 49
-0.000110
  0
LTYPE
  2
HIDDEN
 70
    64
  3
 _ _ _ _ _ _ _ _ _ _ _ _ _ _ _ _ _ _ _ _ _ _
 72
    65
 73
     2
 40
0.000165
 49
0.000110
 49
-0.000055
  0
LTYPE
  2
CENTER
 70
    64
  3
____ _ ____ _ ____ _ ____ _ ____ _ ____ _ ____
 72
    65
 73
     4
 40
0.000880
 49
0.000550
 49
-0.000110
 49
0.000110
 49
-0.000110
  0
LTYPE
  2
PHANTOM
 70
    64
  3
_____ _ _ _____ _ _ _____ _ _ _____ _ _ ____
 72
    65
 73
     6
 40
0.001100
 49
0.000550
 49
-0.000110
 49
0.000110
 49
-0.000110
 49
0.000110
 49
-0.000110
  0
LTYPE
  2
DOT
 70
    64
  3
...............................................
 72
    65
 73
     2
 40
0.000110
 49
0.000000
 49
-0.000110
  0
LTYPE
  2
DASHDOT
 70
    64
  3
__ . __ . __ . __ . __ . __ . __ . __ . __ . __
 72
    65
 73
     4
 40
0.000440
 49
0.000220
 49
-0.000110
 49
0.000000
 49
-0.000110
  0
LTYPE
  2
BORDER
 70
    64
  3
__ __ . __ __ . __ __ . __ __ . __ __ . __ __
 72
    65
 73
     6
 40
0.000770
 49
0.000220
 49
-0.000110
 49
0.000220
 49
-0.000110
 49
0.000000
 49
-0.000110
  0
LTYPE
  2
DIVIDE
 70
    64
  3
__ . . __ . . __ . . __ . . __ . . __ . . __
 72
    65
 73
     6
 40
0.000550
 49
0.000220
 49
-0.000110
 49
0.000000
 49
-0.000110
 49
0.000000
 49
-0.000110
  0
LTYPE
  2
DOTDOT
 70
    64
  3
 . .  . .  . .  . .  . .  . . 
 72
    65
 73
     5
 40
0.000242
 49
-0.000110
 49
0.000000
 49
-0.000110
 49
0.000000
 49
-0.000110
  0
ENDTAB
  0
TABLE
  2
STYLE
 70
     2
  0
STYLE
 70
     0
  2
SN0
 40
0.000000
 41
0.000440
 50
0.000000
 71
     0
 42
0.000000
  3
ROMAND
  0
STYLE
 70
    68
  2
SV0
 40
0.000000
 41
0.000440
 50
0.000000
 71
     0
 42
0.000000
  3
ROMAND
  0
ENDTAB
  0
TABLE
  2
LAYER
 70
     3
  0
LAYER
  2
FOREGROUND
 70
    64
 62
     7
  6
CONTINUOUS
  0
LAYER
  2
BACKGROUND
 70
    65
 62
    -7
  6
CONTINUOUS
  0
LAYER
  2
0
 70
    64
 62
     7
  6
CONTINUOUS
  0
ENDTAB
  0
ENDSEC
  0
SECTION
  2
ENTITIES
  0
POLYLINE
  8
FOREGROUND
  6
CONTINUOUS
 66
     1
 40
0.000000
 41
0.000000
  0
VERTEX
  8
FOREGROUND
  6
CONTINUOUS
 10
0.000000
 20
9.201720
  0
VERTEX
  8
FOREGROUND
  6
CONTINUOUS
 10
8.499920
 20
9.201720
  0
VERTEX
  8
FOREGROUND
  6
CONTINUOUS
 10
8.499920
 20
-1.798280
  0
VERTEX
  8
FOREGROUND
  6
CONTINUOUS
 10
0.000000
 20
-1.798280
  0
VERTEX
  8
FOREGROUND
  6
CONTINUOUS
 10
0.000000
 20
9.201720
  0
SEQEND
  8
0
  0
POLYLINE
  8
FOREGROUND
  6
CONTINUOUS
 66
     1
 40
0.000000
 41
0.000000
  0
VERTEX
  8
FOREGROUND
  6
CONTINUOUS
 10
0.000000
 20
9.201720
  0
VERTEX
  8
FOREGROUND
  6
CONTINUOUS
 10
8.499920
 20
9.201720
  0
VERTEX
  8
FOREGROUND
  6
CONTINUOUS
 10
8.499920
 20
-1.798280
  0
VERTEX
  8
FOREGROUND
  6
CONTINUOUS
 10
0.000000
 20
-1.798280
  0
VERTEX
  8
FOREGROUND
  6
CONTINUOUS
 10
0.000000
 20
9.201720
  0
SEQEND
  8
0
  0
POLYLINE
  8
0
  6
CONTINUOUS
 66
     1
 40
0.014080
 41
0.014080
  0
VERTEX
  8
0
  6
CONTINUOUS
 10
3.637480
 20
6.245360
  0
VERTEX
  8
0
  6
CONTINUOUS
 10
3.720200
 20
6.132280
  0
VERTEX
  8
0
  6
CONTINUOUS
 10
3.737360
 20
6.128320
  0
VERTEX
  8
0
  6
CONTINUOUS
 10
3.752760
 20
6.124360
  0
VERTEX
  8
0
  6
CONTINUOUS
 10
3.767280
 20
6.121280
  0
VERTEX
  8
0
  6
CONTINUOUS
 10
3.780920
 20
6.117760
  0
VERTEX
  8
0
  6
CONTINUOUS
 10
3.793240
 20
6.114240
  0
VERTEX
  8
0
  6
CONTINUOUS
 10
3.805120
 20
6.110280
  0
VERTEX
  8
0
  6
CONTINUOUS
 10
3.816560
 20
6.105440
  0
VERTEX
  8
0
  6
CONTINUOUS
 10
3.827560
 20
6.100160
  0
VERTEX
  8
0
  6
CONTINUOUS
 10
3.838120
 20
6.094440
  0
VERTEX
  8
0
  6
CONTINUOUS
 10
3.848680
 20
6.086960
  0
VERTEX
  8
0
  6
CONTINUOUS
 10
3.859680
 20
6.078600
  0
VERTEX
  8
0
  6
CONTINUOUS
 10
3.870680
 20
6.068920
  0
VERTEX
  8
0
  6
CONTINUOUS
 10
3.882120
 20
6.057480
  0
VERTEX
  8
0
  6
CONTINUOUS
 10
3.894440
 20
6.044280
  0
VERTEX
  8
0
  6
CONTINUOUS
 10
3.907200
 20
6.028880
  0
VERTEX
  8
0
  6
CONTINUOUS
 10
3.913800
 20
6.020520
  0
VERTEX
  8
0
  6
CONTINUOUS
 10
3.920840
 20
6.011720
  0
VERTEX
  8
0
  6
CONTINUOUS
 10
3.935360
 20
5.994120
  0
VERTEX
  8
0
  6
CONTINUOUS
 10
3.950760
 20
5.978280
  0
VERTEX
  8
0
  6
CONTINUOUS
 10
3.967040
 20
5.964200
  0
VERTEX
  8
0
  6
CONTINUOUS
 10
3.983320
 20
5.951880
  0
VERTEX
  8
0
  6
CONTINUOUS
 10
4.000040
 20
5.940880
  0
VERTEX
  8
0
  6
CONTINUOUS
 10
4.017200
 20
5.931200
  0
VERTEX
  8
0
  6
CONTINUOUS
 10
4.034360
 20
5.922840
  0
VERTEX
  8
0
  6
CONTINUOUS
 10
4.051520
 20
5.915800
  0
VERTEX
  8
0
  6
CONTINUOUS
 10
4.068680
 20
5.909640
  0
VERTEX
  8
0
  6
CONTINUOUS
 10
4.085840
 20
5.904800
  0
VERTEX
  8
0
  6
CONTINUOUS
 10
4.102560
 20
5.900840
  0
VERTEX
  8
0
  6
CONTINUOUS
 10
4.118840
 20
5.897760
  0
VERTEX
  8
0
  6
CONTINUOUS
 10
4.134680
 20
5.895560
  0
VERTEX
  8
0
  6
CONTINUOUS
 10
4.150080
 20
5.893800
  0
VERTEX
  8
0
  6
CONTINUOUS
 10
4.164600
 20
5.892920
  0
VERTEX
  8
0
  6
CONTINUOUS
 10
4.178240
 20
5.892480
  0
VERTEX
  8
0
  6
CONTINUOUS
 10
4.178240
 20
5.766200
  0
VERTEX
  8
0
  6
CONTINUOUS
 10
3.546400
 20
5.766200
  0
VERTEX
  8
0
  6
CONTINUOUS
 10
3.546400
 20
6.262520
  0
VERTEX
  8
0
  6
CONTINUOUS
 10
3.598320
 20
6.262520
  0
VERTEX
  8
0
  6
CONTINUOUS
 10
3.604480
 20
6.262520
  0
VERTEX
  8
0
  6
CONTINUOUS
 10
3.610200
 20
6.262080
  0
VERTEX
  8
0
  6
CONTINUOUS
 10
3.615040
 20
6.261640
  0
VERTEX
  8
0
  6
CONTINUOUS
 10
3.619880
 20
6.260320
  0
VERTEX
  8
0
  6
CONTINUOUS
 10
3.624280
 20
6.258120
  0
VERTEX
  8
0
  6
CONTINUOUS
 10
3.628680
 20
6.255040
  0
VERTEX
  8
0
  6
CONTINUOUS
 10
3.633080
 20
6.251080
  0
VERTEX
  8
0
  6
CONTINUOUS
 10
3.637480
 20
6.245360
  0
SEQEND
  8
0
  0
POLYLINE
  8
0
  6
CONTINUOUS
 66
     1
 40
0.000000
 41
0.000000
  0
VERTEX
  8
0
  6
CONTINUOUS
 10
4.088920
 20
3.410880
  0
VERTEX
  8
0
  6
CONTINUOUS
 10
4.171640
 20
3.298240
  0
VERTEX
  8
0
  6
CONTINUOUS
 10
4.188800
 20
3.294280
  0
VERTEX
  8
0
  6
CONTINUOUS
 10
4.204200
 20
3.290320
  0
VERTEX
  8
0
  6
CONTINUOUS
 10
4.218720
 20
3.286800
  0
VERTEX
  8
0
  6
CONTINUOUS
 10
4.232360
 20
3.283280
  0
VERTEX
  8
0
  6
CONTINUOUS
 10
4.244680
 20
3.279760
  0
VERTEX
  8
0
  6
CONTINUOUS
 10
4.256560
 20
3.275800
  0
VERTEX
  8
0
  6
CONTINUOUS
 10
4.268000
 20
3.271400
  0
VERTEX
  8
0
  6
CONTINUOUS
 10
4.279000
 20
3.266120
  0
VERTEX
  8
0
  6
CONTINUOUS
 10
4.289560
 20
3.259960
  0
VERTEX
  8
0
  6
CONTINUOUS
 10
4.300120
 20
3.252920
  0
VERTEX
  8
0
  6
CONTINUOUS
 10
4.311120
 20
3.244560
  0
VERTEX
  8
0
  6
CONTINUOUS
 10
4.322120
 20
3.234880
  0
VERTEX
  8
0
  6
CONTINUOUS
 10
4.333560
 20
3.223440
  0
VERTEX
  8
0
  6
CONTINUOUS
 10
4.345880
 20
3.210240
  0
VERTEX
  8
0
  6
CONTINUOUS
 10
4.358640
 20
3.194840
  0
VERTEX
  8
0
  6
CONTINUOUS
 10
4.365240
 20
3.186480
  0
VERTEX
  8
0
  6
CONTINUOUS
 10
4.372280
 20
3.177680
  0
VERTEX
  8
0
  6
CONTINUOUS
 10
4.386800
 20
3.160080
  0
VERTEX
  8
0
  6
CONTINUOUS
 10
4.402200
 20
3.144240
  0
VERTEX
  8
0
  6
CONTINUOUS
 10
4.418480
 20
3.130160
  0
VERTEX
  8
0
  6
CONTINUOUS
 10
4.434760
 20
3.117840
  0
VERTEX
  8
0
  6
CONTINUOUS
 10
4.451480
 20
3.106840
  0
VERTEX
  8
0
  6
CONTINUOUS
 10
4.468640
 20
3.097160
  0
VERTEX
  8
0
  6
CONTINUOUS
 10
4.485800
 20
3.088800
  0
VERTEX
  8
0
  6
CONTINUOUS
 10
4.502960
 20
3.081320
  0
VERTEX
  8
0
  6
CONTINUOUS
 10
4.520120
 20
3.075600
  0
VERTEX
  8
0
  6
CONTINUOUS
 10
4.537280
 20
3.070760
  0
VERTEX
  8
0
  6
CONTINUOUS
 10
4.554000
 20
3.066360
  0
VERTEX
  8
0
  6
CONTINUOUS
 10
4.570280
 20
3.063280
  0
VERTEX
  8
0
  6
CONTINUOUS
 10
4.586120
 20
3.061080
  0
VERTEX
  8
0
  6
CONTINUOUS
 10
4.601520
 20
3.059320
  0
VERTEX
  8
0
  6
CONTINUOUS
 10
4.616040
 20
3.058440
  0
VERTEX
  8
0
  6
CONTINUOUS
 10
4.629680
 20
3.058000
  0
VERTEX
  8
0
  6
CONTINUOUS
 10
4.629680
 20
2.932160
  0
VERTEX
  8
0
  6
CONTINUOUS
 10
3.997840
 20
2.932160
  0
VERTEX
  8
0
  6
CONTINUOUS
 10
3.997840
 20
3.428480
  0
VERTEX
  8
0
  6
CONTINUOUS
 10
4.049760
 20
3.428480
  0
VERTEX
  8
0
  6
CONTINUOUS
 10
4.055920
 20
3.428480
  0
VERTEX
  8
0
  6
CONTINUOUS
 10
4.061200
 20
3.428040
  0
VERTEX
  8
0
  6
CONTINUOUS
 10
4.066480
 20
3.427160
  0
VERTEX
  8
0
  6
CONTINUOUS
 10
4.071320
 20
3.425840
  0
VERTEX
  8
0
  6
CONTINUOUS
 10
4.075720
 20
3.423640
  0
VERTEX
  8
0
  6
CONTINUOUS
 10
4.080120
 20
3.420560
  0
VERTEX
  8
0
  6
CONTINUOUS
 10
4.084520
 20
3.416600
  0
VERTEX
  8
0
  6
CONTINUOUS
 10
4.088920
 20
3.410880
  0
SEQEND
  8
0
  0
POLYLINE
  8
0
  6
CONTINUOUS
 66
     1
 40
0.000000
 41
0.000000
  0
VERTEX
  8
0
  6
CONTINUOUS
 10
3.679720
 20
3.410880
  0
VERTEX
  8
0
  6
CONTINUOUS
 10
3.597000
 20
3.298240
  0
VERTEX
  8
0
  6
CONTINUOUS
 10
3.579840
 20
3.294280
  0
VERTEX
  8
0
  6
CONTINUOUS
 10
3.564440
 20
3.290320
  0
VERTEX
  8
0
  6
CONTINUOUS
 10
3.549920
 20
3.286800
  0
VERTEX
  8
0
  6
CONTINUOUS
 10
3.536280
 20
3.283280
  0
VERTEX
  8
0
  6
CONTINUOUS
 10
3.523960
 20
3.279760
  0
VERTEX
  8
0
  6
CONTINUOUS
 10
3.512080
 20
3.275800
  0
VERTEX
  8
0
  6
CONTINUOUS
 10
3.500640
 20
3.271400
  0
VERTEX
  8
0
  6
CONTINUOUS
 10
3.489640
 20
3.266120
  0
VERTEX
  8
0
  6
CONTINUOUS
 10
3.479080
 20
3.259960
  0
VERTEX
  8
0
  6
CONTINUOUS
 10
3.468520
 20
3.252920
  0
VERTEX
  8
0
  6
CONTINUOUS
 10
3.457520
 20
3.244560
  0
VERTEX
  8
0
  6
CONTINUOUS
 10
3.446520
 20
3.234880
  0
VERTEX
  8
0
  6
CONTINUOUS
 10
3.435080
 20
3.223440
  0
VERTEX
  8
0
  6
CONTINUOUS
 10
3.422760
 20
3.210240
  0
VERTEX
  8
0
  6
CONTINUOUS
 10
3.410000
 20
3.194840
  0
VERTEX
  8
0
  6
CONTINUOUS
 10
3.403400
 20
3.186480
  0
VERTEX
  8
0
  6
CONTINUOUS
 10
3.396360
 20
3.177680
  0
VERTEX
  8
0
  6
CONTINUOUS
 10
3.381840
 20
3.160080
  0
VERTEX
  8
0
  6
CONTINUOUS
 10
3.366440
 20
3.144240
  0
VERTEX
  8
0
  6
CONTINUOUS
 10
3.350160
 20
3.130160
  0
VERTEX
  8
0
  6
CONTINUOUS
 10
3.333880
 20
3.117840
  0
VERTEX
  8
0
  6
CONTINUOUS
 10
3.317160
 20
3.106840
  0
VERTEX
  8
0
  6
CONTINUOUS
 10
3.300000
 20
3.097160
  0
VERTEX
  8
0
  6
CONTINUOUS
 10
3.282840
 20
3.088800
  0
VERTEX
  8
0
  6
CONTINUOUS
 10
3.265680
 20
3.081320
  0
VERTEX
  8
0
  6
CONTINUOUS
 10
3.248520
 20
3.075600
  0
VERTEX
  8
0
  6
CONTINUOUS
 10
3.231360
 20
3.070760
  0
VERTEX
  8
0
  6
CONTINUOUS
 10
3.214640
 20
3.066360
  0
VERTEX
  8
0
  6
CONTINUOUS
 10
3.198360
 20
3.063280
  0
VERTEX
  8
0
  6
CONTINUOUS
 10
3.182520
 20
3.061080
  0
VERTEX
  8
0
  6
CONTINUOUS
 10
3.167120
 20
3.059320
  0
VERTEX
  8
0
  6
CONTINUOUS
 10
3.152600
 20
3.058440
  0
VERTEX
  8
0
  6
CONTINUOUS
 10
3.138960
 20
3.058000
  0
VERTEX
  8
0
  6
CONTINUOUS
 10
3.138960
 20
2.932160
  0
VERTEX
  8
0
  6
CONTINUOUS
 10
3.770800
 20
2.932160
  0
VERTEX
  8
0
  6
CONTINUOUS
 10
3.770800
 20
3.428480
  0
VERTEX
  8
0
  6
CONTINUOUS
 10
3.718880
 20
3.428480
  0
VERTEX
  8
0
  6
CONTINUOUS
 10
3.712720
 20
3.428480
  0
VERTEX
  8
0
  6
CONTINUOUS
 10
3.707440
 20
3.428040
  0
VERTEX
  8
0
  6
CONTINUOUS
 10
3.702160
 20
3.427160
  0
VERTEX
  8
0
  6
CONTINUOUS
 10
3.697320
 20
3.425840
  0
VERTEX
  8
0
  6
CONTINUOUS
 10
3.692920
 20
3.423640
  0
VERTEX
  8
0
  6
CONTINUOUS
 10
3.688520
 20
3.420560
  0
VERTEX
  8
0
  6
CONTINUOUS
 10
3.684120
 20
3.416600
  0
VERTEX
  8
0
  6
CONTINUOUS
 10
3.679720
 20
3.410880
  0
SEQEND
  8
0
  0
SOLID
  8
0
 62
    15
 10
3.686760
 20
4.477880
 11
4.335320
 21
4.850120
 12
3.720640
 22
4.457200
 13
4.369200
 23
4.829440
  0
POLYLINE
  8
0
  6
CONTINUOUS
 66
     1
 40
0.000000
 41
0.000000
  0
VERTEX
  8
0
  6
CONTINUOUS
 10
3.686760
 20
4.477880
  0
VERTEX
  8
0
  6
CONTINUOUS
 10
4.335320
 20
4.850120
  0
VERTEX
  8
0
  6
CONTINUOUS
 10
4.369200
 20
4.829440
  0
VERTEX
  8
0
  6
CONTINUOUS
 10
3.720640
 20
4.457200
  0
VERTEX
  8
0
  6
CONTINUOUS
 10
3.686760
 20
4.477880
  0
SEQEND
  8
0
  0
SOLID
  8
0
 62
    15
 10
3.424080
 20
4.658280
 11
4.072200
 21
5.030520
 12
3.456640
 22
4.650360
 13
4.104760
 23
5.022600
  0
POLYLINE
  8
0
  6
CONTINUOUS
 66
     1
 40
0.000000
 41
0.000000
  0
VERTEX
  8
0
  6
CONTINUOUS
 10
3.424080
 20
4.658280
  0
VERTEX
  8
0
  6
CONTINUOUS
 10
4.072200
 20
5.030520
  0
VERTEX
  8
0
  6
CONTINUOUS
 10
4.104760
 20
5.022600
  0
VERTEX
  8
0
  6
CONTINUOUS
 10
3.456640
 20
4.650360
  0
VERTEX
  8
0
  6
CONTINUOUS
 10
3.424080
 20
4.658280
  0
SEQEND
  8
0
  0
SOLID
  8
0
 62
    15
 10
3.456640
 20
4.650360
 11
4.104760
 21
5.022600
 12
3.484360
 22
4.643320
 13
4.132920
 23
5.015560
  0
POLYLINE
  8
0
  6
CONTINUOUS
 66
     1
 40
0.000000
 41
0.000000
  0
VERTEX
  8
0
  6
CONTINUOUS
 10
3.456640
 20
4.650360
  0
VERTEX
  8
0
  6
CONTINUOUS
 10
4.104760
 20
5.022600
  0
VERTEX
  8
0
  6
CONTINUOUS
 10
4.132920
 20
5.015560
  0
VERTEX
  8
0
  6
CONTINUOUS
 10
3.484360
 20
4.643320
  0
VERTEX
  8
0
  6
CONTINUOUS
 10
3.456640
 20
4.650360
  0
SEQEND
  8
0
  0
SOLID
  8
0
 62
    15
 10
3.484360
 20
4.643320
 11
4.132920
 21
5.015560
 12
3.508560
 22
4.635840
 13
4.157120
 23
5.008080
  0
POLYLINE
  8
0
  6
CONTINUOUS
 66
     1
 40
0.000000
 41
0.000000
  0
VERTEX
  8
0
  6
CONTINUOUS
 10
3.484360
 20
4.643320
  0
VERTEX
  8
0
  6
CONTINUOUS
 10
4.132920
 20
5.015560
  0
VERTEX
  8
0
  6
CONTINUOUS
 10
4.157120
 20
5.008080
  0
VERTEX
  8
0
  6
CONTINUOUS
 10
3.508560
 20
4.635840
  0
VERTEX
  8
0
  6
CONTINUOUS
 10
3.484360
 20
4.643320
  0
SEQEND
  8
0
  0
SOLID
  8
0
 62
    15
 10
3.508560
 20
4.635840
 11
4.157120
 21
5.008080
 12
3.531000
 22
4.626160
 13
4.179560
 23
4.998400
  0
POLYLINE
  8
0
  6
CONTINUOUS
 66
     1
 40
0.000000
 41
0.000000
  0
VERTEX
  8
0
  6
CONTINUOUS
 10
3.508560
 20
4.635840
  0
VERTEX
  8
0
  6
CONTINUOUS
 10
4.157120
 20
5.008080
  0
VERTEX
  8
0
  6
CONTINUOUS
 10
4.179560
 20
4.998400
  0
VERTEX
  8
0
  6
CONTINUOUS
 10
3.531000
 20
4.626160
  0
VERTEX
  8
0
  6
CONTINUOUS
 10
3.508560
 20
4.635840
  0
SEQEND
  8
0
  0
SOLID
  8
0
 62
    15
 10
3.531000
 20
4.626160
 11
4.179560
 21
4.998400
 12
3.552560
 22
4.612960
 13
4.200680
 23
4.985200
  0
POLYLINE
  8
0
  6
CONTINUOUS
 66
     1
 40
0.000000
 41
0.000000
  0
VERTEX
  8
0
  6
CONTINUOUS
 10
3.531000
 20
4.626160
  0
VERTEX
  8
0
  6
CONTINUOUS
 10
4.179560
 20
4.998400
  0
VERTEX
  8
0
  6
CONTINUOUS
 10
4.200680
 20
4.985200
  0
VERTEX
  8
0
  6
CONTINUOUS
 10
3.552560
 20
4.612960
  0
VERTEX
  8
0
  6
CONTINUOUS
 10
3.531000
 20
4.626160
  0
SEQEND
  8
0
  0
SOLID
  8
0
 62
    15
 10
3.552560
 20
4.612960
 11
4.200680
 21
4.985200
 12
3.574120
 22
4.594920
 13
4.222680
 23
4.967160
  0
POLYLINE
  8
0
  6
CONTINUOUS
 66
     1
 40
0.000000
 41
0.000000
  0
VERTEX
  8
0
  6
CONTINUOUS
 10
3.552560
 20
4.612960
  0
VERTEX
  8
0
  6
CONTINUOUS
 10
4.200680
 20
4.985200
  0
VERTEX
  8
0
  6
CONTINUOUS
 10
4.222680
 20
4.967160
  0
VERTEX
  8
0
  6
CONTINUOUS
 10
3.574120
 20
4.594920
  0
VERTEX
  8
0
  6
CONTINUOUS
 10
3.552560
 20
4.612960
  0
SEQEND
  8
0
  0
SOLID
  8
0
 62
    15
 10
3.574120
 20
4.594920
 11
4.222680
 21
4.967160
 12
3.597880
 22
4.570280
 13
4.246440
 23
4.942520
  0
POLYLINE
  8
0
  6
CONTINUOUS
 66
     1
 40
0.000000
 41
0.000000
  0
VERTEX
  8
0
  6
CONTINUOUS
 10
3.574120
 20
4.594920
  0
VERTEX
  8
0
  6
CONTINUOUS
 10
4.222680
 20
4.967160
  0
VERTEX
  8
0
  6
CONTINUOUS
 10
4.246440
 20
4.942520
  0
VERTEX
  8
0
  6
CONTINUOUS
 10
3.597880
 20
4.570280
  0
VERTEX
  8
0
  6
CONTINUOUS
 10
3.574120
 20
4.594920
  0
SEQEND
  8
0
  0
SOLID
  8
0
 62
    15
 10
3.597880
 20
4.570280
 11
4.246440
 21
4.942520
 12
3.610640
 22
4.554880
 13
4.259200
 23
4.927120
  0
POLYLINE
  8
0
  6
CONTINUOUS
 66
     1
 40
0.000000
 41
0.000000
  0
VERTEX
  8
0
  6
CONTINUOUS
 10
3.597880
 20
4.570280
  0
VERTEX
  8
0
  6
CONTINUOUS
 10
4.246440
 20
4.942520
  0
VERTEX
  8
0
  6
CONTINUOUS
 10
4.259200
 20
4.927120
  0
VERTEX
  8
0
  6
CONTINUOUS
 10
3.610640
 20
4.554880
  0
VERTEX
  8
0
  6
CONTINUOUS
 10
3.597880
 20
4.570280
  0
SEQEND
  8
0
  0
SOLID
  8
0
 62
    15
 10
3.610640
 20
4.554880
 11
4.259200
 21
4.927120
 12
3.624280
 22
4.537720
 13
4.272840
 23
4.909960
  0
POLYLINE
  8
0
  6
CONTINUOUS
 66
     1
 40
0.000000
 41
0.000000
  0
VERTEX
  8
0
  6
CONTINUOUS
 10
3.610640
 20
4.554880
  0
VERTEX
  8
0
  6
CONTINUOUS
 10
4.259200
 20
4.927120
  0
VERTEX
  8
0
  6
CONTINUOUS
 10
4.272840
 20
4.909960
  0
VERTEX
  8
0
  6
CONTINUOUS
 10
3.624280
 20
4.537720
  0
VERTEX
  8
0
  6
CONTINUOUS
 10
3.610640
 20
4.554880
  0
SEQEND
  8
0
  0
SOLID
  8
0
 62
    15
 10
3.624280
 20
4.537720
 11
4.272840
 21
4.909960
 12
3.654200
 22
4.504280
 13
4.302760
 23
4.876520
  0
POLYLINE
  8
0
  6
CONTINUOUS
 66
     1
 40
0.000000
 41
0.000000
  0
VERTEX
  8
0
  6
CONTINUOUS
 10
3.624280
 20
4.537720
  0
VERTEX
  8
0
  6
CONTINUOUS
 10
4.272840
 20
4.909960
  0
VERTEX
  8
0
  6
CONTINUOUS
 10
4.302760
 20
4.876520
  0
VERTEX
  8
0
  6
CONTINUOUS
 10
3.654200
 20
4.504280
  0
VERTEX
  8
0
  6
CONTINUOUS
 10
3.624280
 20
4.537720
  0
SEQEND
  8
0
  0
SOLID
  8
0
 62
    15
 10
3.654200
 20
4.504280
 11
4.302760
 21
4.876520
 12
3.686760
 22
4.477880
 13
4.335320
 23
4.850120
  0
POLYLINE
  8
0
  6
CONTINUOUS
 66
     1
 40
0.000000
 41
0.000000
  0
VERTEX
  8
0
  6
CONTINUOUS
 10
3.654200
 20
4.504280
  0
VERTEX
  8
0
  6
CONTINUOUS
 10
4.302760
 20
4.876520
  0
VERTEX
  8
0
  6
CONTINUOUS
 10
4.335320
 20
4.850120
  0
VERTEX
  8
0
  6
CONTINUOUS
 10
3.686760
 20
4.477880
  0
VERTEX
  8
0
  6
CONTINUOUS
 10
3.654200
 20
4.504280
  0
SEQEND
  8
0
  0
SOLID
  8
0
 62
    15
 10
3.340920
 20
4.770920
 11
3.989480
 21
5.143160
 12
3.424080
 22
4.658280
 13
4.072200
 23
5.030520
  0
POLYLINE
  8
0
  6
CONTINUOUS
 66
     1
 40
0.000000
 41
0.000000
  0
VERTEX
  8
0
  6
CONTINUOUS
 10
3.340920
 20
4.770920
  0
VERTEX
  8
0
  6
CONTINUOUS
 10
3.989480
 20
5.143160
  0
VERTEX
  8
0
  6
CONTINUOUS
 10
4.072200
 20
5.030520
  0
VERTEX
  8
0
  6
CONTINUOUS
 10
3.424080
 20
4.658280
  0
VERTEX
  8
0
  6
CONTINUOUS
 10
3.340920
 20
4.770920
  0
SEQEND
  8
0
  0
SOLID
  8
0
 62
    15
 10
3.720640
 20
4.457200
 11
4.369200
 21
4.829440
 12
3.755400
 22
4.441360
 13
4.403520
 23
4.813600
  0
POLYLINE
  8
0
  6
CONTINUOUS
 66
     1
 40
0.000000
 41
0.000000
  0
VERTEX
  8
0
  6
CONTINUOUS
 10
3.720640
 20
4.457200
  0
VERTEX
  8
0
  6
CONTINUOUS
 10
4.369200
 20
4.829440
  0
VERTEX
  8
0
  6
CONTINUOUS
 10
4.403520
 20
4.813600
  0
VERTEX
  8
0
  6
CONTINUOUS
 10
3.755400
 20
4.441360
  0
VERTEX
  8
0
  6
CONTINUOUS
 10
3.720640
 20
4.457200
  0
SEQEND
  8
0
  0
SOLID
  8
0
 62
    15
 10
3.755400
 20
4.441360
 11
4.403520
 21
4.813600
 12
3.789280
 22
4.430360
 13
4.437840
 23
4.802600
  0
POLYLINE
  8
0
  6
CONTINUOUS
 66
     1
 40
0.000000
 41
0.000000
  0
VERTEX
  8
0
  6
CONTINUOUS
 10
3.755400
 20
4.441360
  0
VERTEX
  8
0
  6
CONTINUOUS
 10
4.403520
 20
4.813600
  0
VERTEX
  8
0
  6
CONTINUOUS
 10
4.437840
 20
4.802600
  0
VERTEX
  8
0
  6
CONTINUOUS
 10
3.789280
 20
4.430360
  0
VERTEX
  8
0
  6
CONTINUOUS
 10
3.755400
 20
4.441360
  0
SEQEND
  8
0
  0
SOLID
  8
0
 62
    15
 10
3.789280
 20
4.430360
 11
4.437840
 21
4.802600
 12
3.822720
 22
4.423320
 13
4.470840
 23
4.795560
  0
POLYLINE
  8
0
  6
CONTINUOUS
 66
     1
 40
0.000000
 41
0.000000
  0
VERTEX
  8
0
  6
CONTINUOUS
 10
3.789280
 20
4.430360
  0
VERTEX
  8
0
  6
CONTINUOUS
 10
4.437840
 20
4.802600
  0
VERTEX
  8
0
  6
CONTINUOUS
 10
4.470840
 20
4.795560
  0
VERTEX
  8
0
  6
CONTINUOUS
 10
3.822720
 20
4.423320
  0
VERTEX
  8
0
  6
CONTINUOUS
 10
3.789280
 20
4.430360
  0
SEQEND
  8
0
  0
SOLID
  8
0
 62
    15
 10
3.822720
 20
4.423320
 11
4.470840
 21
4.795560
 12
3.853520
 22
4.419800
 13
4.502080
 23
4.792040
  0
POLYLINE
  8
0
  6
CONTINUOUS
 66
     1
 40
0.000000
 41
0.000000
  0
VERTEX
  8
0
  6
CONTINUOUS
 10
3.822720
 20
4.423320
  0
VERTEX
  8
0
  6
CONTINUOUS
 10
4.470840
 20
4.795560
  0
VERTEX
  8
0
  6
CONTINUOUS
 10
4.502080
 20
4.792040
  0
VERTEX
  8
0
  6
CONTINUOUS
 10
3.853520
 20
4.419800
  0
VERTEX
  8
0
  6
CONTINUOUS
 10
3.822720
 20
4.423320
  0
SEQEND
  8
0
  0
SOLID
  8
0
 62
    15
 10
3.853520
 20
4.419800
 11
4.502080
 21
4.792040
 12
3.881680
 22
4.418040
 13
4.530240
 23
4.790280
  0
POLYLINE
  8
0
  6
CONTINUOUS
 66
     1
 40
0.000000
 41
0.000000
  0
VERTEX
  8
0
  6
CONTINUOUS
 10
3.853520
 20
4.419800
  0
VERTEX
  8
0
  6
CONTINUOUS
 10
4.502080
 20
4.792040
  0
VERTEX
  8
0
  6
CONTINUOUS
 10
4.530240
 20
4.790280
  0
VERTEX
  8
0
  6
CONTINUOUS
 10
3.881680
 20
4.418040
  0
VERTEX
  8
0
  6
CONTINUOUS
 10
3.853520
 20
4.419800
  0
SEQEND
  8
0
  0
SOLID
  8
0
 62
    15
 10
3.881680
 20
4.418040
 11
4.530240
 21
4.790280
 12
3.881680
 22
4.292200
 13
4.530240
 23
4.664000
  0
POLYLINE
  8
0
  6
CONTINUOUS
 66
     1
 40
0.000000
 41
0.000000
  0
VERTEX
  8
0
  6
CONTINUOUS
 10
3.881680
 20
4.418040
  0
VERTEX
  8
0
  6
CONTINUOUS
 10
4.530240
 20
4.790280
  0
VERTEX
  8
0
  6
CONTINUOUS
 10
4.530240
 20
4.664000
  0
VERTEX
  8
0
  6
CONTINUOUS
 10
3.881680
 20
4.292200
  0
VERTEX
  8
0
  6
CONTINUOUS
 10
3.881680
 20
4.418040
  0
SEQEND
  8
0
  0
SOLID
  8
0
 62
    15
 10
3.249840
 20
4.788520
 11
3.898400
 21
5.160320
 12
3.301760
 22
4.788520
 13
3.950320
 23
5.160320
  0
POLYLINE
  8
0
  6
CONTINUOUS
 66
     1
 40
0.000000
 41
0.000000
  0
VERTEX
  8
0
  6
CONTINUOUS
 10
3.249840
 20
4.788520
  0
VERTEX
  8
0
  6
CONTINUOUS
 10
3.898400
 20
5.160320
  0
VERTEX
  8
0
  6
CONTINUOUS
 10
3.950320
 20
5.160320
  0
VERTEX
  8
0
  6
CONTINUOUS
 10
3.301760
 20
4.788520
  0
VERTEX
  8
0
  6
CONTINUOUS
 10
3.249840
 20
4.788520
  0
SEQEND
  8
0
  0
SOLID
  8
0
 62
    15
 10
3.301760
 20
4.788520
 11
3.950320
 21
5.160320
 12
3.313640
 22
4.788080
 13
3.962200
 23
5.160320
  0
POLYLINE
  8
0
  6
CONTINUOUS
 66
     1
 40
0.000000
 41
0.000000
  0
VERTEX
  8
0
  6
CONTINUOUS
 10
3.301760
 20
4.788520
  0
VERTEX
  8
0
  6
CONTINUOUS
 10
3.950320
 20
5.160320
  0
VERTEX
  8
0
  6
CONTINUOUS
 10
3.962200
 20
5.160320
  0
VERTEX
  8
0
  6
CONTINUOUS
 10
3.313640
 20
4.788080
  0
VERTEX
  8
0
  6
CONTINUOUS
 10
3.301760
 20
4.788520
  0
SEQEND
  8
0
  0
SOLID
  8
0
 62
    15
 10
3.313640
 20
4.788080
 11
3.962200
 21
5.160320
 12
3.323320
 22
4.785880
 13
3.971880
 23
5.158120
  0
POLYLINE
  8
0
  6
CONTINUOUS
 66
     1
 40
0.000000
 41
0.000000
  0
VERTEX
  8
0
  6
CONTINUOUS
 10
3.313640
 20
4.788080
  0
VERTEX
  8
0
  6
CONTINUOUS
 10
3.962200
 20
5.160320
  0
VERTEX
  8
0
  6
CONTINUOUS
 10
3.971880
 20
5.158120
  0
VERTEX
  8
0
  6
CONTINUOUS
 10
3.323320
 20
4.785880
  0
VERTEX
  8
0
  6
CONTINUOUS
 10
3.313640
 20
4.788080
  0
SEQEND
  8
0
  0
SOLID
  8
0
 62
    15
 10
3.323320
 20
4.785880
 11
3.971880
 21
5.158120
 12
3.332120
 22
4.781040
 13
3.980680
 23
5.152840
  0
POLYLINE
  8
0
  6
CONTINUOUS
 66
     1
 40
0.000000
 41
0.000000
  0
VERTEX
  8
0
  6
CONTINUOUS
 10
3.323320
 20
4.785880
  0
VERTEX
  8
0
  6
CONTINUOUS
 10
3.971880
 20
5.158120
  0
VERTEX
  8
0
  6
CONTINUOUS
 10
3.980680
 20
5.152840
  0
VERTEX
  8
0
  6
CONTINUOUS
 10
3.332120
 20
4.781040
  0
VERTEX
  8
0
  6
CONTINUOUS
 10
3.323320
 20
4.785880
  0
SEQEND
  8
0
  0
SOLID
  8
0
 62
    15
 10
3.332120
 20
4.781040
 11
3.980680
 21
5.152840
 12
3.340920
 22
4.770920
 13
3.989480
 23
5.143160
  0
POLYLINE
  8
0
  6
CONTINUOUS
 66
     1
 40
0.000000
 41
0.000000
  0
VERTEX
  8
0
  6
CONTINUOUS
 10
3.332120
 20
4.781040
  0
VERTEX
  8
0
  6
CONTINUOUS
 10
3.980680
 20
5.152840
  0
VERTEX
  8
0
  6
CONTINUOUS
 10
3.989480
 20
5.143160
  0
VERTEX
  8
0
  6
CONTINUOUS
 10
3.340920
 20
4.770920
  0
VERTEX
  8
0
  6
CONTINUOUS
 10
3.332120
 20
4.781040
  0
SEQEND
  8
0
  0
POLYLINE
  8
0
  6
CONTINUOUS
 66
     1
 40
0.000000
 41
0.000000
  0
VERTEX
  8
0
  6
CONTINUOUS
 10
3.340920
 20
4.770920
  0
VERTEX
  8
0
  6
CONTINUOUS
 10
3.989480
 20
5.143160
  0
VERTEX
  8
0
  6
CONTINUOUS
 10
3.340920
 20
4.770920
  0
SEQEND
  8
0
  0
POLYLINE
  8
0
  6
CONTINUOUS
 66
     1
 40
0.000000
 41
0.000000
  0
VERTEX
  8
0
  6
CONTINUOUS
 10
3.340920
 20
4.770920
  0
VERTEX
  8
0
  6
CONTINUOUS
 10
3.424080
 20
4.658280
  0
VERTEX
  8
0
  6
CONTINUOUS
 10
3.456640
 20
4.650360
  0
VERTEX
  8
0
  6
CONTINUOUS
 10
3.484360
 20
4.643320
  0
VERTEX
  8
0
  6
CONTINUOUS
 10
3.508560
 20
4.635840
  0
VERTEX
  8
0
  6
CONTINUOUS
 10
3.531000
 20
4.626160
  0
VERTEX
  8
0
  6
CONTINUOUS
 10
3.552560
 20
4.612960
  0
VERTEX
  8
0
  6
CONTINUOUS
 10
3.574120
 20
4.594920
  0
VERTEX
  8
0
  6
CONTINUOUS
 10
3.597880
 20
4.570280
  0
VERTEX
  8
0
  6
CONTINUOUS
 10
3.610640
 20
4.554880
  0
VERTEX
  8
0
  6
CONTINUOUS
 10
3.624280
 20
4.537720
  0
VERTEX
  8
0
  6
CONTINUOUS
 10
3.654200
 20
4.504280
  0
VERTEX
  8
0
  6
CONTINUOUS
 10
3.686760
 20
4.477880
  0
VERTEX
  8
0
  6
CONTINUOUS
 10
3.720640
 20
4.457200
  0
VERTEX
  8
0
  6
CONTINUOUS
 10
3.755400
 20
4.441360
  0
VERTEX
  8
0
  6
CONTINUOUS
 10
3.789280
 20
4.430360
  0
VERTEX
  8
0
  6
CONTINUOUS
 10
3.822720
 20
4.423320
  0
VERTEX
  8
0
  6
CONTINUOUS
 10
3.853520
 20
4.419800
  0
VERTEX
  8
0
  6
CONTINUOUS
 10
3.881680
 20
4.418040
  0
VERTEX
  8
0
  6
CONTINUOUS
 10
3.881680
 20
4.292200
  0
VERTEX
  8
0
  6
CONTINUOUS
 10
3.249840
 20
4.292200
  0
VERTEX
  8
0
  6
CONTINUOUS
 10
3.249840
 20
4.788520
  0
VERTEX
  8
0
  6
CONTINUOUS
 10
3.301760
 20
4.788520
  0
VERTEX
  8
0
  6
CONTINUOUS
 10
3.313640
 20
4.788080
  0
VERTEX
  8
0
  6
CONTINUOUS
 10
3.323320
 20
4.785880
  0
VERTEX
  8
0
  6
CONTINUOUS
 10
3.332120
 20
4.781040
  0
VERTEX
  8
0
  6
CONTINUOUS
 10
3.340920
 20
4.770920
  0
SEQEND
  8
0
  0
TEXT
  8
0
 10
3.548160
 20
4.057680
 40
0.138168
  1
BA  1277
 41
1.000000
  7
SN0
 71
     0
 72
     5
 11
4.230171
 21
4.057680
  0
TEXT
  8
0
 10
3.512520
 20
3.866280
 40
0.138168
  1
1/2" x 5/8"
 41
1.000000
  7
SN0
 71
     0
 72
     5
 11
4.265469
 21
3.866280
  0
TEXT
  8
0
 10
3.523520
 20
5.602960
 40
0.138168
  1
BA  1277
 41
1.000000
  7
SN0
 71
     0
 72
     5
 11
4.205531
 21
5.602960
  0
TEXT
  8
0
 10
3.487880
 20
5.411120
 40
0.138168
  1
1/2" x 5/8"
 41
1.000000
  7
SN0
 71
     0
 72
     5
 11
4.240829
 21
5.411120
  0
ENDSEC
  0
EOF
