  0
SECTION
  2
HEADER
  9
$ACADVER
  1
AC1006
  9
$EXTMIN
 10
1.877480
 20
1.784200
  9
$EXTMAX
 10
5.522000
 20
6.395400
  9
$LTSCALE
 40
0.044000
  9
$PDMODE
 70
    35
  9
$PDSIZE
 40
0.035200
  0
ENDSEC
  0
SECTION
  2
TABLES
  0
TABLE
  2
LTYPE
 70
     9
  0
LTYPE
  2
CONTINUOUS
 70
    64
  3
Solid line
 72
    65
 73
     0
 40
0.000000
  0
LTYPE
  2
DASHED
 70
    64
  3
__ __ __ __ __ __ __ __ __ __ __ __ __ __ __
 72
    65
 73
     2
 40
0.000330
 49
0.000220
 49
-0.000110
  0
LTYPE
  2
HIDDEN
 70
    64
  3
 _ _ _ _ _ _ _ _ _ _ _ _ _ _ _ _ _ _ _ _ _ _
 72
    65
 73
     2
 40
0.000165
 49
0.000110
 49
-0.000055
  0
LTYPE
  2
CENTER
 70
    64
  3
____ _ ____ _ ____ _ ____ _ ____ _ ____ _ ____
 72
    65
 73
     4
 40
0.000880
 49
0.000550
 49
-0.000110
 49
0.000110
 49
-0.000110
  0
LTYPE
  2
PHANTOM
 70
    64
  3
_____ _ _ _____ _ _ _____ _ _ _____ _ _ ____
 72
    65
 73
     6
 40
0.001100
 49
0.000550
 49
-0.000110
 49
0.000110
 49
-0.000110
 49
0.000110
 49
-0.000110
  0
LTYPE
  2
DOT
 70
    64
  3
...............................................
 72
    65
 73
     2
 40
0.000110
 49
0.000000
 49
-0.000110
  0
LTYPE
  2
DASHDOT
 70
    64
  3
__ . __ . __ . __ . __ . __ . __ . __ . __ . __
 72
    65
 73
     4
 40
0.000440
 49
0.000220
 49
-0.000110
 49
0.000000
 49
-0.000110
  0
LTYPE
  2
BORDER
 70
    64
  3
__ __ . __ __ . __ __ . __ __ . __ __ . __ __
 72
    65
 73
     6
 40
0.000770
 49
0.000220
 49
-0.000110
 49
0.000220
 49
-0.000110
 49
0.000000
 49
-0.000110
  0
LTYPE
  2
DIVIDE
 70
    64
  3
__ . . __ . . __ . . __ . . __ . . __ . . __
 72
    65
 73
     6
 40
0.000550
 49
0.000220
 49
-0.000110
 49
0.000000
 49
-0.000110
 49
0.000000
 49
-0.000110
  0
LTYPE
  2
DOTDOT
 70
    64
  3
 . .  . .  . .  . .  . .  . . 
 72
    65
 73
     5
 40
0.000242
 49
-0.000110
 49
0.000000
 49
-0.000110
 49
0.000000
 49
-0.000110
  0
ENDTAB
  0
TABLE
  2
STYLE
 70
     2
  0
STYLE
 70
     0
  2
SN0
 40
0.000000
 41
0.000440
 50
0.000000
 71
     0
 42
0.000000
  3
ROMAND
  0
STYLE
 70
    68
  2
SV0
 40
0.000000
 41
0.000440
 50
0.000000
 71
     0
 42
0.000000
  3
ROMAND
  0
ENDTAB
  0
TABLE
  2
LAYER
 70
     3
  0
LAYER
  2
FOREGROUND
 70
    64
 62
     7
  6
CONTINUOUS
  0
LAYER
  2
BACKGROUND
 70
    65
 62
    -7
  6
CONTINUOUS
  0
LAYER
  2
0
 70
    64
 62
     7
  6
CONTINUOUS
  0
ENDTAB
  0
ENDSEC
  0
SECTION
  2
ENTITIES
  0
POLYLINE
  8
FOREGROUND
  6
CONTINUOUS
 66
     1
 40
0.000000
 41
0.000000
  0
VERTEX
  8
FOREGROUND
  6
CONTINUOUS
 10
0.000000
 20
8.179600
  0
VERTEX
  8
FOREGROUND
  6
CONTINUOUS
 10
8.499920
 20
8.179600
  0
VERTEX
  8
FOREGROUND
  6
CONTINUOUS
 10
8.499920
 20
-2.820400
  0
VERTEX
  8
FOREGROUND
  6
CONTINUOUS
 10
0.000000
 20
-2.820400
  0
VERTEX
  8
FOREGROUND
  6
CONTINUOUS
 10
0.000000
 20
8.179600
  0
SEQEND
  8
0
  0
POLYLINE
  8
FOREGROUND
  6
CONTINUOUS
 66
     1
 40
0.000000
 41
0.000000
  0
VERTEX
  8
FOREGROUND
  6
CONTINUOUS
 10
0.000000
 20
8.179600
  0
VERTEX
  8
FOREGROUND
  6
CONTINUOUS
 10
8.499920
 20
8.179600
  0
VERTEX
  8
FOREGROUND
  6
CONTINUOUS
 10
8.499920
 20
-2.820400
  0
VERTEX
  8
FOREGROUND
  6
CONTINUOUS
 10
0.000000
 20
-2.820400
  0
VERTEX
  8
FOREGROUND
  6
CONTINUOUS
 10
0.000000
 20
8.179600
  0
SEQEND
  8
0
  0
POLYLINE
  8
0
  6
CONTINUOUS
 66
     1
 40
0.014080
 41
0.014080
  0
VERTEX
  8
0
  6
CONTINUOUS
 10
4.207720
 20
4.272400
  0
VERTEX
  8
0
  6
CONTINUOUS
 10
5.152400
 20
4.272400
  0
VERTEX
  8
0
  6
CONTINUOUS
 10
5.152400
 20
5.027000
  0
VERTEX
  8
0
  6
CONTINUOUS
 10
5.514960
 20
5.027000
  0
VERTEX
  8
0
  6
CONTINUOUS
 10
5.514960
 20
5.267240
  0
VERTEX
  8
0
  6
CONTINUOUS
 10
5.480640
 20
5.272080
  0
VERTEX
  8
0
  6
CONTINUOUS
 10
5.449400
 20
5.280440
  0
VERTEX
  8
0
  6
CONTINUOUS
 10
5.422120
 20
5.291880
  0
VERTEX
  8
0
  6
CONTINUOUS
 10
5.397920
 20
5.306840
  0
VERTEX
  8
0
  6
CONTINUOUS
 10
5.376360
 20
5.324000
  0
VERTEX
  8
0
  6
CONTINUOUS
 10
5.357440
 20
5.343360
  0
VERTEX
  8
0
  6
CONTINUOUS
 10
5.333240
 20
5.376800
  0
VERTEX
  8
0
  6
CONTINUOUS
 10
5.313440
 20
5.413760
  0
VERTEX
  8
0
  6
CONTINUOUS
 10
5.292320
 20
5.467440
  0
VERTEX
  8
0
  6
CONTINUOUS
 10
5.266360
 20
5.552800
  0
VERTEX
  8
0
  6
CONTINUOUS
 10
5.247000
 20
5.620560
  0
VERTEX
  8
0
  6
CONTINUOUS
 10
5.232040
 20
5.651360
  0
VERTEX
  8
0
  6
CONTINUOUS
 10
5.211360
 20
5.681720
  0
VERTEX
  8
0
  6
CONTINUOUS
 10
5.184520
 20
5.710320
  0
VERTEX
  8
0
  6
CONTINUOUS
 10
5.141840
 20
5.745960
  0
VERTEX
  8
0
  6
CONTINUOUS
 10
5.091240
 20
5.777200
  0
VERTEX
  8
0
  6
CONTINUOUS
 10
5.063960
 20
5.790840
  0
VERTEX
  8
0
  6
CONTINUOUS
 10
5.005440
 20
5.814160
  0
VERTEX
  8
0
  6
CONTINUOUS
 10
4.974640
 20
5.823400
  0
VERTEX
  8
0
  6
CONTINUOUS
 10
4.942960
 20
5.830880
  0
VERTEX
  8
0
  6
CONTINUOUS
 10
4.910840
 20
5.836600
  0
VERTEX
  8
0
  6
CONTINUOUS
 10
4.878280
 20
5.840120
  0
VERTEX
  8
0
  6
CONTINUOUS
 10
4.845280
 20
5.841440
  0
VERTEX
  8
0
  6
CONTINUOUS
 10
4.812720
 20
5.840560
  0
VERTEX
  8
0
  6
CONTINUOUS
 10
4.763880
 20
5.834400
  0
VERTEX
  8
0
  6
CONTINUOUS
 10
4.715920
 20
5.822960
  0
VERTEX
  8
0
  6
CONTINUOUS
 10
4.669720
 20
5.804920
  0
VERTEX
  8
0
  6
CONTINUOUS
 10
4.625720
 20
5.780280
  0
VERTEX
  8
0
  6
CONTINUOUS
 10
4.597560
 20
5.760040
  0
VERTEX
  8
0
  6
CONTINUOUS
 10
4.571160
 20
5.736720
  0
VERTEX
  8
0
  6
CONTINUOUS
 10
4.534200
 20
5.694920
  0
VERTEX
  8
0
  6
CONTINUOUS
 10
4.501640
 20
5.645200
  0
VERTEX
  8
0
  6
CONTINUOUS
 10
4.482720
 20
5.607360
  0
VERTEX
  8
0
  6
CONTINUOUS
 10
4.465560
 20
5.565560
  0
VERTEX
  8
0
  6
CONTINUOUS
 10
4.451480
 20
5.519800
  0
VERTEX
  8
0
  6
CONTINUOUS
 10
4.329600
 20
5.519800
  0
VERTEX
  8
0
  6
CONTINUOUS
 10
4.328280
 20
5.488560
  0
VERTEX
  8
0
  6
CONTINUOUS
 10
4.323880
 20
5.458200
  0
VERTEX
  8
0
  6
CONTINUOUS
 10
4.315520
 20
5.428720
  0
VERTEX
  8
0
  6
CONTINUOUS
 10
4.303640
 20
5.400560
  0
VERTEX
  8
0
  6
CONTINUOUS
 10
4.287360
 20
5.374160
  0
VERTEX
  8
0
  6
CONTINUOUS
 10
4.266240
 20
5.349960
  0
VERTEX
  8
0
  6
CONTINUOUS
 10
4.239840
 20
5.327960
  0
VERTEX
  8
0
  6
CONTINUOUS
 10
4.207720
 20
5.308600
  0
VERTEX
  8
0
  6
CONTINUOUS
 10
4.207720
 20
4.272400
  0
SEQEND
  8
0
  0
POLYLINE
  8
0
  6
CONTINUOUS
 66
     1
 40
0.000000
 41
0.000000
  0
VERTEX
  8
0
  6
CONTINUOUS
 10
1.963280
 20
1.784200
  0
VERTEX
  8
0
  6
CONTINUOUS
 10
2.907960
 20
1.784200
  0
VERTEX
  8
0
  6
CONTINUOUS
 10
2.907960
 20
2.538800
  0
VERTEX
  8
0
  6
CONTINUOUS
 10
3.270520
 20
2.538800
  0
VERTEX
  8
0
  6
CONTINUOUS
 10
3.270520
 20
2.779480
  0
VERTEX
  8
0
  6
CONTINUOUS
 10
3.236200
 20
2.784320
  0
VERTEX
  8
0
  6
CONTINUOUS
 10
3.204960
 20
2.792680
  0
VERTEX
  8
0
  6
CONTINUOUS
 10
3.177680
 20
2.804120
  0
VERTEX
  8
0
  6
CONTINUOUS
 10
3.153480
 20
2.818640
  0
VERTEX
  8
0
  6
CONTINUOUS
 10
3.122240
 20
2.845480
  0
VERTEX
  8
0
  6
CONTINUOUS
 10
3.096280
 20
2.877160
  0
VERTEX
  8
0
  6
CONTINUOUS
 10
3.081760
 20
2.900920
  0
VERTEX
  8
0
  6
CONTINUOUS
 10
3.069000
 20
2.926000
  0
VERTEX
  8
0
  6
CONTINUOUS
 10
3.047880
 20
2.979680
  0
VERTEX
  8
0
  6
CONTINUOUS
 10
3.021920
 20
3.065040
  0
VERTEX
  8
0
  6
CONTINUOUS
 10
3.002560
 20
3.132360
  0
VERTEX
  8
0
  6
CONTINUOUS
 10
2.987600
 20
3.163160
  0
VERTEX
  8
0
  6
CONTINUOUS
 10
2.966920
 20
3.193520
  0
VERTEX
  8
0
  6
CONTINUOUS
 10
2.940080
 20
3.222120
  0
VERTEX
  8
0
  6
CONTINUOUS
 10
2.919840
 20
3.240600
  0
VERTEX
  8
0
  6
CONTINUOUS
 10
2.897400
 20
3.257760
  0
VERTEX
  8
0
  6
CONTINUOUS
 10
2.846800
 20
3.289000
  0
VERTEX
  8
0
  6
CONTINUOUS
 10
2.819520
 20
3.303080
  0
VERTEX
  8
0
  6
CONTINUOUS
 10
2.761000
 20
3.326400
  0
VERTEX
  8
0
  6
CONTINUOUS
 10
2.730200
 20
3.335640
  0
VERTEX
  8
0
  6
CONTINUOUS
 10
2.698520
 20
3.343120
  0
VERTEX
  8
0
  6
CONTINUOUS
 10
2.666400
 20
3.348400
  0
VERTEX
  8
0
  6
CONTINUOUS
 10
2.633840
 20
3.351920
  0
VERTEX
  8
0
  6
CONTINUOUS
 10
2.600840
 20
3.353240
  0
VERTEX
  8
0
  6
CONTINUOUS
 10
2.568280
 20
3.352360
  0
VERTEX
  8
0
  6
CONTINUOUS
 10
2.519440
 20
3.346640
  0
VERTEX
  8
0
  6
CONTINUOUS
 10
2.487320
 20
3.339600
  0
VERTEX
  8
0
  6
CONTINUOUS
 10
2.440680
 20
3.323760
  0
VERTEX
  8
0
  6
CONTINUOUS
 10
2.410320
 20
3.309680
  0
VERTEX
  8
0
  6
CONTINUOUS
 10
2.366760
 20
3.282840
  0
VERTEX
  8
0
  6
CONTINUOUS
 10
2.339480
 20
3.260840
  0
VERTEX
  8
0
  6
CONTINUOUS
 10
2.301640
 20
3.221680
  0
VERTEX
  8
0
  6
CONTINUOUS
 10
2.278320
 20
3.190880
  0
VERTEX
  8
0
  6
CONTINUOUS
 10
2.257200
 20
3.157000
  0
VERTEX
  8
0
  6
CONTINUOUS
 10
2.229480
 20
3.098920
  0
VERTEX
  8
0
  6
CONTINUOUS
 10
2.214080
 20
3.054920
  0
VERTEX
  8
0
  6
CONTINUOUS
 10
2.207040
 20
3.031600
  0
VERTEX
  8
0
  6
CONTINUOUS
 10
2.085160
 20
3.031600
  0
VERTEX
  8
0
  6
CONTINUOUS
 10
2.083840
 20
3.000360
  0
VERTEX
  8
0
  6
CONTINUOUS
 10
2.079000
 20
2.970000
  0
VERTEX
  8
0
  6
CONTINUOUS
 10
2.071080
 20
2.940960
  0
VERTEX
  8
0
  6
CONTINUOUS
 10
2.059200
 20
2.912800
  0
VERTEX
  8
0
  6
CONTINUOUS
 10
2.042480
 20
2.886400
  0
VERTEX
  8
0
  6
CONTINUOUS
 10
2.021360
 20
2.862200
  0
VERTEX
  8
0
  6
CONTINUOUS
 10
1.994960
 20
2.839760
  0
VERTEX
  8
0
  6
CONTINUOUS
 10
1.963280
 20
2.820400
  0
VERTEX
  8
0
  6
CONTINUOUS
 10
1.963280
 20
1.784200
  0
SEQEND
  8
0
  0
POLYLINE
  8
0
  6
CONTINUOUS
 66
     1
 40
0.000000
 41
0.000000
  0
VERTEX
  8
0
  6
CONTINUOUS
 10
5.334120
 20
1.786400
  0
VERTEX
  8
0
  6
CONTINUOUS
 10
4.389440
 20
1.786400
  0
VERTEX
  8
0
  6
CONTINUOUS
 10
4.389440
 20
2.541000
  0
VERTEX
  8
0
  6
CONTINUOUS
 10
4.026880
 20
2.541000
  0
VERTEX
  8
0
  6
CONTINUOUS
 10
4.026880
 20
2.781240
  0
VERTEX
  8
0
  6
CONTINUOUS
 10
4.061200
 20
2.786080
  0
VERTEX
  8
0
  6
CONTINUOUS
 10
4.092440
 20
2.794440
  0
VERTEX
  8
0
  6
CONTINUOUS
 10
4.119720
 20
2.805880
  0
VERTEX
  8
0
  6
CONTINUOUS
 10
4.143920
 20
2.820840
  0
VERTEX
  8
0
  6
CONTINUOUS
 10
4.165480
 20
2.838000
  0
VERTEX
  8
0
  6
CONTINUOUS
 10
4.184400
 20
2.857360
  0
VERTEX
  8
0
  6
CONTINUOUS
 10
4.208600
 20
2.890800
  0
VERTEX
  8
0
  6
CONTINUOUS
 10
4.228400
 20
2.927760
  0
VERTEX
  8
0
  6
CONTINUOUS
 10
4.249520
 20
2.981440
  0
VERTEX
  8
0
  6
CONTINUOUS
 10
4.275480
 20
3.066800
  0
VERTEX
  8
0
  6
CONTINUOUS
 10
4.294840
 20
3.134560
  0
VERTEX
  8
0
  6
CONTINUOUS
 10
4.309800
 20
3.165360
  0
VERTEX
  8
0
  6
CONTINUOUS
 10
4.330480
 20
3.195720
  0
VERTEX
  8
0
  6
CONTINUOUS
 10
4.357320
 20
3.224320
  0
VERTEX
  8
0
  6
CONTINUOUS
 10
4.400000
 20
3.259960
  0
VERTEX
  8
0
  6
CONTINUOUS
 10
4.424640
 20
3.276240
  0
VERTEX
  8
0
  6
CONTINUOUS
 10
4.450600
 20
3.291200
  0
VERTEX
  8
0
  6
CONTINUOUS
 10
4.477880
 20
3.304840
  0
VERTEX
  8
0
  6
CONTINUOUS
 10
4.536400
 20
3.328160
  0
VERTEX
  8
0
  6
CONTINUOUS
 10
4.567200
 20
3.337400
  0
VERTEX
  8
0
  6
CONTINUOUS
 10
4.598880
 20
3.344880
  0
VERTEX
  8
0
  6
CONTINUOUS
 10
4.631000
 20
3.350600
  0
VERTEX
  8
0
  6
CONTINUOUS
 10
4.663560
 20
3.354120
  0
VERTEX
  8
0
  6
CONTINUOUS
 10
4.696560
 20
3.355440
  0
VERTEX
  8
0
  6
CONTINUOUS
 10
4.729120
 20
3.354560
  0
VERTEX
  8
0
  6
CONTINUOUS
 10
4.777960
 20
3.348400
  0
VERTEX
  8
0
  6
CONTINUOUS
 10
4.825920
 20
3.336960
  0
VERTEX
  8
0
  6
CONTINUOUS
 10
4.872120
 20
3.318920
  0
VERTEX
  8
0
  6
CONTINUOUS
 10
4.916120
 20
3.294280
  0
VERTEX
  8
0
  6
CONTINUOUS
 10
4.944280
 20
3.274040
  0
VERTEX
  8
0
  6
CONTINUOUS
 10
4.970680
 20
3.250720
  0
VERTEX
  8
0
  6
CONTINUOUS
 10
5.007640
 20
3.208920
  0
VERTEX
  8
0
  6
CONTINUOUS
 10
5.040200
 20
3.159200
  0
VERTEX
  8
0
  6
CONTINUOUS
 10
5.059120
 20
3.121360
  0
VERTEX
  8
0
  6
CONTINUOUS
 10
5.076280
 20
3.079560
  0
VERTEX
  8
0
  6
CONTINUOUS
 10
5.090360
 20
3.033800
  0
VERTEX
  8
0
  6
CONTINUOUS
 10
5.212240
 20
3.033800
  0
VERTEX
  8
0
  6
CONTINUOUS
 10
5.213560
 20
3.002560
  0
VERTEX
  8
0
  6
CONTINUOUS
 10
5.218400
 20
2.972200
  0
VERTEX
  8
0
  6
CONTINUOUS
 10
5.226320
 20
2.942720
  0
VERTEX
  8
0
  6
CONTINUOUS
 10
5.238200
 20
2.914560
  0
VERTEX
  8
0
  6
CONTINUOUS
 10
5.254920
 20
2.888160
  0
VERTEX
  8
0
  6
CONTINUOUS
 10
5.276040
 20
2.863960
  0
VERTEX
  8
0
  6
CONTINUOUS
 10
5.302440
 20
2.841960
  0
VERTEX
  8
0
  6
CONTINUOUS
 10
5.334120
 20
2.822600
  0
VERTEX
  8
0
  6
CONTINUOUS
 10
5.334120
 20
1.786400
  0
SEQEND
  8
0
  0
SOLID
  8
0
 62
    15
 10
2.700720
 20
5.639480
 11
2.698520
 21
6.384840
 12
2.763200
 22
5.622760
 13
2.760560
 23
6.368560
  0
POLYLINE
  8
0
  6
CONTINUOUS
 66
     1
 40
0.000000
 41
0.000000
  0
VERTEX
  8
0
  6
CONTINUOUS
 10
2.700720
 20
5.639480
  0
VERTEX
  8
0
  6
CONTINUOUS
 10
2.698520
 20
6.384840
  0
VERTEX
  8
0
  6
CONTINUOUS
 10
2.760560
 20
6.368560
  0
VERTEX
  8
0
  6
CONTINUOUS
 10
2.763200
 20
5.622760
  0
VERTEX
  8
0
  6
CONTINUOUS
 10
2.700720
 20
5.639480
  0
SEQEND
  8
0
  0
SOLID
  8
0
 62
    15
 10
1.965480
 20
4.081880
 11
1.963280
 21
4.827240
 12
1.965480
 22
5.117200
 13
1.963280
 23
5.862560
  0
POLYLINE
  8
0
  6
CONTINUOUS
 66
     1
 40
0.000000
 41
0.000000
  0
VERTEX
  8
0
  6
CONTINUOUS
 10
1.965480
 20
4.081880
  0
VERTEX
  8
0
  6
CONTINUOUS
 10
1.963280
 20
4.827240
  0
VERTEX
  8
0
  6
CONTINUOUS
 10
1.963280
 20
5.862560
  0
VERTEX
  8
0
  6
CONTINUOUS
 10
1.965480
 20
5.117200
  0
VERTEX
  8
0
  6
CONTINUOUS
 10
1.965480
 20
4.081880
  0
SEQEND
  8
0
  0
SOLID
  8
0
 62
    15
 10
1.997600
 20
5.136560
 11
1.994960
 21
5.881920
 12
2.024000
 22
5.158560
 13
2.021360
 23
5.903920
  0
POLYLINE
  8
0
  6
CONTINUOUS
 66
     1
 40
0.000000
 41
0.000000
  0
VERTEX
  8
0
  6
CONTINUOUS
 10
1.997600
 20
5.136560
  0
VERTEX
  8
0
  6
CONTINUOUS
 10
1.994960
 20
5.881920
  0
VERTEX
  8
0
  6
CONTINUOUS
 10
2.021360
 20
5.903920
  0
VERTEX
  8
0
  6
CONTINUOUS
 10
2.024000
 20
5.158560
  0
VERTEX
  8
0
  6
CONTINUOUS
 10
1.997600
 20
5.136560
  0
SEQEND
  8
0
  0
SOLID
  8
0
 62
    15
 10
2.024000
 20
5.158560
 11
2.021360
 21
5.903920
 12
2.061400
 22
5.209160
 13
2.059200
 23
5.954960
  0
POLYLINE
  8
0
  6
CONTINUOUS
 66
     1
 40
0.000000
 41
0.000000
  0
VERTEX
  8
0
  6
CONTINUOUS
 10
2.024000
 20
5.158560
  0
VERTEX
  8
0
  6
CONTINUOUS
 10
2.021360
 20
5.903920
  0
VERTEX
  8
0
  6
CONTINUOUS
 10
2.059200
 20
5.954960
  0
VERTEX
  8
0
  6
CONTINUOUS
 10
2.061400
 20
5.209160
  0
VERTEX
  8
0
  6
CONTINUOUS
 10
2.024000
 20
5.158560
  0
SEQEND
  8
0
  0
SOLID
  8
0
 62
    15
 10
2.061400
 20
5.209160
 11
2.059200
 21
5.954960
 12
2.081640
 22
5.266800
 13
2.079000
 23
6.012160
  0
POLYLINE
  8
0
  6
CONTINUOUS
 66
     1
 40
0.000000
 41
0.000000
  0
VERTEX
  8
0
  6
CONTINUOUS
 10
2.061400
 20
5.209160
  0
VERTEX
  8
0
  6
CONTINUOUS
 10
2.059200
 20
5.954960
  0
VERTEX
  8
0
  6
CONTINUOUS
 10
2.079000
 20
6.012160
  0
VERTEX
  8
0
  6
CONTINUOUS
 10
2.081640
 20
5.266800
  0
VERTEX
  8
0
  6
CONTINUOUS
 10
2.061400
 20
5.209160
  0
SEQEND
  8
0
  0
SOLID
  8
0
 62
    15
 10
2.081640
 20
5.266800
 11
2.079000
 21
6.012160
 12
2.087360
 22
5.328400
 13
2.085160
 23
6.073760
  0
POLYLINE
  8
0
  6
CONTINUOUS
 66
     1
 40
0.000000
 41
0.000000
  0
VERTEX
  8
0
  6
CONTINUOUS
 10
2.081640
 20
5.266800
  0
VERTEX
  8
0
  6
CONTINUOUS
 10
2.079000
 20
6.012160
  0
VERTEX
  8
0
  6
CONTINUOUS
 10
2.085160
 20
6.073760
  0
VERTEX
  8
0
  6
CONTINUOUS
 10
2.087360
 20
5.328400
  0
VERTEX
  8
0
  6
CONTINUOUS
 10
2.081640
 20
5.266800
  0
SEQEND
  8
0
  0
SOLID
  8
0
 62
    15
 10
2.087360
 20
5.328400
 11
2.085160
 21
6.073760
 12
2.209240
 22
5.328400
 13
2.206600
 23
6.073760
  0
POLYLINE
  8
0
  6
CONTINUOUS
 66
     1
 40
0.000000
 41
0.000000
  0
VERTEX
  8
0
  6
CONTINUOUS
 10
2.087360
 20
5.328400
  0
VERTEX
  8
0
  6
CONTINUOUS
 10
2.085160
 20
6.073760
  0
VERTEX
  8
0
  6
CONTINUOUS
 10
2.206600
 20
6.073760
  0
VERTEX
  8
0
  6
CONTINUOUS
 10
2.209240
 20
5.328400
  0
VERTEX
  8
0
  6
CONTINUOUS
 10
2.087360
 20
5.328400
  0
SEQEND
  8
0
  0
SOLID
  8
0
 62
    15
 10
2.209240
 20
5.328400
 11
2.206600
 21
6.073760
 12
2.240480
 22
5.415960
 13
2.237840
 23
6.161320
  0
POLYLINE
  8
0
  6
CONTINUOUS
 66
     1
 40
0.000000
 41
0.000000
  0
VERTEX
  8
0
  6
CONTINUOUS
 10
2.209240
 20
5.328400
  0
VERTEX
  8
0
  6
CONTINUOUS
 10
2.206600
 20
6.073760
  0
VERTEX
  8
0
  6
CONTINUOUS
 10
2.237840
 20
6.161320
  0
VERTEX
  8
0
  6
CONTINUOUS
 10
2.240480
 20
5.415960
  0
VERTEX
  8
0
  6
CONTINUOUS
 10
2.209240
 20
5.328400
  0
SEQEND
  8
0
  0
SOLID
  8
0
 62
    15
 10
2.240480
 20
5.415960
 11
2.237840
 21
6.161320
 12
2.280520
 22
5.487680
 13
2.278320
 23
6.233040
  0
POLYLINE
  8
0
  6
CONTINUOUS
 66
     1
 40
0.000000
 41
0.000000
  0
VERTEX
  8
0
  6
CONTINUOUS
 10
2.240480
 20
5.415960
  0
VERTEX
  8
0
  6
CONTINUOUS
 10
2.237840
 20
6.161320
  0
VERTEX
  8
0
  6
CONTINUOUS
 10
2.278320
 20
6.233040
  0
VERTEX
  8
0
  6
CONTINUOUS
 10
2.280520
 20
5.487680
  0
VERTEX
  8
0
  6
CONTINUOUS
 10
2.240480
 20
5.415960
  0
SEQEND
  8
0
  0
SOLID
  8
0
 62
    15
 10
2.280520
 20
5.487680
 11
2.278320
 21
6.233040
 12
2.328920
 22
5.545320
 13
2.326280
 23
6.290680
  0
POLYLINE
  8
0
  6
CONTINUOUS
 66
     1
 40
0.000000
 41
0.000000
  0
VERTEX
  8
0
  6
CONTINUOUS
 10
2.280520
 20
5.487680
  0
VERTEX
  8
0
  6
CONTINUOUS
 10
2.278320
 20
6.233040
  0
VERTEX
  8
0
  6
CONTINUOUS
 10
2.326280
 20
6.290680
  0
VERTEX
  8
0
  6
CONTINUOUS
 10
2.328920
 20
5.545320
  0
VERTEX
  8
0
  6
CONTINUOUS
 10
2.280520
 20
5.487680
  0
SEQEND
  8
0
  0
SOLID
  8
0
 62
    15
 10
2.328920
 20
5.545320
 11
2.326280
 21
6.290680
 12
2.383480
 22
5.588880
 13
2.380840
 23
6.334240
  0
POLYLINE
  8
0
  6
CONTINUOUS
 66
     1
 40
0.000000
 41
0.000000
  0
VERTEX
  8
0
  6
CONTINUOUS
 10
2.328920
 20
5.545320
  0
VERTEX
  8
0
  6
CONTINUOUS
 10
2.326280
 20
6.290680
  0
VERTEX
  8
0
  6
CONTINUOUS
 10
2.380840
 20
6.334240
  0
VERTEX
  8
0
  6
CONTINUOUS
 10
2.383480
 20
5.588880
  0
VERTEX
  8
0
  6
CONTINUOUS
 10
2.328920
 20
5.545320
  0
SEQEND
  8
0
  0
SOLID
  8
0
 62
    15
 10
2.383480
 20
5.588880
 11
2.380840
 21
6.334240
 12
2.442880
 22
5.620120
 13
2.440240
 23
6.365480
  0
POLYLINE
  8
0
  6
CONTINUOUS
 66
     1
 40
0.000000
 41
0.000000
  0
VERTEX
  8
0
  6
CONTINUOUS
 10
2.383480
 20
5.588880
  0
VERTEX
  8
0
  6
CONTINUOUS
 10
2.380840
 20
6.334240
  0
VERTEX
  8
0
  6
CONTINUOUS
 10
2.440240
 20
6.365480
  0
VERTEX
  8
0
  6
CONTINUOUS
 10
2.442880
 20
5.620120
  0
VERTEX
  8
0
  6
CONTINUOUS
 10
2.383480
 20
5.588880
  0
SEQEND
  8
0
  0
SOLID
  8
0
 62
    15
 10
2.442880
 20
5.620120
 11
2.440240
 21
6.365480
 12
2.505800
 22
5.639920
 13
2.503160
 23
6.385280
  0
POLYLINE
  8
0
  6
CONTINUOUS
 66
     1
 40
0.000000
 41
0.000000
  0
VERTEX
  8
0
  6
CONTINUOUS
 10
2.442880
 20
5.620120
  0
VERTEX
  8
0
  6
CONTINUOUS
 10
2.440240
 20
6.365480
  0
VERTEX
  8
0
  6
CONTINUOUS
 10
2.503160
 20
6.385280
  0
VERTEX
  8
0
  6
CONTINUOUS
 10
2.505800
 20
5.639920
  0
VERTEX
  8
0
  6
CONTINUOUS
 10
2.442880
 20
5.620120
  0
SEQEND
  8
0
  0
SOLID
  8
0
 62
    15
 10
2.505800
 20
5.639920
 11
2.503160
 21
6.385280
 12
2.570480
 22
5.649160
 13
2.568280
 23
6.394520
  0
POLYLINE
  8
0
  6
CONTINUOUS
 66
     1
 40
0.000000
 41
0.000000
  0
VERTEX
  8
0
  6
CONTINUOUS
 10
2.505800
 20
5.639920
  0
VERTEX
  8
0
  6
CONTINUOUS
 10
2.503160
 20
6.385280
  0
VERTEX
  8
0
  6
CONTINUOUS
 10
2.568280
 20
6.394520
  0
VERTEX
  8
0
  6
CONTINUOUS
 10
2.570480
 20
5.649160
  0
VERTEX
  8
0
  6
CONTINUOUS
 10
2.505800
 20
5.639920
  0
SEQEND
  8
0
  0
SOLID
  8
0
 62
    15
 10
2.570480
 20
5.649160
 11
2.568280
 21
6.394520
 12
2.636040
 22
5.648720
 13
2.633840
 23
6.394080
  0
POLYLINE
  8
0
  6
CONTINUOUS
 66
     1
 40
0.000000
 41
0.000000
  0
VERTEX
  8
0
  6
CONTINUOUS
 10
2.570480
 20
5.649160
  0
VERTEX
  8
0
  6
CONTINUOUS
 10
2.568280
 20
6.394520
  0
VERTEX
  8
0
  6
CONTINUOUS
 10
2.633840
 20
6.394080
  0
VERTEX
  8
0
  6
CONTINUOUS
 10
2.636040
 20
5.648720
  0
VERTEX
  8
0
  6
CONTINUOUS
 10
2.570480
 20
5.649160
  0
SEQEND
  8
0
  0
SOLID
  8
0
 62
    15
 10
2.636040
 20
5.648720
 11
2.633840
 21
6.394080
 12
2.700720
 22
5.639480
 13
2.698520
 23
6.384840
  0
POLYLINE
  8
0
  6
CONTINUOUS
 66
     1
 40
0.000000
 41
0.000000
  0
VERTEX
  8
0
  6
CONTINUOUS
 10
2.636040
 20
5.648720
  0
VERTEX
  8
0
  6
CONTINUOUS
 10
2.633840
 20
6.394080
  0
VERTEX
  8
0
  6
CONTINUOUS
 10
2.698520
 20
6.384840
  0
VERTEX
  8
0
  6
CONTINUOUS
 10
2.700720
 20
5.639480
  0
VERTEX
  8
0
  6
CONTINUOUS
 10
2.636040
 20
5.648720
  0
SEQEND
  8
0
  0
SOLID
  8
0
 62
    15
 10
1.965480
 20
5.117200
 11
1.963280
 21
5.862560
 12
1.997600
 22
5.136560
 13
1.994960
 23
5.881920
  0
POLYLINE
  8
0
  6
CONTINUOUS
 66
     1
 40
0.000000
 41
0.000000
  0
VERTEX
  8
0
  6
CONTINUOUS
 10
1.965480
 20
5.117200
  0
VERTEX
  8
0
  6
CONTINUOUS
 10
1.963280
 20
5.862560
  0
VERTEX
  8
0
  6
CONTINUOUS
 10
1.994960
 20
5.881920
  0
VERTEX
  8
0
  6
CONTINUOUS
 10
1.997600
 20
5.136560
  0
VERTEX
  8
0
  6
CONTINUOUS
 10
1.965480
 20
5.117200
  0
SEQEND
  8
0
  0
SOLID
  8
0
 62
    15
 10
2.763200
 20
5.622760
 11
2.760560
 21
6.368560
 12
2.821720
 22
5.599880
 13
2.819520
 23
6.345240
  0
POLYLINE
  8
0
  6
CONTINUOUS
 66
     1
 40
0.000000
 41
0.000000
  0
VERTEX
  8
0
  6
CONTINUOUS
 10
2.763200
 20
5.622760
  0
VERTEX
  8
0
  6
CONTINUOUS
 10
2.760560
 20
6.368560
  0
VERTEX
  8
0
  6
CONTINUOUS
 10
2.819520
 20
6.345240
  0
VERTEX
  8
0
  6
CONTINUOUS
 10
2.821720
 20
5.599880
  0
VERTEX
  8
0
  6
CONTINUOUS
 10
2.763200
 20
5.622760
  0
SEQEND
  8
0
  0
SOLID
  8
0
 62
    15
 10
2.821720
 20
5.599880
 11
2.819520
 21
6.345240
 12
2.874960
 22
5.570840
 13
2.872760
 23
6.316200
  0
POLYLINE
  8
0
  6
CONTINUOUS
 66
     1
 40
0.000000
 41
0.000000
  0
VERTEX
  8
0
  6
CONTINUOUS
 10
2.821720
 20
5.599880
  0
VERTEX
  8
0
  6
CONTINUOUS
 10
2.819520
 20
6.345240
  0
VERTEX
  8
0
  6
CONTINUOUS
 10
2.872760
 20
6.316200
  0
VERTEX
  8
0
  6
CONTINUOUS
 10
2.874960
 20
5.570840
  0
VERTEX
  8
0
  6
CONTINUOUS
 10
2.821720
 20
5.599880
  0
SEQEND
  8
0
  0
SOLID
  8
0
 62
    15
 10
2.874960
 20
5.570840
 11
2.872760
 21
6.316200
 12
2.922040
 22
5.537400
 13
2.919400
 23
6.282760
  0
POLYLINE
  8
0
  6
CONTINUOUS
 66
     1
 40
0.000000
 41
0.000000
  0
VERTEX
  8
0
  6
CONTINUOUS
 10
2.874960
 20
5.570840
  0
VERTEX
  8
0
  6
CONTINUOUS
 10
2.872760
 20
6.316200
  0
VERTEX
  8
0
  6
CONTINUOUS
 10
2.919400
 20
6.282760
  0
VERTEX
  8
0
  6
CONTINUOUS
 10
2.922040
 20
5.537400
  0
VERTEX
  8
0
  6
CONTINUOUS
 10
2.874960
 20
5.570840
  0
SEQEND
  8
0
  0
SOLID
  8
0
 62
    15
 10
2.922040
 20
5.537400
 11
2.919400
 21
6.282760
 12
2.960760
 22
5.500000
 13
2.958560
 23
6.245360
  0
POLYLINE
  8
0
  6
CONTINUOUS
 66
     1
 40
0.000000
 41
0.000000
  0
VERTEX
  8
0
  6
CONTINUOUS
 10
2.922040
 20
5.537400
  0
VERTEX
  8
0
  6
CONTINUOUS
 10
2.919400
 20
6.282760
  0
VERTEX
  8
0
  6
CONTINUOUS
 10
2.958560
 20
6.245360
  0
VERTEX
  8
0
  6
CONTINUOUS
 10
2.960760
 20
5.500000
  0
VERTEX
  8
0
  6
CONTINUOUS
 10
2.922040
 20
5.537400
  0
SEQEND
  8
0
  0
SOLID
  8
0
 62
    15
 10
2.960760
 20
5.500000
 11
2.958560
 21
6.245360
 12
2.990240
 22
5.459960
 13
2.987600
 23
6.205320
  0
POLYLINE
  8
0
  6
CONTINUOUS
 66
     1
 40
0.000000
 41
0.000000
  0
VERTEX
  8
0
  6
CONTINUOUS
 10
2.960760
 20
5.500000
  0
VERTEX
  8
0
  6
CONTINUOUS
 10
2.958560
 20
6.245360
  0
VERTEX
  8
0
  6
CONTINUOUS
 10
2.987600
 20
6.205320
  0
VERTEX
  8
0
  6
CONTINUOUS
 10
2.990240
 20
5.459960
  0
VERTEX
  8
0
  6
CONTINUOUS
 10
2.960760
 20
5.500000
  0
SEQEND
  8
0
  0
SOLID
  8
0
 62
    15
 10
2.990240
 20
5.459960
 11
2.987600
 21
6.205320
 12
3.008280
 22
5.418600
 13
3.006080
 23
6.163960
  0
POLYLINE
  8
0
  6
CONTINUOUS
 66
     1
 40
0.000000
 41
0.000000
  0
VERTEX
  8
0
  6
CONTINUOUS
 10
2.990240
 20
5.459960
  0
VERTEX
  8
0
  6
CONTINUOUS
 10
2.987600
 20
6.205320
  0
VERTEX
  8
0
  6
CONTINUOUS
 10
3.006080
 20
6.163960
  0
VERTEX
  8
0
  6
CONTINUOUS
 10
3.008280
 20
5.418600
  0
VERTEX
  8
0
  6
CONTINUOUS
 10
2.990240
 20
5.459960
  0
SEQEND
  8
0
  0
SOLID
  8
0
 62
    15
 10
3.008280
 20
5.418600
 11
3.006080
 21
6.163960
 12
3.016640
 22
5.390440
 13
3.014000
 23
6.135800
  0
POLYLINE
  8
0
  6
CONTINUOUS
 66
     1
 40
0.000000
 41
0.000000
  0
VERTEX
  8
0
  6
CONTINUOUS
 10
3.008280
 20
5.418600
  0
VERTEX
  8
0
  6
CONTINUOUS
 10
3.006080
 20
6.163960
  0
VERTEX
  8
0
  6
CONTINUOUS
 10
3.014000
 20
6.135800
  0
VERTEX
  8
0
  6
CONTINUOUS
 10
3.016640
 20
5.390440
  0
VERTEX
  8
0
  6
CONTINUOUS
 10
3.008280
 20
5.418600
  0
SEQEND
  8
0
  0
SOLID
  8
0
 62
    15
 10
3.016640
 20
5.390440
 11
3.014000
 21
6.135800
 12
3.024560
 22
5.361840
 13
3.021920
 23
6.107200
  0
POLYLINE
  8
0
  6
CONTINUOUS
 66
     1
 40
0.000000
 41
0.000000
  0
VERTEX
  8
0
  6
CONTINUOUS
 10
3.016640
 20
5.390440
  0
VERTEX
  8
0
  6
CONTINUOUS
 10
3.014000
 20
6.135800
  0
VERTEX
  8
0
  6
CONTINUOUS
 10
3.021920
 20
6.107200
  0
VERTEX
  8
0
  6
CONTINUOUS
 10
3.024560
 20
5.361840
  0
VERTEX
  8
0
  6
CONTINUOUS
 10
3.016640
 20
5.390440
  0
SEQEND
  8
0
  0
SOLID
  8
0
 62
    15
 10
3.024560
 20
5.361840
 11
3.021920
 21
6.107200
 12
3.040840
 22
5.304200
 13
3.038640
 23
6.049560
  0
POLYLINE
  8
0
  6
CONTINUOUS
 66
     1
 40
0.000000
 41
0.000000
  0
VERTEX
  8
0
  6
CONTINUOUS
 10
3.024560
 20
5.361840
  0
VERTEX
  8
0
  6
CONTINUOUS
 10
3.021920
 20
6.107200
  0
VERTEX
  8
0
  6
CONTINUOUS
 10
3.038640
 20
6.049560
  0
VERTEX
  8
0
  6
CONTINUOUS
 10
3.040840
 20
5.304200
  0
VERTEX
  8
0
  6
CONTINUOUS
 10
3.024560
 20
5.361840
  0
SEQEND
  8
0
  0
SOLID
  8
0
 62
    15
 10
3.040840
 20
5.304200
 11
3.038640
 21
6.049560
 12
3.060200
 22
5.248760
 13
3.057560
 23
5.994120
  0
POLYLINE
  8
0
  6
CONTINUOUS
 66
     1
 40
0.000000
 41
0.000000
  0
VERTEX
  8
0
  6
CONTINUOUS
 10
3.040840
 20
5.304200
  0
VERTEX
  8
0
  6
CONTINUOUS
 10
3.038640
 20
6.049560
  0
VERTEX
  8
0
  6
CONTINUOUS
 10
3.057560
 20
5.994120
  0
VERTEX
  8
0
  6
CONTINUOUS
 10
3.060200
 20
5.248760
  0
VERTEX
  8
0
  6
CONTINUOUS
 10
3.040840
 20
5.304200
  0
SEQEND
  8
0
  0
SOLID
  8
0
 62
    15
 10
3.060200
 20
5.248760
 11
3.057560
 21
5.994120
 12
3.083960
 22
5.197280
 13
3.081760
 23
5.942640
  0
POLYLINE
  8
0
  6
CONTINUOUS
 66
     1
 40
0.000000
 41
0.000000
  0
VERTEX
  8
0
  6
CONTINUOUS
 10
3.060200
 20
5.248760
  0
VERTEX
  8
0
  6
CONTINUOUS
 10
3.057560
 20
5.994120
  0
VERTEX
  8
0
  6
CONTINUOUS
 10
3.081760
 20
5.942640
  0
VERTEX
  8
0
  6
CONTINUOUS
 10
3.083960
 20
5.197280
  0
VERTEX
  8
0
  6
CONTINUOUS
 10
3.060200
 20
5.248760
  0
SEQEND
  8
0
  0
SOLID
  8
0
 62
    15
 10
3.083960
 20
5.197280
 11
3.081760
 21
5.942640
 12
3.115200
 22
5.151960
 13
3.113000
 23
5.897760
  0
POLYLINE
  8
0
  6
CONTINUOUS
 66
     1
 40
0.000000
 41
0.000000
  0
VERTEX
  8
0
  6
CONTINUOUS
 10
3.083960
 20
5.197280
  0
VERTEX
  8
0
  6
CONTINUOUS
 10
3.081760
 20
5.942640
  0
VERTEX
  8
0
  6
CONTINUOUS
 10
3.113000
 20
5.897760
  0
VERTEX
  8
0
  6
CONTINUOUS
 10
3.115200
 20
5.151960
  0
VERTEX
  8
0
  6
CONTINUOUS
 10
3.083960
 20
5.197280
  0
SEQEND
  8
0
  0
SOLID
  8
0
 62
    15
 10
3.115200
 20
5.151960
 11
3.113000
 21
5.897760
 12
3.155680
 22
5.115440
 13
3.153480
 23
5.860800
  0
POLYLINE
  8
0
  6
CONTINUOUS
 66
     1
 40
0.000000
 41
0.000000
  0
VERTEX
  8
0
  6
CONTINUOUS
 10
3.115200
 20
5.151960
  0
VERTEX
  8
0
  6
CONTINUOUS
 10
3.113000
 20
5.897760
  0
VERTEX
  8
0
  6
CONTINUOUS
 10
3.153480
 20
5.860800
  0
VERTEX
  8
0
  6
CONTINUOUS
 10
3.155680
 20
5.115440
  0
VERTEX
  8
0
  6
CONTINUOUS
 10
3.115200
 20
5.151960
  0
SEQEND
  8
0
  0
SOLID
  8
0
 62
    15
 10
3.155680
 20
5.115440
 11
3.153480
 21
5.860800
 12
3.207600
 22
5.089040
 13
3.204960
 23
5.834840
  0
POLYLINE
  8
0
  6
CONTINUOUS
 66
     1
 40
0.000000
 41
0.000000
  0
VERTEX
  8
0
  6
CONTINUOUS
 10
3.155680
 20
5.115440
  0
VERTEX
  8
0
  6
CONTINUOUS
 10
3.153480
 20
5.860800
  0
VERTEX
  8
0
  6
CONTINUOUS
 10
3.204960
 20
5.834840
  0
VERTEX
  8
0
  6
CONTINUOUS
 10
3.207600
 20
5.089040
  0
VERTEX
  8
0
  6
CONTINUOUS
 10
3.155680
 20
5.115440
  0
SEQEND
  8
0
  0
SOLID
  8
0
 62
    15
 10
3.207600
 20
5.089040
 11
3.204960
 21
5.834840
 12
3.272720
 22
5.075840
 13
3.270520
 23
5.821200
  0
POLYLINE
  8
0
  6
CONTINUOUS
 66
     1
 40
0.000000
 41
0.000000
  0
VERTEX
  8
0
  6
CONTINUOUS
 10
3.207600
 20
5.089040
  0
VERTEX
  8
0
  6
CONTINUOUS
 10
3.204960
 20
5.834840
  0
VERTEX
  8
0
  6
CONTINUOUS
 10
3.270520
 20
5.821200
  0
VERTEX
  8
0
  6
CONTINUOUS
 10
3.272720
 20
5.075840
  0
VERTEX
  8
0
  6
CONTINUOUS
 10
3.207600
 20
5.089040
  0
SEQEND
  8
0
  0
SOLID
  8
0
 62
    15
 10
1.965480
 20
4.081000
 11
1.963280
 21
4.826360
 12
1.965480
 22
4.081880
 13
1.963280
 23
4.827240
  0
POLYLINE
  8
0
  6
CONTINUOUS
 66
     1
 40
0.000000
 41
0.000000
  0
VERTEX
  8
0
  6
CONTINUOUS
 10
1.965480
 20
4.081000
  0
VERTEX
  8
0
  6
CONTINUOUS
 10
1.963280
 20
4.826360
  0
VERTEX
  8
0
  6
CONTINUOUS
 10
1.963280
 20
4.827240
  0
VERTEX
  8
0
  6
CONTINUOUS
 10
1.965480
 20
4.081880
  0
VERTEX
  8
0
  6
CONTINUOUS
 10
1.965480
 20
4.081000
  0
SEQEND
  8
0
  0
POLYLINE
  8
0
  6
CONTINUOUS
 66
     1
 40
0.000000
 41
0.000000
  0
VERTEX
  8
0
  6
CONTINUOUS
 10
1.965480
 20
4.081880
  0
VERTEX
  8
0
  6
CONTINUOUS
 10
1.965480
 20
5.117200
  0
VERTEX
  8
0
  6
CONTINUOUS
 10
1.997600
 20
5.136560
  0
VERTEX
  8
0
  6
CONTINUOUS
 10
2.024000
 20
5.158560
  0
VERTEX
  8
0
  6
CONTINUOUS
 10
2.061400
 20
5.209160
  0
VERTEX
  8
0
  6
CONTINUOUS
 10
2.081640
 20
5.266800
  0
VERTEX
  8
0
  6
CONTINUOUS
 10
2.087360
 20
5.328400
  0
VERTEX
  8
0
  6
CONTINUOUS
 10
2.209240
 20
5.328400
  0
VERTEX
  8
0
  6
CONTINUOUS
 10
2.240480
 20
5.415960
  0
VERTEX
  8
0
  6
CONTINUOUS
 10
2.280520
 20
5.487680
  0
VERTEX
  8
0
  6
CONTINUOUS
 10
2.328920
 20
5.545320
  0
VERTEX
  8
0
  6
CONTINUOUS
 10
2.383480
 20
5.588880
  0
VERTEX
  8
0
  6
CONTINUOUS
 10
2.442880
 20
5.620120
  0
VERTEX
  8
0
  6
CONTINUOUS
 10
2.505800
 20
5.639920
  0
VERTEX
  8
0
  6
CONTINUOUS
 10
2.570480
 20
5.649160
  0
VERTEX
  8
0
  6
CONTINUOUS
 10
2.636040
 20
5.648720
  0
VERTEX
  8
0
  6
CONTINUOUS
 10
2.700720
 20
5.639480
  0
VERTEX
  8
0
  6
CONTINUOUS
 10
2.763200
 20
5.622760
  0
VERTEX
  8
0
  6
CONTINUOUS
 10
2.821720
 20
5.599880
  0
VERTEX
  8
0
  6
CONTINUOUS
 10
2.874960
 20
5.570840
  0
VERTEX
  8
0
  6
CONTINUOUS
 10
2.922040
 20
5.537400
  0
VERTEX
  8
0
  6
CONTINUOUS
 10
2.960760
 20
5.500000
  0
VERTEX
  8
0
  6
CONTINUOUS
 10
2.990240
 20
5.459960
  0
VERTEX
  8
0
  6
CONTINUOUS
 10
3.008280
 20
5.418600
  0
VERTEX
  8
0
  6
CONTINUOUS
 10
3.016640
 20
5.390440
  0
VERTEX
  8
0
  6
CONTINUOUS
 10
3.024560
 20
5.361840
  0
VERTEX
  8
0
  6
CONTINUOUS
 10
3.040840
 20
5.304200
  0
VERTEX
  8
0
  6
CONTINUOUS
 10
3.060200
 20
5.248760
  0
VERTEX
  8
0
  6
CONTINUOUS
 10
3.083960
 20
5.197280
  0
VERTEX
  8
0
  6
CONTINUOUS
 10
3.115200
 20
5.151960
  0
VERTEX
  8
0
  6
CONTINUOUS
 10
3.155680
 20
5.115440
  0
VERTEX
  8
0
  6
CONTINUOUS
 10
3.207600
 20
5.089040
  0
VERTEX
  8
0
  6
CONTINUOUS
 10
3.272720
 20
5.075840
  0
VERTEX
  8
0
  6
CONTINUOUS
 10
3.272720
 20
4.835600
  0
VERTEX
  8
0
  6
CONTINUOUS
 10
2.910160
 20
4.835600
  0
VERTEX
  8
0
  6
CONTINUOUS
 10
2.910160
 20
4.081000
  0
VERTEX
  8
0
  6
CONTINUOUS
 10
1.965480
 20
4.081000
  0
VERTEX
  8
0
  6
CONTINUOUS
 10
1.965480
 20
4.081880
  0
SEQEND
  8
0
  0
TEXT
  8
0
 10
2.276560
 20
3.802480
 40
0.138226
  1
BA  1276
 41
1.000000
  7
SN0
 71
     0
 72
     5
 11
2.960632
 21
3.802480
  0
TEXT
  8
0
 10
2.001120
 20
3.611080
 40
0.138226
  1
1-5/16" x 1-9/16"
 41
1.000000
  7
SN0
 71
     0
 72
     5
 11
3.236230
 21
3.611080
  0
TEXT
  8
0
 10
4.430360
 20
4.054160
 40
0.138226
  1
BA  1276
 41
1.000000
  7
SN0
 71
     0
 72
     5
 11
5.114432
 21
4.054160
  0
TEXT
  8
0
 10
4.154480
 20
3.862760
 40
0.138226
  1
1-5/16" x 1-9/16"
 41
1.000000
  7
SN0
 71
     0
 72
     5
 11
5.389590
 21
3.862760
  0
ENDSEC
  0
EOF
