  0
SECTION
  2
HEADER
  9
$ACADVER
  1
AC1006
  9
$EXTMIN
 10
3.107720
 20
1.850200
  9
$EXTMAX
 10
5.859480
 20
8.338440
  9
$LTSCALE
 40
0.044000
  9
$PDMODE
 70
    35
  9
$PDSIZE
 40
0.035200
  0
ENDSEC
  0
SECTION
  2
TABLES
  0
TABLE
  2
LTYPE
 70
     9
  0
LTYPE
  2
CONTINUOUS
 70
    64
  3
Solid line
 72
    65
 73
     0
 40
0.000000
  0
LTYPE
  2
DASHED
 70
    64
  3
__ __ __ __ __ __ __ __ __ __ __ __ __ __ __
 72
    65
 73
     2
 40
0.000330
 49
0.000220
 49
-0.000110
  0
LTYPE
  2
HIDDEN
 70
    64
  3
 _ _ _ _ _ _ _ _ _ _ _ _ _ _ _ _ _ _ _ _ _ _
 72
    65
 73
     2
 40
0.000165
 49
0.000110
 49
-0.000055
  0
LTYPE
  2
CENTER
 70
    64
  3
____ _ ____ _ ____ _ ____ _ ____ _ ____ _ ____
 72
    65
 73
     4
 40
0.000880
 49
0.000550
 49
-0.000110
 49
0.000110
 49
-0.000110
  0
LTYPE
  2
PHANTOM
 70
    64
  3
_____ _ _ _____ _ _ _____ _ _ _____ _ _ ____
 72
    65
 73
     6
 40
0.001100
 49
0.000550
 49
-0.000110
 49
0.000110
 49
-0.000110
 49
0.000110
 49
-0.000110
  0
LTYPE
  2
DOT
 70
    64
  3
...............................................
 72
    65
 73
     2
 40
0.000110
 49
0.000000
 49
-0.000110
  0
LTYPE
  2
DASHDOT
 70
    64
  3
__ . __ . __ . __ . __ . __ . __ . __ . __ . __
 72
    65
 73
     4
 40
0.000440
 49
0.000220
 49
-0.000110
 49
0.000000
 49
-0.000110
  0
LTYPE
  2
BORDER
 70
    64
  3
__ __ . __ __ . __ __ . __ __ . __ __ . __ __
 72
    65
 73
     6
 40
0.000770
 49
0.000220
 49
-0.000110
 49
0.000220
 49
-0.000110
 49
0.000000
 49
-0.000110
  0
LTYPE
  2
DIVIDE
 70
    64
  3
__ . . __ . . __ . . __ . . __ . . __ . . __
 72
    65
 73
     6
 40
0.000550
 49
0.000220
 49
-0.000110
 49
0.000000
 49
-0.000110
 49
0.000000
 49
-0.000110
  0
LTYPE
  2
DOTDOT
 70
    64
  3
 . .  . .  . .  . .  . .  . . 
 72
    65
 73
     5
 40
0.000242
 49
-0.000110
 49
0.000000
 49
-0.000110
 49
0.000000
 49
-0.000110
  0
ENDTAB
  0
TABLE
  2
STYLE
 70
     2
  0
STYLE
 70
     0
  2
SN0
 40
0.000000
 41
0.000440
 50
0.000000
 71
     0
 42
0.000000
  3
ROMAND
  0
STYLE
 70
    68
  2
SV0
 40
0.000000
 41
0.000440
 50
0.000000
 71
     0
 42
0.000000
  3
ROMAND
  0
ENDTAB
  0
TABLE
  2
LAYER
 70
     3
  0
LAYER
  2
FOREGROUND
 70
    64
 62
     7
  6
CONTINUOUS
  0
LAYER
  2
BACKGROUND
 70
    65
 62
    -7
  6
CONTINUOUS
  0
LAYER
  2
0
 70
    64
 62
     7
  6
CONTINUOUS
  0
ENDTAB
  0
ENDSEC
  0
SECTION
  2
ENTITIES
  0
POLYLINE
  8
FOREGROUND
  6
CONTINUOUS
 66
     1
 40
0.000000
 41
0.000000
  0
VERTEX
  8
FOREGROUND
  6
CONTINUOUS
 10
0.000000
 20
10.188640
  0
VERTEX
  8
FOREGROUND
  6
CONTINUOUS
 10
8.499920
 20
10.188640
  0
VERTEX
  8
FOREGROUND
  6
CONTINUOUS
 10
8.499920
 20
-0.811360
  0
VERTEX
  8
FOREGROUND
  6
CONTINUOUS
 10
0.000000
 20
-0.811360
  0
VERTEX
  8
FOREGROUND
  6
CONTINUOUS
 10
0.000000
 20
10.188640
  0
SEQEND
  8
0
  0
POLYLINE
  8
FOREGROUND
  6
CONTINUOUS
 66
     1
 40
0.000000
 41
0.000000
  0
VERTEX
  8
FOREGROUND
  6
CONTINUOUS
 10
0.000000
 20
10.188640
  0
VERTEX
  8
FOREGROUND
  6
CONTINUOUS
 10
8.499920
 20
10.188640
  0
VERTEX
  8
FOREGROUND
  6
CONTINUOUS
 10
8.499920
 20
-0.811360
  0
VERTEX
  8
FOREGROUND
  6
CONTINUOUS
 10
0.000000
 20
-0.811360
  0
VERTEX
  8
FOREGROUND
  6
CONTINUOUS
 10
0.000000
 20
10.188640
  0
SEQEND
  8
0
  0
POLYLINE
  8
0
  6
CONTINUOUS
 66
     1
 40
0.014080
 41
0.014080
  0
VERTEX
  8
0
  6
CONTINUOUS
 10
3.644080
 20
7.535880
  0
VERTEX
  8
0
  6
CONTINUOUS
 10
3.118280
 20
8.019000
  0
VERTEX
  8
0
  6
CONTINUOUS
 10
3.398560
 20
8.321720
  0
VERTEX
  8
0
  6
CONTINUOUS
 10
3.477760
 20
8.268040
  0
VERTEX
  8
0
  6
CONTINUOUS
 10
3.528800
 20
8.237680
  0
VERTEX
  8
0
  6
CONTINUOUS
 10
3.602720
 20
8.200280
  0
VERTEX
  8
0
  6
CONTINUOUS
 10
3.651120
 20
8.180040
  0
VERTEX
  8
0
  6
CONTINUOUS
 10
3.721960
 20
8.157160
  0
VERTEX
  8
0
  6
CONTINUOUS
 10
3.791480
 20
8.142200
  0
VERTEX
  8
0
  6
CONTINUOUS
 10
3.860560
 20
8.134720
  0
VERTEX
  8
0
  6
CONTINUOUS
 10
3.906320
 20
8.133840
  0
VERTEX
  8
0
  6
CONTINUOUS
 10
3.952520
 20
8.135160
  0
VERTEX
  8
0
  6
CONTINUOUS
 10
3.998720
 20
8.139560
  0
VERTEX
  8
0
  6
CONTINUOUS
 10
4.069120
 20
8.150560
  0
VERTEX
  8
0
  6
CONTINUOUS
 10
4.117080
 20
8.160680
  0
VERTEX
  8
0
  6
CONTINUOUS
 10
4.165920
 20
8.173000
  0
VERTEX
  8
0
  6
CONTINUOUS
 10
4.359080
 20
8.226240
  0
VERTEX
  8
0
  6
CONTINUOUS
 10
4.451920
 20
8.247800
  0
VERTEX
  8
0
  6
CONTINUOUS
 10
4.520560
 20
8.258800
  0
VERTEX
  8
0
  6
CONTINUOUS
 10
4.565880
 20
8.262320
  0
VERTEX
  8
0
  6
CONTINUOUS
 10
4.610320
 20
8.263200
  0
VERTEX
  8
0
  6
CONTINUOUS
 10
4.654320
 20
8.260120
  0
VERTEX
  8
0
  6
CONTINUOUS
 10
4.697880
 20
8.252640
  0
VERTEX
  8
0
  6
CONTINUOUS
 10
4.741000
 20
8.241200
  0
VERTEX
  8
0
  6
CONTINUOUS
 10
4.783680
 20
8.224040
  0
VERTEX
  8
0
  6
CONTINUOUS
 10
4.825480
 20
8.201600
  0
VERTEX
  8
0
  6
CONTINUOUS
 10
4.867280
 20
8.173440
  0
VERTEX
  8
0
  6
CONTINUOUS
 10
4.887960
 20
8.156720
  0
VERTEX
  8
0
  6
CONTINUOUS
 10
5.055160
 20
8.328320
  0
VERTEX
  8
0
  6
CONTINUOUS
 10
5.214440
 20
8.182240
  0
VERTEX
  8
0
  6
CONTINUOUS
 10
5.251400
 20
8.218760
  0
VERTEX
  8
0
  6
CONTINUOUS
 10
5.289680
 20
8.244720
  0
VERTEX
  8
0
  6
CONTINUOUS
 10
5.327520
 20
8.261440
  0
VERTEX
  8
0
  6
CONTINUOUS
 10
5.364920
 20
8.270240
  0
VERTEX
  8
0
  6
CONTINUOUS
 10
5.388680
 20
8.272440
  0
VERTEX
  8
0
  6
CONTINUOUS
 10
5.412000
 20
8.272000
  0
VERTEX
  8
0
  6
CONTINUOUS
 10
5.434000
 20
8.270240
  0
VERTEX
  8
0
  6
CONTINUOUS
 10
5.474480
 20
8.261440
  0
VERTEX
  8
0
  6
CONTINUOUS
 10
5.507480
 20
8.249560
  0
VERTEX
  8
0
  6
CONTINUOUS
 10
5.556760
 20
8.224480
  0
VERTEX
  8
0
  6
CONTINUOUS
 10
5.590640
 20
8.214360
  0
VERTEX
  8
0
  6
CONTINUOUS
 10
5.631560
 20
8.209080
  0
VERTEX
  8
0
  6
CONTINUOUS
 10
5.660160
 20
8.209080
  0
VERTEX
  8
0
  6
CONTINUOUS
 10
5.688320
 20
8.213040
  0
VERTEX
  8
0
  6
CONTINUOUS
 10
5.714280
 20
8.221400
  0
VERTEX
  8
0
  6
CONTINUOUS
 10
5.736720
 20
8.235040
  0
VERTEX
  8
0
  6
CONTINUOUS
 10
5.849360
 20
8.132080
  0
VERTEX
  8
0
  6
CONTINUOUS
 10
5.280440
 20
7.535880
  0
VERTEX
  8
0
  6
CONTINUOUS
 10
3.644080
 20
7.535880
  0
SEQEND
  8
0
  0
POLYLINE
  8
0
  6
CONTINUOUS
 66
     1
 40
0.000000
 41
0.000000
  0
VERTEX
  8
0
  6
CONTINUOUS
 10
5.323560
 20
1.850200
  0
VERTEX
  8
0
  6
CONTINUOUS
 10
5.849360
 20
2.333320
  0
VERTEX
  8
0
  6
CONTINUOUS
 10
5.569080
 20
2.635600
  0
VERTEX
  8
0
  6
CONTINUOUS
 10
5.489880
 20
2.581920
  0
VERTEX
  8
0
  6
CONTINUOUS
 10
5.438840
 20
2.551560
  0
VERTEX
  8
0
  6
CONTINUOUS
 10
5.364920
 20
2.514160
  0
VERTEX
  8
0
  6
CONTINUOUS
 10
5.292760
 20
2.486000
  0
VERTEX
  8
0
  6
CONTINUOUS
 10
5.245680
 20
2.471480
  0
VERTEX
  8
0
  6
CONTINUOUS
 10
5.176160
 20
2.456520
  0
VERTEX
  8
0
  6
CONTINUOUS
 10
5.107080
 20
2.449040
  0
VERTEX
  8
0
  6
CONTINUOUS
 10
5.061320
 20
2.448160
  0
VERTEX
  8
0
  6
CONTINUOUS
 10
5.015120
 20
2.449480
  0
VERTEX
  8
0
  6
CONTINUOUS
 10
4.968920
 20
2.453880
  0
VERTEX
  8
0
  6
CONTINUOUS
 10
4.898520
 20
2.464880
  0
VERTEX
  8
0
  6
CONTINUOUS
 10
4.850560
 20
2.475000
  0
VERTEX
  8
0
  6
CONTINUOUS
 10
4.801720
 20
2.487320
  0
VERTEX
  8
0
  6
CONTINUOUS
 10
4.609000
 20
2.540560
  0
VERTEX
  8
0
  6
CONTINUOUS
 10
4.515720
 20
2.562120
  0
VERTEX
  8
0
  6
CONTINUOUS
 10
4.447080
 20
2.573120
  0
VERTEX
  8
0
  6
CONTINUOUS
 10
4.402200
 20
2.576640
  0
VERTEX
  8
0
  6
CONTINUOUS
 10
4.357320
 20
2.577520
  0
VERTEX
  8
0
  6
CONTINUOUS
 10
4.313320
 20
2.574440
  0
VERTEX
  8
0
  6
CONTINUOUS
 10
4.269760
 20
2.566960
  0
VERTEX
  8
0
  6
CONTINUOUS
 10
4.226640
 20
2.555520
  0
VERTEX
  8
0
  6
CONTINUOUS
 10
4.183960
 20
2.538360
  0
VERTEX
  8
0
  6
CONTINUOUS
 10
4.142160
 20
2.515920
  0
VERTEX
  8
0
  6
CONTINUOUS
 10
4.100360
 20
2.487760
  0
VERTEX
  8
0
  6
CONTINUOUS
 10
4.079680
 20
2.471040
  0
VERTEX
  8
0
  6
CONTINUOUS
 10
3.912920
 20
2.642640
  0
VERTEX
  8
0
  6
CONTINUOUS
 10
3.753640
 20
2.496560
  0
VERTEX
  8
0
  6
CONTINUOUS
 10
3.729000
 20
2.522080
  0
VERTEX
  8
0
  6
CONTINUOUS
 10
3.703920
 20
2.542760
  0
VERTEX
  8
0
  6
CONTINUOUS
 10
3.678400
 20
2.559040
  0
VERTEX
  8
0
  6
CONTINUOUS
 10
3.640120
 20
2.575760
  0
VERTEX
  8
0
  6
CONTINUOUS
 10
3.603160
 20
2.584560
  0
VERTEX
  8
0
  6
CONTINUOUS
 10
3.578960
 20
2.586760
  0
VERTEX
  8
0
  6
CONTINUOUS
 10
3.533640
 20
2.584560
  0
VERTEX
  8
0
  6
CONTINUOUS
 10
3.493600
 20
2.575760
  0
VERTEX
  8
0
  6
CONTINUOUS
 10
3.446960
 20
2.557720
  0
VERTEX
  8
0
  6
CONTINUOUS
 10
3.411320
 20
2.538800
  0
VERTEX
  8
0
  6
CONTINUOUS
 10
3.377000
 20
2.528680
  0
VERTEX
  8
0
  6
CONTINUOUS
 10
3.336080
 20
2.523400
  0
VERTEX
  8
0
  6
CONTINUOUS
 10
3.307480
 20
2.523400
  0
VERTEX
  8
0
  6
CONTINUOUS
 10
3.279760
 20
2.527360
  0
VERTEX
  8
0
  6
CONTINUOUS
 10
3.253360
 20
2.535720
  0
VERTEX
  8
0
  6
CONTINUOUS
 10
3.230920
 20
2.549360
  0
VERTEX
  8
0
  6
CONTINUOUS
 10
3.118280
 20
2.446400
  0
VERTEX
  8
0
  6
CONTINUOUS
 10
3.687200
 20
1.850200
  0
VERTEX
  8
0
  6
CONTINUOUS
 10
5.323560
 20
1.850200
  0
SEQEND
  8
0
  0
POLYLINE
  8
0
  6
CONTINUOUS
 66
     1
 40
0.000000
 41
0.000000
  0
VERTEX
  8
0
  6
CONTINUOUS
 10
3.644080
 20
3.128840
  0
VERTEX
  8
0
  6
CONTINUOUS
 10
3.118280
 20
3.611960
  0
VERTEX
  8
0
  6
CONTINUOUS
 10
3.398560
 20
3.914240
  0
VERTEX
  8
0
  6
CONTINUOUS
 10
3.477760
 20
3.860560
  0
VERTEX
  8
0
  6
CONTINUOUS
 10
3.528800
 20
3.830200
  0
VERTEX
  8
0
  6
CONTINUOUS
 10
3.602720
 20
3.792800
  0
VERTEX
  8
0
  6
CONTINUOUS
 10
3.651120
 20
3.772560
  0
VERTEX
  8
0
  6
CONTINUOUS
 10
3.721960
 20
3.749680
  0
VERTEX
  8
0
  6
CONTINUOUS
 10
3.768600
 20
3.739120
  0
VERTEX
  8
0
  6
CONTINUOUS
 10
3.837680
 20
3.729000
  0
VERTEX
  8
0
  6
CONTINUOUS
 10
3.883440
 20
3.726360
  0
VERTEX
  8
0
  6
CONTINUOUS
 10
3.929640
 20
3.726800
  0
VERTEX
  8
0
  6
CONTINUOUS
 10
3.998720
 20
3.732080
  0
VERTEX
  8
0
  6
CONTINUOUS
 10
4.069120
 20
3.743520
  0
VERTEX
  8
0
  6
CONTINUOUS
 10
4.117080
 20
3.753640
  0
VERTEX
  8
0
  6
CONTINUOUS
 10
4.165920
 20
3.765960
  0
VERTEX
  8
0
  6
CONTINUOUS
 10
4.359080
 20
3.819200
  0
VERTEX
  8
0
  6
CONTINUOUS
 10
4.451920
 20
3.840760
  0
VERTEX
  8
0
  6
CONTINUOUS
 10
4.520560
 20
3.851320
  0
VERTEX
  8
0
  6
CONTINUOUS
 10
4.565880
 20
3.855280
  0
VERTEX
  8
0
  6
CONTINUOUS
 10
4.610320
 20
3.855720
  0
VERTEX
  8
0
  6
CONTINUOUS
 10
4.654320
 20
3.852640
  0
VERTEX
  8
0
  6
CONTINUOUS
 10
4.697880
 20
3.845600
  0
VERTEX
  8
0
  6
CONTINUOUS
 10
4.741000
 20
3.833720
  0
VERTEX
  8
0
  6
CONTINUOUS
 10
4.783680
 20
3.816560
  0
VERTEX
  8
0
  6
CONTINUOUS
 10
4.825480
 20
3.794120
  0
VERTEX
  8
0
  6
CONTINUOUS
 10
4.867280
 20
3.765960
  0
VERTEX
  8
0
  6
CONTINUOUS
 10
4.887960
 20
3.749240
  0
VERTEX
  8
0
  6
CONTINUOUS
 10
5.055160
 20
3.920840
  0
VERTEX
  8
0
  6
CONTINUOUS
 10
5.214440
 20
3.774760
  0
VERTEX
  8
0
  6
CONTINUOUS
 10
5.251400
 20
3.811280
  0
VERTEX
  8
0
  6
CONTINUOUS
 10
5.289680
 20
3.837240
  0
VERTEX
  8
0
  6
CONTINUOUS
 10
5.327520
 20
3.853960
  0
VERTEX
  8
0
  6
CONTINUOUS
 10
5.364920
 20
3.862760
  0
VERTEX
  8
0
  6
CONTINUOUS
 10
5.388680
 20
3.864960
  0
VERTEX
  8
0
  6
CONTINUOUS
 10
5.412000
 20
3.864520
  0
VERTEX
  8
0
  6
CONTINUOUS
 10
5.434000
 20
3.862760
  0
VERTEX
  8
0
  6
CONTINUOUS
 10
5.474480
 20
3.853960
  0
VERTEX
  8
0
  6
CONTINUOUS
 10
5.507480
 20
3.842080
  0
VERTEX
  8
0
  6
CONTINUOUS
 10
5.556760
 20
3.817440
  0
VERTEX
  8
0
  6
CONTINUOUS
 10
5.578320
 20
3.809960
  0
VERTEX
  8
0
  6
CONTINUOUS
 10
5.617480
 20
3.802920
  0
VERTEX
  8
0
  6
CONTINUOUS
 10
5.646080
 20
3.801160
  0
VERTEX
  8
0
  6
CONTINUOUS
 10
5.674240
 20
3.803360
  0
VERTEX
  8
0
  6
CONTINUOUS
 10
5.701520
 20
3.809080
  0
VERTEX
  8
0
  6
CONTINUOUS
 10
5.725720
 20
3.820080
  0
VERTEX
  8
0
  6
CONTINUOUS
 10
5.736720
 20
3.827560
  0
VERTEX
  8
0
  6
CONTINUOUS
 10
5.849360
 20
3.724600
  0
VERTEX
  8
0
  6
CONTINUOUS
 10
5.280440
 20
3.128840
  0
VERTEX
  8
0
  6
CONTINUOUS
 10
3.644080
 20
3.128840
  0
SEQEND
  8
0
  0
SOLID
  8
0
 62
    15
 10
4.100360
 20
5.512320
 11
4.755080
 21
5.133920
 12
4.015000
 22
5.479320
 13
4.669720
 23
5.100480
  0
POLYLINE
  8
0
  6
CONTINUOUS
 66
     1
 40
0.000000
 41
0.000000
  0
VERTEX
  8
0
  6
CONTINUOUS
 10
4.100360
 20
5.512320
  0
VERTEX
  8
0
  6
CONTINUOUS
 10
4.755080
 20
5.133920
  0
VERTEX
  8
0
  6
CONTINUOUS
 10
4.669720
 20
5.100480
  0
VERTEX
  8
0
  6
CONTINUOUS
 10
4.015000
 20
5.479320
  0
VERTEX
  8
0
  6
CONTINUOUS
 10
4.100360
 20
5.512320
  0
SEQEND
  8
0
  0
SOLID
  8
0
 62
    15
 10
5.117200
 20
6.359320
 11
5.771480
 21
5.980480
 12
4.993120
 22
6.338640
 13
5.647840
 23
5.959800
  0
POLYLINE
  8
0
  6
CONTINUOUS
 66
     1
 40
0.000000
 41
0.000000
  0
VERTEX
  8
0
  6
CONTINUOUS
 10
5.117200
 20
6.359320
  0
VERTEX
  8
0
  6
CONTINUOUS
 10
5.771480
 20
5.980480
  0
VERTEX
  8
0
  6
CONTINUOUS
 10
5.647840
 20
5.959800
  0
VERTEX
  8
0
  6
CONTINUOUS
 10
4.993120
 20
6.338640
  0
VERTEX
  8
0
  6
CONTINUOUS
 10
5.117200
 20
6.359320
  0
SEQEND
  8
0
  0
SOLID
  8
0
 62
    15
 10
4.993120
 20
6.338640
 11
5.647840
 21
5.959800
 12
4.884880
 22
6.308720
 13
5.539600
 23
5.929880
  0
POLYLINE
  8
0
  6
CONTINUOUS
 66
     1
 40
0.000000
 41
0.000000
  0
VERTEX
  8
0
  6
CONTINUOUS
 10
4.993120
 20
6.338640
  0
VERTEX
  8
0
  6
CONTINUOUS
 10
5.647840
 20
5.959800
  0
VERTEX
  8
0
  6
CONTINUOUS
 10
5.539600
 20
5.929880
  0
VERTEX
  8
0
  6
CONTINUOUS
 10
4.884880
 20
6.308720
  0
VERTEX
  8
0
  6
CONTINUOUS
 10
4.993120
 20
6.338640
  0
SEQEND
  8
0
  0
SOLID
  8
0
 62
    15
 10
4.884880
 20
6.308720
 11
5.539600
 21
5.929880
 12
4.790280
 22
6.270000
 13
5.445000
 23
5.891160
  0
POLYLINE
  8
0
  6
CONTINUOUS
 66
     1
 40
0.000000
 41
0.000000
  0
VERTEX
  8
0
  6
CONTINUOUS
 10
4.884880
 20
6.308720
  0
VERTEX
  8
0
  6
CONTINUOUS
 10
5.539600
 20
5.929880
  0
VERTEX
  8
0
  6
CONTINUOUS
 10
5.445000
 20
5.891160
  0
VERTEX
  8
0
  6
CONTINUOUS
 10
4.790280
 20
6.270000
  0
VERTEX
  8
0
  6
CONTINUOUS
 10
4.884880
 20
6.308720
  0
SEQEND
  8
0
  0
SOLID
  8
0
 62
    15
 10
4.790280
 20
6.270000
 11
5.445000
 21
5.891160
 12
4.707560
 22
6.222480
 13
5.362280
 23
5.843640
  0
POLYLINE
  8
0
  6
CONTINUOUS
 66
     1
 40
0.000000
 41
0.000000
  0
VERTEX
  8
0
  6
CONTINUOUS
 10
4.790280
 20
6.270000
  0
VERTEX
  8
0
  6
CONTINUOUS
 10
5.445000
 20
5.891160
  0
VERTEX
  8
0
  6
CONTINUOUS
 10
5.362280
 20
5.843640
  0
VERTEX
  8
0
  6
CONTINUOUS
 10
4.707560
 20
6.222480
  0
VERTEX
  8
0
  6
CONTINUOUS
 10
4.790280
 20
6.270000
  0
SEQEND
  8
0
  0
SOLID
  8
0
 62
    15
 10
4.707560
 20
6.222480
 11
5.362280
 21
5.843640
 12
4.634520
 22
6.165720
 13
5.289240
 23
5.787320
  0
POLYLINE
  8
0
  6
CONTINUOUS
 66
     1
 40
0.000000
 41
0.000000
  0
VERTEX
  8
0
  6
CONTINUOUS
 10
4.707560
 20
6.222480
  0
VERTEX
  8
0
  6
CONTINUOUS
 10
5.362280
 20
5.843640
  0
VERTEX
  8
0
  6
CONTINUOUS
 10
5.289240
 20
5.787320
  0
VERTEX
  8
0
  6
CONTINUOUS
 10
4.634520
 20
6.165720
  0
VERTEX
  8
0
  6
CONTINUOUS
 10
4.707560
 20
6.222480
  0
SEQEND
  8
0
  0
SOLID
  8
0
 62
    15
 10
4.634520
 20
6.165720
 11
5.289240
 21
5.787320
 12
4.569400
 22
6.100600
 13
5.223680
 23
5.721760
  0
POLYLINE
  8
0
  6
CONTINUOUS
 66
     1
 40
0.000000
 41
0.000000
  0
VERTEX
  8
0
  6
CONTINUOUS
 10
4.634520
 20
6.165720
  0
VERTEX
  8
0
  6
CONTINUOUS
 10
5.289240
 20
5.787320
  0
VERTEX
  8
0
  6
CONTINUOUS
 10
5.223680
 20
5.721760
  0
VERTEX
  8
0
  6
CONTINUOUS
 10
4.569400
 20
6.100600
  0
VERTEX
  8
0
  6
CONTINUOUS
 10
4.634520
 20
6.165720
  0
SEQEND
  8
0
  0
SOLID
  8
0
 62
    15
 10
4.569400
 20
6.100600
 11
5.223680
 21
5.721760
 12
4.510000
 22
6.026680
 13
5.164720
 23
5.647840
  0
POLYLINE
  8
0
  6
CONTINUOUS
 66
     1
 40
0.000000
 41
0.000000
  0
VERTEX
  8
0
  6
CONTINUOUS
 10
4.569400
 20
6.100600
  0
VERTEX
  8
0
  6
CONTINUOUS
 10
5.223680
 20
5.721760
  0
VERTEX
  8
0
  6
CONTINUOUS
 10
5.164720
 20
5.647840
  0
VERTEX
  8
0
  6
CONTINUOUS
 10
4.510000
 20
6.026680
  0
VERTEX
  8
0
  6
CONTINUOUS
 10
4.569400
 20
6.100600
  0
SEQEND
  8
0
  0
SOLID
  8
0
 62
    15
 10
4.510000
 20
6.026680
 11
5.164720
 21
5.647840
 12
4.454560
 22
5.944400
 13
5.109280
 23
5.565560
  0
POLYLINE
  8
0
  6
CONTINUOUS
 66
     1
 40
0.000000
 41
0.000000
  0
VERTEX
  8
0
  6
CONTINUOUS
 10
4.510000
 20
6.026680
  0
VERTEX
  8
0
  6
CONTINUOUS
 10
5.164720
 20
5.647840
  0
VERTEX
  8
0
  6
CONTINUOUS
 10
5.109280
 20
5.565560
  0
VERTEX
  8
0
  6
CONTINUOUS
 10
4.454560
 20
5.944400
  0
VERTEX
  8
0
  6
CONTINUOUS
 10
4.510000
 20
6.026680
  0
SEQEND
  8
0
  0
SOLID
  8
0
 62
    15
 10
4.454560
 20
5.944400
 11
5.109280
 21
5.565560
 12
4.428160
 22
5.901280
 13
5.082440
 23
5.522440
  0
POLYLINE
  8
0
  6
CONTINUOUS
 66
     1
 40
0.000000
 41
0.000000
  0
VERTEX
  8
0
  6
CONTINUOUS
 10
4.454560
 20
5.944400
  0
VERTEX
  8
0
  6
CONTINUOUS
 10
5.109280
 20
5.565560
  0
VERTEX
  8
0
  6
CONTINUOUS
 10
5.082440
 20
5.522440
  0
VERTEX
  8
0
  6
CONTINUOUS
 10
4.428160
 20
5.901280
  0
VERTEX
  8
0
  6
CONTINUOUS
 10
4.454560
 20
5.944400
  0
SEQEND
  8
0
  0
SOLID
  8
0
 62
    15
 10
4.428160
 20
5.901280
 11
5.082440
 21
5.522440
 12
4.401760
 22
5.858160
 13
5.056480
 23
5.479320
  0
POLYLINE
  8
0
  6
CONTINUOUS
 66
     1
 40
0.000000
 41
0.000000
  0
VERTEX
  8
0
  6
CONTINUOUS
 10
4.428160
 20
5.901280
  0
VERTEX
  8
0
  6
CONTINUOUS
 10
5.082440
 20
5.522440
  0
VERTEX
  8
0
  6
CONTINUOUS
 10
5.056480
 20
5.479320
  0
VERTEX
  8
0
  6
CONTINUOUS
 10
4.401760
 20
5.858160
  0
VERTEX
  8
0
  6
CONTINUOUS
 10
4.428160
 20
5.901280
  0
SEQEND
  8
0
  0
SOLID
  8
0
 62
    15
 10
4.401760
 20
5.858160
 11
5.056480
 21
5.479320
 12
4.349840
 22
5.774120
 13
5.004560
 23
5.395280
  0
POLYLINE
  8
0
  6
CONTINUOUS
 66
     1
 40
0.000000
 41
0.000000
  0
VERTEX
  8
0
  6
CONTINUOUS
 10
4.401760
 20
5.858160
  0
VERTEX
  8
0
  6
CONTINUOUS
 10
5.056480
 20
5.479320
  0
VERTEX
  8
0
  6
CONTINUOUS
 10
5.004560
 20
5.395280
  0
VERTEX
  8
0
  6
CONTINUOUS
 10
4.349840
 20
5.774120
  0
VERTEX
  8
0
  6
CONTINUOUS
 10
4.401760
 20
5.858160
  0
SEQEND
  8
0
  0
SOLID
  8
0
 62
    15
 10
4.349840
 20
5.774120
 11
5.004560
 21
5.395280
 12
4.238520
 22
5.622760
 13
4.893240
 23
5.244360
  0
POLYLINE
  8
0
  6
CONTINUOUS
 66
     1
 40
0.000000
 41
0.000000
  0
VERTEX
  8
0
  6
CONTINUOUS
 10
4.349840
 20
5.774120
  0
VERTEX
  8
0
  6
CONTINUOUS
 10
5.004560
 20
5.395280
  0
VERTEX
  8
0
  6
CONTINUOUS
 10
4.893240
 20
5.244360
  0
VERTEX
  8
0
  6
CONTINUOUS
 10
4.238520
 20
5.622760
  0
VERTEX
  8
0
  6
CONTINUOUS
 10
4.349840
 20
5.774120
  0
SEQEND
  8
0
  0
SOLID
  8
0
 62
    15
 10
4.238520
 20
5.622760
 11
4.893240
 21
5.244360
 12
4.174280
 22
5.561160
 13
4.828560
 23
5.182760
  0
POLYLINE
  8
0
  6
CONTINUOUS
 66
     1
 40
0.000000
 41
0.000000
  0
VERTEX
  8
0
  6
CONTINUOUS
 10
4.238520
 20
5.622760
  0
VERTEX
  8
0
  6
CONTINUOUS
 10
4.893240
 20
5.244360
  0
VERTEX
  8
0
  6
CONTINUOUS
 10
4.828560
 20
5.182760
  0
VERTEX
  8
0
  6
CONTINUOUS
 10
4.174280
 20
5.561160
  0
VERTEX
  8
0
  6
CONTINUOUS
 10
4.238520
 20
5.622760
  0
SEQEND
  8
0
  0
SOLID
  8
0
 62
    15
 10
4.174280
 20
5.561160
 11
4.828560
 21
5.182760
 12
4.100360
 22
5.512320
 13
4.755080
 23
5.133920
  0
POLYLINE
  8
0
  6
CONTINUOUS
 66
     1
 40
0.000000
 41
0.000000
  0
VERTEX
  8
0
  6
CONTINUOUS
 10
4.174280
 20
5.561160
  0
VERTEX
  8
0
  6
CONTINUOUS
 10
4.828560
 20
5.182760
  0
VERTEX
  8
0
  6
CONTINUOUS
 10
4.755080
 20
5.133920
  0
VERTEX
  8
0
  6
CONTINUOUS
 10
4.100360
 20
5.512320
  0
VERTEX
  8
0
  6
CONTINUOUS
 10
4.174280
 20
5.561160
  0
SEQEND
  8
0
  0
SOLID
  8
0
 62
    15
 10
5.115880
 20
6.771600
 11
5.770600
 21
6.392760
 12
5.117200
 22
6.359320
 13
5.771480
 23
5.980480
  0
POLYLINE
  8
0
  6
CONTINUOUS
 66
     1
 40
0.000000
 41
0.000000
  0
VERTEX
  8
0
  6
CONTINUOUS
 10
5.115880
 20
6.771600
  0
VERTEX
  8
0
  6
CONTINUOUS
 10
5.770600
 20
6.392760
  0
VERTEX
  8
0
  6
CONTINUOUS
 10
5.771480
 20
5.980480
  0
VERTEX
  8
0
  6
CONTINUOUS
 10
5.117200
 20
6.359320
  0
VERTEX
  8
0
  6
CONTINUOUS
 10
5.115880
 20
6.771600
  0
SEQEND
  8
0
  0
SOLID
  8
0
 62
    15
 10
4.015000
 20
5.479320
 11
4.669720
 21
5.100480
 12
3.915120
 22
5.463920
 13
4.569840
 23
5.085080
  0
POLYLINE
  8
0
  6
CONTINUOUS
 66
     1
 40
0.000000
 41
0.000000
  0
VERTEX
  8
0
  6
CONTINUOUS
 10
4.015000
 20
5.479320
  0
VERTEX
  8
0
  6
CONTINUOUS
 10
4.669720
 20
5.100480
  0
VERTEX
  8
0
  6
CONTINUOUS
 10
4.569840
 20
5.085080
  0
VERTEX
  8
0
  6
CONTINUOUS
 10
3.915120
 20
5.463920
  0
VERTEX
  8
0
  6
CONTINUOUS
 10
4.015000
 20
5.479320
  0
SEQEND
  8
0
  0
SOLID
  8
0
 62
    15
 10
3.915120
 20
5.463920
 11
4.569840
 21
5.085080
 12
3.910280
 22
5.224560
 13
4.565000
 23
4.846160
  0
POLYLINE
  8
0
  6
CONTINUOUS
 66
     1
 40
0.000000
 41
0.000000
  0
VERTEX
  8
0
  6
CONTINUOUS
 10
3.915120
 20
5.463920
  0
VERTEX
  8
0
  6
CONTINUOUS
 10
4.569840
 20
5.085080
  0
VERTEX
  8
0
  6
CONTINUOUS
 10
4.565000
 20
4.846160
  0
VERTEX
  8
0
  6
CONTINUOUS
 10
3.910280
 20
5.224560
  0
VERTEX
  8
0
  6
CONTINUOUS
 10
3.915120
 20
5.463920
  0
SEQEND
  8
0
  0
SOLID
  8
0
 62
    15
 10
3.910280
 20
5.224560
 11
4.565000
 21
4.846160
 12
3.694240
 22
5.222800
 13
4.348960
 23
4.843960
  0
POLYLINE
  8
0
  6
CONTINUOUS
 66
     1
 40
0.000000
 41
0.000000
  0
VERTEX
  8
0
  6
CONTINUOUS
 10
3.910280
 20
5.224560
  0
VERTEX
  8
0
  6
CONTINUOUS
 10
4.565000
 20
4.846160
  0
VERTEX
  8
0
  6
CONTINUOUS
 10
4.348960
 20
4.843960
  0
VERTEX
  8
0
  6
CONTINUOUS
 10
3.694240
 20
5.222800
  0
VERTEX
  8
0
  6
CONTINUOUS
 10
3.910280
 20
5.224560
  0
SEQEND
  8
0
  0
SOLID
  8
0
 62
    15
 10
3.694240
 20
5.222800
 11
4.348960
 21
4.843960
 12
3.689400
 22
5.155040
 13
4.344120
 23
4.776640
  0
POLYLINE
  8
0
  6
CONTINUOUS
 66
     1
 40
0.000000
 41
0.000000
  0
VERTEX
  8
0
  6
CONTINUOUS
 10
3.694240
 20
5.222800
  0
VERTEX
  8
0
  6
CONTINUOUS
 10
4.348960
 20
4.843960
  0
VERTEX
  8
0
  6
CONTINUOUS
 10
4.344120
 20
4.776640
  0
VERTEX
  8
0
  6
CONTINUOUS
 10
3.689400
 20
5.155040
  0
VERTEX
  8
0
  6
CONTINUOUS
 10
3.694240
 20
5.222800
  0
SEQEND
  8
0
  0
SOLID
  8
0
 62
    15
 10
3.689400
 20
5.155040
 11
4.344120
 21
4.776640
 12
3.671360
 22
5.100040
 13
4.326080
 23
4.721200
  0
POLYLINE
  8
0
  6
CONTINUOUS
 66
     1
 40
0.000000
 41
0.000000
  0
VERTEX
  8
0
  6
CONTINUOUS
 10
3.689400
 20
5.155040
  0
VERTEX
  8
0
  6
CONTINUOUS
 10
4.344120
 20
4.776640
  0
VERTEX
  8
0
  6
CONTINUOUS
 10
4.326080
 20
4.721200
  0
VERTEX
  8
0
  6
CONTINUOUS
 10
3.671360
 20
5.100040
  0
VERTEX
  8
0
  6
CONTINUOUS
 10
3.689400
 20
5.155040
  0
SEQEND
  8
0
  0
SOLID
  8
0
 62
    15
 10
3.671360
 20
5.100040
 11
4.326080
 21
4.721200
 12
3.644080
 22
5.056040
 13
4.298800
 23
4.677200
  0
POLYLINE
  8
0
  6
CONTINUOUS
 66
     1
 40
0.000000
 41
0.000000
  0
VERTEX
  8
0
  6
CONTINUOUS
 10
3.671360
 20
5.100040
  0
VERTEX
  8
0
  6
CONTINUOUS
 10
4.326080
 20
4.721200
  0
VERTEX
  8
0
  6
CONTINUOUS
 10
4.298800
 20
4.677200
  0
VERTEX
  8
0
  6
CONTINUOUS
 10
3.644080
 20
5.056040
  0
VERTEX
  8
0
  6
CONTINUOUS
 10
3.671360
 20
5.100040
  0
SEQEND
  8
0
  0
SOLID
  8
0
 62
    15
 10
3.644080
 20
5.056040
 11
4.298800
 21
4.677200
 12
3.611080
 22
5.022160
 13
4.265360
 23
4.643320
  0
POLYLINE
  8
0
  6
CONTINUOUS
 66
     1
 40
0.000000
 41
0.000000
  0
VERTEX
  8
0
  6
CONTINUOUS
 10
3.644080
 20
5.056040
  0
VERTEX
  8
0
  6
CONTINUOUS
 10
4.298800
 20
4.677200
  0
VERTEX
  8
0
  6
CONTINUOUS
 10
4.265360
 20
4.643320
  0
VERTEX
  8
0
  6
CONTINUOUS
 10
3.611080
 20
5.022160
  0
VERTEX
  8
0
  6
CONTINUOUS
 10
3.644080
 20
5.056040
  0
SEQEND
  8
0
  0
SOLID
  8
0
 62
    15
 10
3.611080
 20
5.022160
 11
4.265360
 21
4.643320
 12
3.541120
 22
4.979920
 13
4.195840
 23
4.601520
  0
POLYLINE
  8
0
  6
CONTINUOUS
 66
     1
 40
0.000000
 41
0.000000
  0
VERTEX
  8
0
  6
CONTINUOUS
 10
3.611080
 20
5.022160
  0
VERTEX
  8
0
  6
CONTINUOUS
 10
4.265360
 20
4.643320
  0
VERTEX
  8
0
  6
CONTINUOUS
 10
4.195840
 20
4.601520
  0
VERTEX
  8
0
  6
CONTINUOUS
 10
3.541120
 20
4.979920
  0
VERTEX
  8
0
  6
CONTINUOUS
 10
3.611080
 20
5.022160
  0
SEQEND
  8
0
  0
SOLID
  8
0
 62
    15
 10
3.541120
 20
4.979920
 11
4.195840
 21
4.601520
 12
3.511640
 22
4.969360
 13
4.166360
 23
4.590520
  0
POLYLINE
  8
0
  6
CONTINUOUS
 66
     1
 40
0.000000
 41
0.000000
  0
VERTEX
  8
0
  6
CONTINUOUS
 10
3.541120
 20
4.979920
  0
VERTEX
  8
0
  6
CONTINUOUS
 10
4.195840
 20
4.601520
  0
VERTEX
  8
0
  6
CONTINUOUS
 10
4.166360
 20
4.590520
  0
VERTEX
  8
0
  6
CONTINUOUS
 10
3.511640
 20
4.969360
  0
VERTEX
  8
0
  6
CONTINUOUS
 10
3.541120
 20
4.979920
  0
SEQEND
  8
0
  0
SOLID
  8
0
 62
    15
 10
3.511640
 20
4.969360
 11
4.166360
 21
4.590520
 12
3.490520
 22
4.964080
 13
4.145240
 23
4.585240
  0
POLYLINE
  8
0
  6
CONTINUOUS
 66
     1
 40
0.000000
 41
0.000000
  0
VERTEX
  8
0
  6
CONTINUOUS
 10
3.511640
 20
4.969360
  0
VERTEX
  8
0
  6
CONTINUOUS
 10
4.166360
 20
4.590520
  0
VERTEX
  8
0
  6
CONTINUOUS
 10
4.145240
 20
4.585240
  0
VERTEX
  8
0
  6
CONTINUOUS
 10
3.490520
 20
4.964080
  0
VERTEX
  8
0
  6
CONTINUOUS
 10
3.511640
 20
4.969360
  0
SEQEND
  8
0
  0
SOLID
  8
0
 62
    15
 10
3.490520
 20
4.964080
 11
4.145240
 21
4.585240
 12
3.451800
 22
4.948680
 13
4.106520
 23
4.569840
  0
POLYLINE
  8
0
  6
CONTINUOUS
 66
     1
 40
0.000000
 41
0.000000
  0
VERTEX
  8
0
  6
CONTINUOUS
 10
3.490520
 20
4.964080
  0
VERTEX
  8
0
  6
CONTINUOUS
 10
4.145240
 20
4.585240
  0
VERTEX
  8
0
  6
CONTINUOUS
 10
4.106520
 20
4.569840
  0
VERTEX
  8
0
  6
CONTINUOUS
 10
3.451800
 20
4.948680
  0
VERTEX
  8
0
  6
CONTINUOUS
 10
3.490520
 20
4.964080
  0
SEQEND
  8
0
  0
SOLID
  8
0
 62
    15
 10
3.451800
 20
4.948680
 11
4.106520
 21
4.569840
 12
3.407360
 22
4.918760
 13
4.061640
 23
4.539920
  0
POLYLINE
  8
0
  6
CONTINUOUS
 66
     1
 40
0.000000
 41
0.000000
  0
VERTEX
  8
0
  6
CONTINUOUS
 10
3.451800
 20
4.948680
  0
VERTEX
  8
0
  6
CONTINUOUS
 10
4.106520
 20
4.569840
  0
VERTEX
  8
0
  6
CONTINUOUS
 10
4.061640
 20
4.539920
  0
VERTEX
  8
0
  6
CONTINUOUS
 10
3.407360
 20
4.918760
  0
VERTEX
  8
0
  6
CONTINUOUS
 10
3.451800
 20
4.948680
  0
SEQEND
  8
0
  0
SOLID
  8
0
 62
    15
 10
3.407360
 20
4.918760
 11
4.061640
 21
4.539920
 12
3.368640
 22
4.876960
 13
4.023360
 23
4.498560
  0
POLYLINE
  8
0
  6
CONTINUOUS
 66
     1
 40
0.000000
 41
0.000000
  0
VERTEX
  8
0
  6
CONTINUOUS
 10
3.407360
 20
4.918760
  0
VERTEX
  8
0
  6
CONTINUOUS
 10
4.061640
 20
4.539920
  0
VERTEX
  8
0
  6
CONTINUOUS
 10
4.023360
 20
4.498560
  0
VERTEX
  8
0
  6
CONTINUOUS
 10
3.368640
 20
4.876960
  0
VERTEX
  8
0
  6
CONTINUOUS
 10
3.407360
 20
4.918760
  0
SEQEND
  8
0
  0
SOLID
  8
0
 62
    15
 10
3.368640
 20
4.876960
 11
4.023360
 21
4.498560
 12
3.347960
 22
4.827680
 13
4.002680
 23
4.449280
  0
POLYLINE
  8
0
  6
CONTINUOUS
 66
     1
 40
0.000000
 41
0.000000
  0
VERTEX
  8
0
  6
CONTINUOUS
 10
3.368640
 20
4.876960
  0
VERTEX
  8
0
  6
CONTINUOUS
 10
4.023360
 20
4.498560
  0
VERTEX
  8
0
  6
CONTINUOUS
 10
4.002680
 20
4.449280
  0
VERTEX
  8
0
  6
CONTINUOUS
 10
3.347960
 20
4.827680
  0
VERTEX
  8
0
  6
CONTINUOUS
 10
3.368640
 20
4.876960
  0
SEQEND
  8
0
  0
SOLID
  8
0
 62
    15
 10
3.347960
 20
4.827680
 11
4.002680
 21
4.449280
 12
3.195280
 22
4.826360
 13
3.850000
 23
4.447960
  0
POLYLINE
  8
0
  6
CONTINUOUS
 66
     1
 40
0.000000
 41
0.000000
  0
VERTEX
  8
0
  6
CONTINUOUS
 10
3.347960
 20
4.827680
  0
VERTEX
  8
0
  6
CONTINUOUS
 10
4.002680
 20
4.449280
  0
VERTEX
  8
0
  6
CONTINUOUS
 10
3.850000
 20
4.447960
  0
VERTEX
  8
0
  6
CONTINUOUS
 10
3.195280
 20
4.826360
  0
VERTEX
  8
0
  6
CONTINUOUS
 10
3.347960
 20
4.827680
  0
SEQEND
  8
0
  0
POLYLINE
  8
0
  6
CONTINUOUS
 66
     1
 40
0.000000
 41
0.000000
  0
VERTEX
  8
0
  6
CONTINUOUS
 10
4.401760
 20
6.766320
  0
VERTEX
  8
0
  6
CONTINUOUS
 10
5.115880
 20
6.771600
  0
VERTEX
  8
0
  6
CONTINUOUS
 10
5.117200
 20
6.359320
  0
VERTEX
  8
0
  6
CONTINUOUS
 10
4.993120
 20
6.338640
  0
VERTEX
  8
0
  6
CONTINUOUS
 10
4.884880
 20
6.308720
  0
VERTEX
  8
0
  6
CONTINUOUS
 10
4.790280
 20
6.270000
  0
VERTEX
  8
0
  6
CONTINUOUS
 10
4.707560
 20
6.222480
  0
VERTEX
  8
0
  6
CONTINUOUS
 10
4.634520
 20
6.165720
  0
VERTEX
  8
0
  6
CONTINUOUS
 10
4.569400
 20
6.100600
  0
VERTEX
  8
0
  6
CONTINUOUS
 10
4.510000
 20
6.026680
  0
VERTEX
  8
0
  6
CONTINUOUS
 10
4.454560
 20
5.944400
  0
VERTEX
  8
0
  6
CONTINUOUS
 10
4.428160
 20
5.901280
  0
VERTEX
  8
0
  6
CONTINUOUS
 10
4.401760
 20
5.858160
  0
VERTEX
  8
0
  6
CONTINUOUS
 10
4.349840
 20
5.774120
  0
VERTEX
  8
0
  6
CONTINUOUS
 10
4.238520
 20
5.622760
  0
VERTEX
  8
0
  6
CONTINUOUS
 10
4.174280
 20
5.561160
  0
VERTEX
  8
0
  6
CONTINUOUS
 10
4.100360
 20
5.512320
  0
VERTEX
  8
0
  6
CONTINUOUS
 10
4.015000
 20
5.479320
  0
VERTEX
  8
0
  6
CONTINUOUS
 10
3.915120
 20
5.463920
  0
VERTEX
  8
0
  6
CONTINUOUS
 10
3.910280
 20
5.224560
  0
VERTEX
  8
0
  6
CONTINUOUS
 10
3.694240
 20
5.222800
  0
VERTEX
  8
0
  6
CONTINUOUS
 10
3.689400
 20
5.155040
  0
VERTEX
  8
0
  6
CONTINUOUS
 10
3.671360
 20
5.100040
  0
VERTEX
  8
0
  6
CONTINUOUS
 10
3.644080
 20
5.056040
  0
VERTEX
  8
0
  6
CONTINUOUS
 10
3.611080
 20
5.022160
  0
VERTEX
  8
0
  6
CONTINUOUS
 10
3.541120
 20
4.979920
  0
VERTEX
  8
0
  6
CONTINUOUS
 10
3.511640
 20
4.969360
  0
VERTEX
  8
0
  6
CONTINUOUS
 10
3.490520
 20
4.964080
  0
VERTEX
  8
0
  6
CONTINUOUS
 10
3.451800
 20
4.948680
  0
VERTEX
  8
0
  6
CONTINUOUS
 10
3.407360
 20
4.918760
  0
VERTEX
  8
0
  6
CONTINUOUS
 10
3.368640
 20
4.876960
  0
VERTEX
  8
0
  6
CONTINUOUS
 10
3.347960
 20
4.827680
  0
VERTEX
  8
0
  6
CONTINUOUS
 10
3.195280
 20
4.826360
  0
VERTEX
  8
0
  6
CONTINUOUS
 10
3.204960
 20
5.650480
  0
VERTEX
  8
0
  6
CONTINUOUS
 10
4.401760
 20
6.766320
  0
SEQEND
  8
0
  0
TEXT
  8
0
 10
4.879160
 20
4.654320
 40
0.137988
  1
BA  1274
 41
1.000000
  7
SN0
 71
     0
 72
     5
 11
5.561398
 21
4.654320
  0
TEXT
  8
0
 10
4.769600
 20
4.462920
 40
0.137988
  1
3/4" x 2-3/4"
 41
1.000000
  7
SN0
 71
     0
 72
     5
 11
5.670492
 21
4.462920
  0
TEXT
  8
0
 10
4.143040
 20
7.883920
 40
0.137988
  1
BA  1274
 41
1.000000
  7
SN0
 71
     0
 72
     5
 11
4.825278
 21
7.883920
  0
TEXT
  8
0
 10
4.033480
 20
7.692080
 40
0.137988
  1
3/4" x 2-3/4"
 41
1.000000
  7
SN0
 71
     0
 72
     5
 11
4.934372
 21
7.692080
  0
ENDSEC
  0
EOF
