  0
SECTION
  2
HEADER
  9
$ACADVER
  1
AC1015
  9
$ACADMAINTVER
 70
     6
  9
$DWGCODEPAGE
  3
DOS850
  9
$INSBASE
 10
0.0
 20
0.0
 30
0.0
  9
$EXTMIN
 10
1.000000E+20
 20
1.000000E+20
 30
1.000000E+20
  9
$EXTMAX
 10
-1.000000E+20
 20
-1.000000E+20
 30
-1.000000E+20
  9
$LIMMIN
 10
0.0
 20
0.0
  9
$LIMMAX
 10
0.0
 20
0.0
  9
$ORTHOMODE
 70
     0
  9
$REGENMODE
 70
     1
  9
$FILLMODE
 70
     1
  9
$QTEXTMODE
 70
     0
  9
$MIRRTEXT
 70
     1
  9
$LTSCALE
 40
1.0
  9
$ATTMODE
 70
     1
  9
$TEXTSIZE
 40
0.2
  9
$TRACEWID
 40
0.05
  9
$TEXTSTYLE
  7
Standard
  9
$CLAYER
  8
0
  9
$CELTYPE
  6
Continuous
  9
$CECOLOR
 62
   256
  9
$CELTSCALE
 40
1.0
  9
$DISPSILH
 70
     0
  9
$DIMSCALE
 40
1.0
  9
$DIMASZ
 40
0.18
  9
$DIMEXO
 40
0.0625
  9
$DIMDLI
 40
0.38
  9
$DIMRND
 40
0.0
  9
$DIMDLE
 40
0.0
  9
$DIMEXE
 40
0.18
  9
$DIMTP
 40
0.0
  9
$DIMTM
 40
0.0
  9
$DIMTXT
 40
0.18
  9
$DIMCEN
 40
0.09
  9
$DIMTSZ
 40
0.0
  9
$DIMTOL
 70
     0
  9
$DIMLIM
 70
     0
  9
$DIMTIH
 70
     1
  9
$DIMTOH
 70
     1
  9
$DIMSE1
 70
     0
  9
$DIMSE2
 70
     0
  9
$DIMTAD
 70
     0
  9
$DIMZIN
 70
     0
  9
$DIMBLK
  1

  9
$DIMASO
 70
     1
  9
$DIMSHO
 70
     1
  9
$DIMPOST
  1

  9
$DIMAPOST
  1

  9
$DIMALT
 70
     0
  9
$DIMALTD
 70
     2
  9
$DIMALTF
 40
25.4
  9
$DIMLFAC
 40
1.0
  9
$DIMTOFL
 70
     0
  9
$DIMTVP
 40
0.0
  9
$DIMTIX
 70
     0
  9
$DIMSOXD
 70
     0
  9
$DIMSAH
 70
     0
  9
$DIMBLK1
  1

  9
$DIMBLK2
  1

  9
$DIMSTYLE
  2
Standard
  9
$DIMCLRD
 70
     0
  9
$DIMCLRE
 70
     0
  9
$DIMCLRT
 70
     0
  9
$DIMTFAC
 40
1.0
  9
$DIMGAP
 40
0.09
  9
$DIMJUST
 70
     0
  9
$DIMSD1
 70
     0
  9
$DIMSD2
 70
     0
  9
$DIMTOLJ
 70
     1
  9
$DIMTZIN
 70
     0
  9
$DIMALTZ
 70
     0
  9
$DIMALTTZ
 70
     0
  9
$DIMUPT
 70
     0
  9
$DIMDEC
 70
     4
  9
$DIMTDEC
 70
     4
  9
$DIMALTU
 70
     2
  9
$DIMALTTD
 70
     2
  9
$DIMTXSTY
  7
Standard
  9
$DIMAUNIT
 70
     0
  9
$DIMADEC
 70
     0
  9
$DIMALTRND
 40
0.0
  9
$DIMAZIN
 70
     0
  9
$DIMDSEP
 70
     0
  9
$DIMATFIT
 70
     3
  9
$DIMFRAC
 70
     0
  9
$DIMLDRBLK
  1

  9
$DIMLUNIT
 70
     2
  9
$DIMLWD
 70
     0
  9
$DIMLWE
 70
     0
  9
$DIMTMOVE
 70
     0
  9
$LUNITS
 70
     2
  9
$LUPREC
 70
     4
  9
$SKETCHINC
 40
0.1
  9
$FILLETRAD
 40
0.0
  9
$AUNITS
 70
     0
  9
$AUPREC
 70
     0
  9
$MENU
  1
acad
  9
$ELEVATION
 40
0.0
  9
$PELEVATION
 40
0.0
  9
$THICKNESS
 40
0.0
  9
$LIMCHECK
 70
     0
  9
$CHAMFERA
 40
0.0
  9
$CHAMFERB
 40
0.0
  9
$CHAMFERC
 40
0.0
  9
$CHAMFERD
 40
0.0
  9
$SKPOLY
 70
     0
  9
$TDCREATE
 40
0.000000000
  9
$TDUCREATE
 40
0.000000000
  9
$TDUPDATE
 40
0.000000000
  9
$TDUUPDATE
 40
0.000000000
  9
$TDINDWG
 40
0.0000000000
  9
$TDUSRTIMER
 40
0.0000000000
  9
$USRTIMER
 70
     1
  9
$ANGBASE
 50
0.0
  9
$ANGDIR
 70
     0
  9
$PDMODE
 70
     0
  9
$PDSIZE
 40
0.0
  9
$PLINEWID
 40
0.0
  9
$SPLFRAME
 70
     0
  9
$SPLINETYPE
 70
     6
  9
$SPLINESEGS
 70
     8
  9
$HANDSEED
  5
E6
  9
$SURFTAB1
 70
     6
  9
$SURFTAB2
 70
     6
  9
$SURFTYPE
 70
     6
  9
$SURFU
 70
     6
  9
$SURFV
 70
     6
  9
$UCSBASE
  2

  9
$UCSNAME
  2

  9
$UCSORG
 10
0.0
 20
0.0
 30
0.0
  9
$UCSXDIR
 10
1.0
 20
0.0
 30
0.0
  9
$UCSYDIR
 10
0.0
 20
1.0
 30
0.0
  9
$UCSORTHOREF
  2

  9
$UCSORTHOVIEW
 70
     0
  9
$UCSORGTOP
 10
0.0
 20
0.0
 30
0.0
  9
$UCSORGBOTTOM
 10
0.0
 20
0.0
 30
0.0
  9
$UCSORGLEFT
 10
0.0
 20
0.0
 30
0.0
  9
$UCSORGRIGHT
 10
0.0
 20
0.0
 30
0.0
  9
$UCSORGFRONT
 10
0.0
 20
0.0
 30
0.0
  9
$UCSORGBACK
 10
0.0
 20
0.0
 30
0.0
  9
$PUCSBASE
  2

  9
$PUCSNAME
  2

  9
$PUCSORG
 10
0.0
 20
0.0
 30
0.0
  9
$PUCSXDIR
 10
1.0
 20
0.0
 30
0.0
  9
$PUCSYDIR
 10
0.0
 20
1.0
 30
0.0
  9
$PUCSORTHOREF
  2

  9
$PUCSORTHOVIEW
 70
     0
  9
$PUCSORGTOP
 10
0.0
 20
0.0
 30
0.0
  9
$PUCSORGBOTTOM
 10
0.0
 20
0.0
 30
0.0
  9
$PUCSORGLEFT
 10
0.0
 20
0.0
 30
0.0
  9
$PUCSORGRIGHT
 10
0.0
 20
0.0
 30
0.0
  9
$PUCSORGFRONT
 10
0.0
 20
0.0
 30
0.0
  9
$PUCSORGBACK
 10
0.0
 20
0.0
 30
0.0
  9
$USERI1
 70
     0
  9
$USERI2
 70
     0
  9
$USERI3
 70
     0
  9
$USERI4
 70
     0
  9
$USERI5
 70
     0
  9
$USERR1
 40
0.0
  9
$USERR2
 40
0.0
  9
$USERR3
 40
0.0
  9
$USERR4
 40
0.0
  9
$USERR5
 40
0.0
  9
$WORLDVIEW
 70
     1
  9
$SHADEDGE
 70
     3
  9
$SHADEDIF
 70
    70
  9
$TILEMODE
 70
     1
  9
$MAXACTVP
 70
    16
  9
$PINSBASE
 10
0.0
 20
0.0
 30
0.0
  9
$PLIMCHECK
 70
     0
  9
$PEXTMIN
 10
1.000000E+20
 20
1.000000E+20
 30
1.000000E+20
  9
$PEXTMAX
 10
-1.000000E+20
 20
-1.000000E+20
 30
-1.000000E+20
  9
$PLIMMIN
 10
0.0
 20
0.0
  9
$PLIMMAX
 10
12.0
 20
9.0
  9
$UNITMODE
 70
     0
  9
$VISRETAIN
 70
     0
  9
$PLINEGEN
 70
     1
  9
$PSLTSCALE
 70
     0
  9
$TREEDEPTH
 70
  3020
  9
$CMLSTYLE
  2
Standard
  9
$CMLJUST
 70
     0
  9
$CMLSCALE
 40
1.0
  9
$PROXYGRAPHICS
 70
     0
  9
$MEASUREMENT
 70
     0
  9
$CELWEIGHT
370
     0
  9
$ENDCAPS
280
     0
  9
$JOINSTYLE
280
     0
  9
$LWDISPLAY
290
     0
  9
$INSUNITS
 70
     0
  9
$HYPERLINKBASE
  1

  9
$XEDIT
290
     1
  9
$CEPSNTYPE
380
     0
  9
$PSTYLEMODE
290
     1
  9
$FINGERPRINTGUID
  2

  9
$VERSIONGUID
  2

  9
$EXTNAMES
290
     1
  9
$PSVPSCALE
 40
0.0
  0
ENDSEC
  0
SECTION
  2
CLASSES
  0
CLASS
  1
LWPOLYLINE
  2
AcDbPolyline
  3
AutoCAD 2000
 90
        0
280
     0
281
     1
  0
CLASS
  1
IMAGE
  2
AcDbRasterImage
  3
ISM
 90
    32895
280
     0
281
     1
  0
CLASS
  1
OLE2FRAME
  2
AcDbOle2Frame
  3
AutoCAD 2000
 90
    32768
280
     0
281
     1
  0
CLASS
  1
HATCH
  2
AcDbHatch
  3
AutoCAD 2000
 90
    32768
280
     0
281
     1
  0
CLASS
  1
DICTIONARYVAR
  2
AcDbDictionaryVar
  3
AutoCAD 2000
 90
    32768
280
     0
281
     0
  0
CLASS
  1
RASTERVARIABLES
  2
AcDbRasterVariables
  3
ISM
 90
    32768
280
     0
281
     0
  0
CLASS
  1
IMAGEDEF
  2
AcDbRasterImageDef
  3
ISM
 90
    32768
280
     0
281
     0
  0
CLASS
  1
IMAGEDEF_REACTOR
  2
AcDbRasterImageDefReactor
  3
ISM
 90
    32769
280
     0
281
     0
  0
CLASS
  1
IDBUFFER
  2
AcDbIdBuffer
  3
AutoCAD 2000
 90
    32768
280
     0
281
     0
  0
CLASS
  1
SPATIAL_FILTER
  2
AcDbSpatialFilter
  3
AutoCAD 2000
 90
    32768
280
     0
281
     0
  0
CLASS
  1
XRECORD
  2
AcDbXrecord
  3
AutoCAD 2000
 90
    32768
280
     0
281
     0
  0
CLASS
  1
SORTENTSTABLE
  2
AcDbSortentsTable
  3
AutoCAD 2000
 90
    32768
280
     0
281
     0
  0
CLASS
  1
LAYER_INDEX
  2
AcDbLayerIndex
  3
AutoCAD 2000
 90
    32768
280
     0
281
     0
  0
CLASS
  1
SPATIAL_INDEX
  2
AcDbSpatialIndex
  3
AutoCAD 2000
 90
    32768
280
     0
281
     0
  0
CLASS
  1
OBJECT_PTR
  2
CAseDLPNTableRecord
  3
"ASE-LPNTableRecord"
 90
    32769
280
     0
281
     0
  0
CLASS
  1
LAYOUT
  2
AcDbLayout
  3
AutoCAD 2000
 90
        0
280
     0
281
     0
  0
CLASS
  1
PLOTSETTINGS
  2
AcDbPlotSettings
  3
AutoCAD 2000
 90
    32768
280
     0
281
     0
  0
CLASS
  1
ACDBDICTIONARYWDFLT
  2
AcDbDictionaryWithDefault
  3
AutoCAD 2000
 90
        0
280
     0
281
     0
  0
CLASS
  1
ACDBPLACEHOLDER
  2
AcDbPlaceHolder
  3
AutoCAD 2000
 90
        0
280
     0
281
     0
  0
CLASS
  1
VBA_PROJECT
  2
AcDbVbaProject
  3
acadvba
 90
    32768
280
     0
281
     0
  0
CLASS
  1
WIPEOUT
  2
AcDbWipeout
  3
WipeOut|AutoCAD Express Tool|expresstools@autodesk.com
 90
    32895
280
     0
281
     1
  0
CLASS
  1
WIPEOUTVARIABLES
  2
AcDbWipeoutVariables
  3
WipeOut|AutoCAD Express Tool|expresstools@autodesk.com
 90
        0
280
     0
281
     0
  0
CLASS
  1
RTEXT
  2
RText
  3
RText|AutoCAD Express Tool|expresstools@autodesk.com
 90
    32768
280
     0
281
     1
  0
CLASS
  1
ARCALIGNEDTEXT
  2
AcDbArcAlignedText
  3
ATEXT|AutoCAD Express Tool|expresstools@autodesk.com
 90
    32768
280
     0
281
     1
  0
ENDSEC
  0
SECTION
  2
TABLES
  0
TABLE
  2
VPORT
  5
7
100
AcDbSymbolTable
 70
     1
  0
VPORT
  5
15
100
AcDbSymbolTableRecord
100
AcDbViewportTableRecord
  2
*ACTIVE
 70
     0
 10
0.0
 20
0.0
 11
1.0
 21
1.0
 12
6.591288
 22
4.579184
 13
0.0
 23
0.0
 14
1.0
 24
1.0
 15
0.0
 25
0.0
 16
0.0
 26
0.0
 36
1.0
 17
0.0
 27
0.0
 37
0.0
 40
9.158369
 41
0.688564
 42
50.0
 43
0.0
 44
0.0
 50
0.0
 51
0.0
 71
     0
 72
   100
 73
     1
 74
     1
 75
     0
 76
     0
 77
     0
 78
     0
281
     0
 65
     0
110
0.0
120
0.0
130
0.0
111
1.0
121
0.0
131
0.0
112
0.0
122
1.0
132
0.0
345
0
346
0
 79
     0
146
0.0
  0
ENDTAB
  0
TABLE
  2
LTYPE
  5
4
100
AcDbSymbolTable
 70
     3
  0
LTYPE
  5
11
100
AcDbSymbolTableRecord
100
AcDbLinetypeTableRecord
  2
ByBlock
 70
    64
  3

 72
    65
 73
     0
 40
0.0
  0
LTYPE
  5
12
100
AcDbSymbolTableRecord
100
AcDbLinetypeTableRecord
  2
ByLayer
 70
    64
  3

 72
    65
 73
     0
 40
0.0
  0
LTYPE
  5
13
100
AcDbSymbolTableRecord
100
AcDbLinetypeTableRecord
  2
Continuous
 70
    64
  3
Solid line
 72
    65
 73
     0
 40
0.0
  0
ENDTAB
  0
TABLE
  2
LAYER
  5
2
100
AcDbSymbolTable
 70
     1
  0
LAYER
  5
14
100
AcDbSymbolTableRecord
100
AcDbLayerTableRecord
  2
0
 70
     0
 62
     7
  6
Continuous
290
     1
370
    -3
390
1D
  0
ENDTAB
  0
TABLE
  2
STYLE
  5
3
100
AcDbSymbolTable
 70
     1
  0
STYLE
  5
17
100
AcDbSymbolTableRecord
100
AcDbTextStyleTableRecord
  2
Standard
 70
     0
 40
0.0
 41
1.0
 50
0.0
 71
     0
 42
0.0
  3
txt
  4

  0
ENDTAB
  0
TABLE
  2
VIEW
  5
5
100
AcDbSymbolTable
 70
     0
  0
ENDTAB
  0
TABLE
  2
UCS
  5
6
100
AcDbSymbolTable
 70
     0
  0
ENDTAB
  0
TABLE
  2
APPID
  5
8
100
AcDbSymbolTable
 70
     1
  0
APPID
  5
16
100
AcDbSymbolTableRecord
100
AcDbRegAppTableRecord
  2
ACAD
 70
     0
  0
ENDTAB
  0
TABLE
  2
DIMSTYLE
  5
9
100
AcDbSymbolTable
 70
     1
100
AcDbDimStyleTable
 71
     0
  0
DIMSTYLE
105
18
100
AcDbSymbolTableRecord
100
AcDbDimStyleTableRecord
  2
Standard
 70
     0
  3

  4

 40
1.0
 41
0.18
 42
0.0625
 43
0.38
 44
0.18
 45
0.0
 46
0.0
 47
0.0
 48
0.0
 71
     0
 72
     0
 73
     1
 74
     1
 75
     0
 76
     0
 77
     0
 78
     0
 79
     0
140
0.18
141
0.09
142
0.0
143
25.4
144
1.0
145
0.0
146
1.0
147
0.09
148
0.0
170
     0
171
     2
172
     0
173
     0
174
     0
175
     0
176
     0
177
     0
178
     0
179
     0
271
     4
272
     4
273
     2
274
     2
275
     0
276
     0
277
     2
278
    46
279
     0
280
     0
281
     0
282
     0
283
     1
284
     0
285
     0
286
     0
288
     0
340
17
341
0
342
0
343
0
344
0
371
    -2
372
    -2
  0
ENDTAB
  0
TABLE
  2
BLOCK_RECORD
  5
1
100
AcDbSymbolTable
 70
     0
  0
BLOCK_RECORD
  5
A
100
AcDbSymbolTableRecord
100
AcDbBlockTableRecord
  2
*MODEL_SPACE
340
20
  0
BLOCK_RECORD
  5
B
100
AcDbSymbolTableRecord
100
AcDbBlockTableRecord
  2
*PAPER_SPACE
340
21
  0
ENDTAB
  0
ENDSEC
  0
SECTION
  2
BLOCKS
  0
BLOCK
  5
D
100
AcDbEntity
  8
0
100
AcDbBlockBegin
  2
*MODEL_SPACE
 70
     0
 10
0.0
 20
0.0
 30
0.0
  3
*MODEL_SPACE
  1

  0
ENDBLK
  5
E
100
AcDbEntity
  8
0
100
AcDbBlockEnd
  0
BLOCK
  5
F
100
AcDbEntity
 67
     1
  8
0
100
AcDbBlockBegin
  2
*PAPER_SPACE
 70
     0
 10
0.0
 20
0.0
 30
0.0
  3
*PAPER_SPACE
  1

  0
ENDBLK
  5
10
100
AcDbEntity
 67
     1
  8
0
100
AcDbBlockEnd
  0
ENDSEC
  0
SECTION
  2
ENTITIES
  0
SPLINE
  5
24
100
AcDbEntity
  8
0
 62
     0
100
AcDbSpline
210
0.0
220
0.0
230
1.0
 70
     0
 71
     3
 72
     0
 73
     0
 74
   353
 44
0.0000000001
 11
0.860240157480315
 21
3.6388346456692915
 31
0.0
 11
0.738763779527559
 21
3.6388346456692915
 31
0.0
 11
0.6172874015748031
 21
3.6388346456692915
 31
0.0
 11
0.4958110236220473
 21
3.6388346456692915
 31
0.0
 11
0.3743346456692914
 21
3.6388346456692915
 31
0.0
 11
0.2528582677165354
 21
3.6388346456692915
 31
0.0
 11
0.1313818897637795
 21
3.6388346456692915
 31
0.0
 11
0.0099055118110236
 21
3.6388346456692915
 31
0.0
 11
-0.1115708661417323
 21
3.6388346456692915
 31
0.0
 11
-0.2330472440944882
 21
3.6388346456692915
 31
0.0
 11
-0.3545236220472441
 21
3.6388346456692915
 31
0.0
 11
-0.476
 21
3.6388346456692915
 31
0.0
 11
-0.5974763779527559
 21
3.6388346456692915
 31
0.0
 11
-0.7189527559055118
 21
3.6388346456692915
 31
0.0
 11
-0.8404291338582677
 21
3.6388346456692915
 31
0.0
 11
-0.9619055118110236
 21
3.6388346456692915
 31
0.0
 11
-1.0833858267716536
 21
3.6388346456692915
 31
0.0
 11
-1.0833858267716536
 21
3.6759921259842518
 31
0.0
 11
-1.0833858267716536
 21
3.7131496062992126
 31
0.0
 11
-1.0833858267716536
 21
3.7503070866141734
 31
0.0
 11
-1.0833858267716536
 21
3.7874724409448817
 31
0.0
 11
-1.0833858267716536
 21
3.8246377952755903
 31
0.0
 11
-1.0833858267716536
 21
3.8618110236220473
 31
0.0
 11
-1.0833858267716536
 21
3.8989921259842522
 31
0.0
 11
-1.0833858267716536
 21
3.9361811023622049
 31
0.0
 11
-1.0833858267716536
 21
3.9733700787401576
 31
0.0
 11
-1.0833858267716536
 21
4.0105748031496065
 31
0.0
 11
-1.0833858267716536
 21
4.0477874015748032
 31
0.0
 11
-1.0833858267716536
 21
4.0850157480314957
 31
0.0
 11
-1.0833858267716536
 21
4.1222480314960626
 31
0.0
 11
-1.0833858267716536
 21
4.1595000000000004
 31
0.0
 11
-1.0833858267716536
 21
4.1967637795275587
 31
0.0
 11
-1.0833858267716536
 21
4.2340472440944881
 31
0.0
 11
-1.0745393700787402
 21
4.2340472440944881
 31
0.0
 11
-1.0656811023622048
 21
4.2340472440944881
 31
0.0
 11
-1.0568070866141732
 21
4.2340472440944881
 31
0.0
 11
-1.0479251968503938
 21
4.2340472440944881
 31
0.0
 11
-1.0390236220472442
 21
4.2340472440944881
 31
0.0
 11
-1.0301181102362205
 21
4.2340472440944881
 31
0.0
 11
-1.0211968503937008
 21
4.2340472440944881
 31
0.0
 11
-1.0122755905511811
 21
4.2340472440944881
 31
0.0
 11
-1.0033346456692913
 21
4.2340472440944881
 31
0.0
 11
-0.9943937007874015
 21
4.2340472440944881
 31
0.0
 11
-0.9854409448818897
 21
4.2340472440944881
 31
0.0
 11
-0.976492125984252
 21
4.2340472440944881
 31
0.0
 11
-0.9675275590551181
 21
4.2340472440944881
 31
0.0
 11
-0.9585708661417323
 21
4.2340472440944881
 31
0.0
 11
-0.9496062992125984
 21
4.2340472440944881
 31
0.0
 11
-0.9406456692913386
 21
4.2340472440944881
 31
0.0
 11
-0.9406456692913386
 21
4.2340472440944881
 31
0.0
 11
-0.9406456692913386
 21
4.2340472440944881
 31
0.0
 11
-0.9406456692913386
 21
4.2340472440944881
 31
0.0
 11
-0.9406456692913386
 21
4.2340472440944881
 31
0.0
 11
-0.9406456692913386
 21
4.2340472440944881
 31
0.0
 11
-0.9406456692913386
 21
4.2340472440944881
 31
0.0
 11
-0.9406456692913386
 21
4.2340472440944881
 31
0.0
 11
-0.9406456692913386
 21
4.2340472440944881
 31
0.0
 11
-0.9406456692913386
 21
4.2340472440944881
 31
0.0
 11
-0.9406456692913386
 21
4.2340472440944881
 31
0.0
 11
-0.9406456692913386
 21
4.2340472440944881
 31
0.0
 11
-0.9406456692913386
 21
4.2340472440944881
 31
0.0
 11
-0.9406456692913386
 21
4.2340472440944881
 31
0.0
 11
-0.9406456692913386
 21
4.2340472440944881
 31
0.0
 11
-0.9406456692913386
 21
4.2340472440944881
 31
0.0
 11
-0.9406456692913386
 21
4.2340472440944881
 31
0.0
 11
-0.9406456692913386
 21
4.2340472440944881
 31
0.0
 11
-0.9406456692913386
 21
4.2340472440944881
 31
0.0
 11
-0.9406456692913386
 21
4.2340472440944881
 31
0.0
 11
-0.9406456692913386
 21
4.2340472440944881
 31
0.0
 11
-0.9406456692913386
 21
4.2340472440944881
 31
0.0
 11
-0.9406456692913386
 21
4.2340472440944881
 31
0.0
 11
-0.9406456692913386
 21
4.2340472440944881
 31
0.0
 11
-0.9406456692913386
 21
4.2340472440944881
 31
0.0
 11
-0.9406456692913386
 21
4.2340472440944881
 31
0.0
 11
-0.9406456692913386
 21
4.2340472440944881
 31
0.0
 11
-0.9406456692913386
 21
4.2340472440944881
 31
0.0
 11
-0.9406456692913386
 21
4.2340472440944881
 31
0.0
 11
-0.9406456692913386
 21
4.2340472440944881
 31
0.0
 11
-0.9406456692913386
 21
4.2340472440944881
 31
0.0
 11
-0.9406456692913386
 21
4.2340472440944881
 31
0.0
 11
-0.9406456692913386
 21
4.2340472440944881
 31
0.0
 11
-0.9189409448818897
 21
4.2902913385826773
 31
0.0
 11
-0.8878346456692914
 21
4.3384763779527562
 31
0.0
 11
-0.8488110236220472
 21
4.378594488188976
 31
0.0
 11
-0.8033700787401575
 21
4.4106614173228342
 31
0.0
 11
-0.752988188976378
 21
4.4346732283464565
 31
0.0
 11
-0.6991692913385826
 21
4.4506417322834642
 31
0.0
 11
-0.6433976377952756
 21
4.4585669291338581
 31
0.0
 11
-0.5871732283464567
 21
4.4584645669291341
 31
0.0
 11
-0.5319685039370079
 21
4.4503188976377954
 31
0.0
 11
-0.4792913385826771
 21
4.4341535433070867
 31
0.0
 11
-0.4306299212598425
 21
4.4099685039370078
 31
0.0
 11
-0.3874724409448819
 21
4.3777716535433067
 31
0.0
 11
-0.3513070866141732
 21
4.3375551181102363
 31
0.0
 11
-0.3236299212598425
 21
4.2893425196850394
 31
0.0
 11
-0.3059291338582677
 21
4.2331220472440947
 31
0.0
 11
-0.2997007874015748
 21
4.1689133858267713
 31
0.0
 11
-0.2997007874015748
 21
4.1689133858267713
 31
0.0
 11
-0.2997007874015748
 21
4.1689133858267713
 31
0.0
 11
-0.2997007874015748
 21
4.1689133858267713
 31
0.0
 11
-0.2997007874015748
 21
4.1689133858267713
 31
0.0
 11
-0.2997007874015748
 21
4.1689133858267713
 31
0.0
 11
-0.2997007874015748
 21
4.1689133858267713
 31
0.0
 11
-0.2997007874015748
 21
4.1689133858267713
 31
0.0
 11
-0.2997007874015748
 21
4.1689133858267713
 31
0.0
 11
-0.2997007874015748
 21
4.1689133858267713
 31
0.0
 11
-0.2997007874015748
 21
4.1689133858267713
 31
0.0
 11
-0.2997007874015748
 21
4.1689133858267713
 31
0.0
 11
-0.2997007874015748
 21
4.1689133858267713
 31
0.0
 11
-0.2997007874015748
 21
4.1689133858267713
 31
0.0
 11
-0.2997007874015748
 21
4.1689133858267713
 31
0.0
 11
-0.2997007874015748
 21
4.1689133858267713
 31
0.0
 11
-0.2997007874015748
 21
4.1689133858267713
 31
0.0
 11
-0.2881338582677165
 21
4.1689133858267713
 31
0.0
 11
-0.2765708661417323
 21
4.1689133858267713
 31
0.0
 11
-0.265
 21
4.1689133858267713
 31
0.0
 11
-0.2534370078740157
 21
4.1689133858267713
 31
0.0
 11
-0.2418582677165354
 21
4.1689133858267713
 31
0.0
 11
-0.2302834645669291
 21
4.1689133858267713
 31
0.0
 11
-0.2186968503937008
 21
4.1689133858267713
 31
0.0
 11
-0.2071102362204725
 21
4.1689133858267713
 31
0.0
 11
-0.195503937007874
 21
4.1689133858267713
 31
0.0
 11
-0.1838976377952756
 21
4.1689133858267713
 31
0.0
 11
-0.1722755905511811
 21
4.1689133858267713
 31
0.0
 11
-0.1606496062992126
 21
4.1689133858267713
 31
0.0
 11
-0.149003937007874
 21
4.1689133858267713
 31
0.0
 11
-0.1373503937007874
 21
4.1689133858267713
 31
0.0
 11
-0.1256811023622047
 21
4.1689133858267713
 31
0.0
 11
-0.114
 21
4.1689133858267713
 31
0.0
 11
-0.1125590551181102
 21
4.163322834645669
 31
0.0
 11
-0.1111062992125984
 21
4.1577362204724411
 31
0.0
 11
-0.1096377952755906
 21
4.1521417322834644
 31
0.0
 11
-0.1081614173228346
 21
4.1465551181102365
 31
0.0
 11
-0.1066653543307087
 21
4.1409527559055119
 31
0.0
 11
-0.1051653543307087
 21
4.1353543307086618
 31
0.0
 11
-0.1036496062992126
 21
4.1297440944881894
 31
0.0
 11
-0.1021338582677165
 21
4.1241338582677169
 31
0.0
 11
-0.1005984251968504
 21
4.1185039370078744
 31
0.0
 11
-0.0990629921259843
 21
4.1128740157480319
 31
0.0
 11
-0.0975157480314961
 21
4.1072283464566928
 31
0.0
 11
-0.0959724409448819
 21
4.1015787401574801
 31
0.0
 11
-0.0944133858267717
 21
4.0959094488188974
 31
0.0
 11
-0.0928622047244095
 21
4.0902322834645668
 31
0.0
 11
-0.0913031496062992
 21
4.0845393700787405
 31
0.0
 11
-0.089748031496063
 21
4.078834645669291
 31
0.0
 11
-0.0783110236220472
 21
4.078834645669291
 31
0.0
 11
-0.0668779527559055
 21
4.078834645669291
 31
0.0
 11
-0.0554370078740157
 21
4.078834645669291
 31
0.0
 11
-0.044003937007874
 21
4.078834645669291
 31
0.0
 11
-0.0325551181102362
 21
4.078834645669291
 31
0.0
 11
-0.0211102362204724
 21
4.078834645669291
 31
0.0
 11
-0.0096535433070866
 21
4.078834645669291
 31
0.0
 11
0.0018031496062992
 21
4.078834645669291
 31
0.0
 11
0.0132677165354331
 21
4.078834645669291
 31
0.0
 11
0.024748031496063
 21
4.078834645669291
 31
0.0
 11
0.0362362204724409
 21
4.078834645669291
 31
0.0
 11
0.047740157480315
 21
4.078834645669291
 31
0.0
 11
0.059248031496063
 21
4.078834645669291
 31
0.0
 11
0.0707795275590551
 21
4.078834645669291
 31
0.0
 11
0.0823188976377953
 21
4.078834645669291
 31
0.0
 11
0.0938779527559055
 21
4.078834645669291
 31
0.0
 11
0.0938779527559055
 21
4.078834645669291
 31
0.0
 11
0.0938779527559055
 21
4.078834645669291
 31
0.0
 11
0.0938779527559055
 21
4.078834645669291
 31
0.0
 11
0.0938779527559055
 21
4.078834645669291
 31
0.0
 11
0.0938779527559055
 21
4.078834645669291
 31
0.0
 11
0.0938779527559055
 21
4.078834645669291
 31
0.0
 11
0.0938779527559055
 21
4.078834645669291
 31
0.0
 11
0.0938779527559055
 21
4.078834645669291
 31
0.0
 11
0.0938779527559055
 21
4.078834645669291
 31
0.0
 11
0.0938779527559055
 21
4.078834645669291
 31
0.0
 11
0.0938779527559055
 21
4.078834645669291
 31
0.0
 11
0.0938779527559055
 21
4.078834645669291
 31
0.0
 11
0.0938779527559055
 21
4.078834645669291
 31
0.0
 11
0.0938779527559055
 21
4.078834645669291
 31
0.0
 11
0.0938779527559055
 21
4.078834645669291
 31
0.0
 11
0.0938779527559055
 21
4.078834645669291
 31
0.0
 11
0.1105118110236221
 21
4.0598622047244097
 31
0.0
 11
0.1288543307086614
 21
4.0428937007874017
 31
0.0
 11
0.1487086614173228
 21
4.0278228346456695
 31
0.0
 11
0.1698818897637795
 21
4.0145433070866146
 31
0.0
 11
0.1921692913385827
 21
4.0029370078740154
 31
0.0
 11
0.2153818897637795
 21
3.9929133858267716
 31
0.0
 11
0.2393267716535433
 21
3.9843503937007876
 31
0.0
 11
0.2638149606299213
 21
3.9771496062992124
 31
0.0
 11
0.2886338582677165
 21
3.9711929133858268
 31
0.0
 11
0.3136023622047244
 21
3.9663818897637797
 31
0.0
 11
0.3385236220472441
 21
3.9626062992125983
 31
0.0
 11
0.3632047244094488
 21
3.9597598425196852
 31
0.0
 11
0.3874409448818897
 21
3.957728346456693
 31
0.0
 11
0.4110433070866142
 21
3.9564173228346458
 31
0.0
 11
0.4338188976377953
 21
3.9557047244094488
 31
0.0
 11
0.4555787401574803
 21
3.9554960629921259
 31
0.0
 11
0.4555787401574803
 21
3.9554960629921259
 31
0.0
 11
0.4555787401574803
 21
3.9554960629921259
 31
0.0
 11
0.4555787401574803
 21
3.9554960629921259
 31
0.0
 11
0.4555787401574803
 21
3.9554960629921259
 31
0.0
 11
0.4555787401574803
 21
3.9554960629921259
 31
0.0
 11
0.4555787401574803
 21
3.9554960629921259
 31
0.0
 11
0.4555787401574803
 21
3.9554960629921259
 31
0.0
 11
0.4555787401574803
 21
3.9554960629921259
 31
0.0
 11
0.4555787401574803
 21
3.9554960629921259
 31
0.0
 11
0.4555787401574803
 21
3.9554960629921259
 31
0.0
 11
0.4555787401574803
 21
3.9554960629921259
 31
0.0
 11
0.4555787401574803
 21
3.9554960629921259
 31
0.0
 11
0.4555787401574803
 21
3.9554960629921259
 31
0.0
 11
0.4555787401574803
 21
3.9554960629921259
 31
0.0
 11
0.4555787401574803
 21
3.9554960629921259
 31
0.0
 11
0.4555787401574803
 21
3.9554960629921259
 31
0.0
 11
0.4625984251968504
 21
3.9554960629921259
 31
0.0
 11
0.4696377952755906
 21
3.9554960629921259
 31
0.0
 11
0.4766889763779528
 21
3.9554960629921259
 31
0.0
 11
0.483759842519685
 21
3.9554960629921259
 31
0.0
 11
0.4908346456692914
 21
3.9554960629921259
 31
0.0
 11
0.4979251968503937
 21
3.9554960629921259
 31
0.0
 11
0.5050236220472441
 21
3.9554960629921259
 31
0.0
 11
0.5121377952755906
 21
3.9554960629921259
 31
0.0
 11
0.519251968503937
 21
3.9554960629921259
 31
0.0
 11
0.5263740157480314
 21
3.9554960629921259
 31
0.0
 11
0.533503937007874
 21
3.9554960629921259
 31
0.0
 11
0.5406417322834646
 21
3.9554960629921259
 31
0.0
 11
0.5477795275590551
 21
3.9554960629921259
 31
0.0
 11
0.5549251968503937
 21
3.9554960629921259
 31
0.0
 11
0.5620708661417323
 21
3.9554960629921259
 31
0.0
 11
0.5692165354330708
 21
3.9554960629921259
 31
0.0
 11
0.5692165354330708
 21
3.9554960629921259
 31
0.0
 11
0.5692165354330708
 21
3.9554960629921259
 31
0.0
 11
0.5692165354330708
 21
3.9554960629921259
 31
0.0
 11
0.5692165354330708
 21
3.9554960629921259
 31
0.0
 11
0.5692165354330708
 21
3.9554960629921259
 31
0.0
 11
0.5692165354330708
 21
3.9554960629921259
 31
0.0
 11
0.5692165354330708
 21
3.9554960629921259
 31
0.0
 11
0.5692165354330708
 21
3.9554960629921259
 31
0.0
 11
0.5692165354330708
 21
3.9554960629921259
 31
0.0
 11
0.5692165354330708
 21
3.9554960629921259
 31
0.0
 11
0.5692165354330708
 21
3.9554960629921259
 31
0.0
 11
0.5692165354330708
 21
3.9554960629921259
 31
0.0
 11
0.5692165354330708
 21
3.9554960629921259
 31
0.0
 11
0.5692165354330708
 21
3.9554960629921259
 31
0.0
 11
0.5692165354330708
 21
3.9554960629921259
 31
0.0
 11
0.5692165354330708
 21
3.9554960629921259
 31
0.0
 11
0.5762677165354331
 21
3.9553976377952758
 31
0.0
 11
0.5840629921259842
 21
3.9549881889763778
 31
0.0
 11
0.5924370078740158
 21
3.9540748031496062
 31
0.0
 11
0.6012283464566929
 21
3.9524842519685039
 31
0.0
 11
0.6102637795275591
 21
3.9500196850393703
 31
0.0
 11
0.6193818897637795
 21
3.9465039370078738
 31
0.0
 11
0.6284173228346457
 21
3.9417480314960631
 31
0.0
 11
0.6372086614173228
 21
3.9355748031496063
 31
0.0
 11
0.6455748031496063
 21
3.9277834645669292
 31
0.0
 11
0.6533700787401575
 21
3.918208661417323
 31
0.0
 11
0.6604173228346457
 21
3.9066496062992124
 31
0.0
 11
0.6665590551181102
 21
3.8929370078740155
 31
0.0
 11
0.6716181102362204
 21
3.8768700787401573
 31
0.0
 11
0.6754370078740157
 21
3.8582755905511812
 31
0.0
 11
0.6778503937007874
 21
3.8369645669291339
 31
0.0
 11
0.6786968503937008
 21
3.812755905511811
 31
0.0
 11
0.6786968503937008
 21
3.812755905511811
 31
0.0
 11
0.6786968503937008
 21
3.812755905511811
 31
0.0
 11
0.6786968503937008
 21
3.812755905511811
 31
0.0
 11
0.6786968503937008
 21
3.812755905511811
 31
0.0
 11
0.6786968503937008
 21
3.812755905511811
 31
0.0
 11
0.6786968503937008
 21
3.812755905511811
 31
0.0
 11
0.6786968503937008
 21
3.812755905511811
 31
0.0
 11
0.6786968503937008
 21
3.812755905511811
 31
0.0
 11
0.6786968503937008
 21
3.812755905511811
 31
0.0
 11
0.6786968503937008
 21
3.812755905511811
 31
0.0
 11
0.6786968503937008
 21
3.812755905511811
 31
0.0
 11
0.6786968503937008
 21
3.812755905511811
 31
0.0
 11
0.6786968503937008
 21
3.812755905511811
 31
0.0
 11
0.6786968503937008
 21
3.812755905511811
 31
0.0
 11
0.6786968503937008
 21
3.812755905511811
 31
0.0
 11
0.6786968503937008
 21
3.812755905511811
 31
0.0
 11
0.69
 21
3.812755905511811
 31
0.0
 11
0.7013031496062993
 21
3.812755905511811
 31
0.0
 11
0.7126062992125984
 21
3.812755905511811
 31
0.0
 11
0.7239173228346457
 21
3.812755905511811
 31
0.0
 11
0.7352283464566929
 21
3.812755905511811
 31
0.0
 11
0.7465472440944881
 21
3.812755905511811
 31
0.0
 11
0.7578740157480315
 21
3.812755905511811
 31
0.0
 11
0.7692086614173228
 21
3.812755905511811
 31
0.0
 11
0.7805433070866141
 21
3.812755905511811
 31
0.0
 11
0.7918937007874016
 21
3.812755905511811
 31
0.0
 11
0.803251968503937
 21
3.812755905511811
 31
0.0
 11
0.8146259842519685
 21
3.812755905511811
 31
0.0
 11
0.826003937007874
 21
3.812755905511811
 31
0.0
 11
0.8374015748031496
 21
3.812755905511811
 31
0.0
 11
0.8488110236220472
 21
3.812755905511811
 31
0.0
 11
0.860240157480315
 21
3.812755905511811
 31
0.0
 11
0.860240157480315
 21
3.812755905511811
 31
0.0
 11
0.860240157480315
 21
3.812755905511811
 31
0.0
 11
0.860240157480315
 21
3.812755905511811
 31
0.0
 11
0.860240157480315
 21
3.812755905511811
 31
0.0
 11
0.860240157480315
 21
3.812755905511811
 31
0.0
 11
0.860240157480315
 21
3.812755905511811
 31
0.0
 11
0.860240157480315
 21
3.812755905511811
 31
0.0
 11
0.860240157480315
 21
3.812755905511811
 31
0.0
 11
0.860240157480315
 21
3.812755905511811
 31
0.0
 11
0.860240157480315
 21
3.812755905511811
 31
0.0
 11
0.860240157480315
 21
3.812755905511811
 31
0.0
 11
0.860240157480315
 21
3.812755905511811
 31
0.0
 11
0.860240157480315
 21
3.812755905511811
 31
0.0
 11
0.860240157480315
 21
3.812755905511811
 31
0.0
 11
0.860240157480315
 21
3.812755905511811
 31
0.0
 11
0.860240157480315
 21
3.812755905511811
 31
0.0
 11
0.860240157480315
 21
3.8107992125984254
 31
0.0
 11
0.860240157480315
 21
3.8052795275590552
 31
0.0
 11
0.860240157480315
 21
3.796700787401575
 31
0.0
 11
0.860240157480315
 21
3.7855787401574803
 31
0.0
 11
0.860240157480315
 21
3.7724133858267717
 31
0.0
 11
0.860240157480315
 21
3.7577244094488189
 31
0.0
 11
0.860240157480315
 21
3.7420118110236222
 31
0.0
 11
0.860240157480315
 21
3.725795275590551
 31
0.0
 11
0.860240157480315
 21
3.7095708661417324
 31
0.0
 11
0.860240157480315
 21
3.6938622047244096
 31
0.0
 11
0.860240157480315
 21
3.6791692913385825
 31
0.0
 11
0.860240157480315
 21
3.6660078740157482
 31
0.0
 11
0.860240157480315
 21
3.6548779527559057
 31
0.0
 11
0.860240157480315
 21
3.6463031496062994
 31
0.0
 11
0.860240157480315
 21
3.6407834645669293
 31
0.0
 11
0.860240157480315
 21
3.6388346456692915
 31
0.0
 11
0.860240157480315
 21
3.6388346456692915
 31
0.0
 11
0.860240157480315
 21
3.6388346456692915
 31
0.0
 11
0.860240157480315
 21
3.6388346456692915
 31
0.0
 11
0.860240157480315
 21
3.6388346456692915
 31
0.0
 11
0.860240157480315
 21
3.6388346456692915
 31
0.0
 11
0.860240157480315
 21
3.6388346456692915
 31
0.0
 11
0.860240157480315
 21
3.6388346456692915
 31
0.0
 11
0.860240157480315
 21
3.6388346456692915
 31
0.0
 11
0.860240157480315
 21
3.6388346456692915
 31
0.0
 11
0.860240157480315
 21
3.6388346456692915
 31
0.0
 11
0.860240157480315
 21
3.6388346456692915
 31
0.0
 11
0.860240157480315
 21
3.6388346456692915
 31
0.0
 11
0.860240157480315
 21
3.6388346456692915
 31
0.0
 11
0.860240157480315
 21
3.6388346456692915
 31
0.0
 11
0.860240157480315
 21
3.6388346456692915
 31
0.0
 11
0.860240157480315
 21
3.6388346456692915
 31
0.0
 11
0.860240157480315
 21
3.6388346456692915
 31
0.0
 11
0.860240157480315
 21
3.6388346456692915
 31
0.0
 11
0.860240157480315
 21
3.6388346456692915
 31
0.0
 11
0.860240157480315
 21
3.6388346456692915
 31
0.0
 11
0.860240157480315
 21
3.6388346456692915
 31
0.0
 11
0.860240157480315
 21
3.6388346456692915
 31
0.0
 11
0.860240157480315
 21
3.6388346456692915
 31
0.0
 11
0.860240157480315
 21
3.6388346456692915
 31
0.0
 11
0.860240157480315
 21
3.6388346456692915
 31
0.0
 11
0.860240157480315
 21
3.6388346456692915
 31
0.0
 11
0.860240157480315
 21
3.6388346456692915
 31
0.0
 11
0.860240157480315
 21
3.6388346456692915
 31
0.0
 11
0.860240157480315
 21
3.6388346456692915
 31
0.0
 11
0.860240157480315
 21
3.6388346456692915
 31
0.0
 11
0.860240157480315
 21
3.6388346456692915
 31
0.0
 11
0.860240157480315
 21
3.6388346456692915
 31
0.0
  0
LWPOLYLINE
  5
25
100
AcDbEntity
  8
0
 62
     9
100
AcDbPolyline
 90
        2
 70
     0
 39
0.013858
 10
-0.500327
 20
0.869941
 40
0.013858
 41
0.013858
 10
0.13785
 20
1.244114
 40
0.013858
 41
0.013858
  0
LWPOLYLINE
  5
26
100
AcDbEntity
  8
0
 62
     9
100
AcDbPolyline
 90
        2
 70
     0
 39
0.013858
 10
0.13785
 20
1.244114
 40
0.013858
 41
0.013858
 10
0.13785
 20
1.060492
 40
0.013858
 41
0.013858
  0
LWPOLYLINE
  5
27
100
AcDbEntity
  8
0
 62
     9
100
AcDbPolyline
 90
        2
 70
     0
 39
0.013858
 10
0.13785
 20
1.060492
 40
0.013858
 41
0.013858
 10
-0.500327
 20
0.685626
 40
0.013858
 41
0.013858
  0
LWPOLYLINE
  5
28
100
AcDbEntity
  8
0
 62
     9
100
AcDbPolyline
 90
        2
 70
     0
 39
0.013858
 10
-0.500327
 20
0.685626
 40
0.013858
 41
0.013858
 10
-0.500327
 20
0.869941
 40
0.013858
 41
0.013858
  0
LWPOLYLINE
  5
29
100
AcDbEntity
  8
0
 62
     9
100
AcDbPolyline
 90
        2
 70
     0
 39
0.013858
 10
-0.765713
 20
1.63561
 40
0.013858
 41
0.013858
 10
-0.127539
 20
2.010476
 40
0.013858
 41
0.013858
  0
LWPOLYLINE
  5
2A
100
AcDbEntity
  8
0
 62
     9
100
AcDbPolyline
 90
        2
 70
     0
 39
0.013858
 10
-0.127539
 20
2.010476
 40
0.013858
 41
0.013858
 10
-0.127539
 20
1.828933
 40
0.013858
 41
0.013858
  0
LWPOLYLINE
  5
2B
100
AcDbEntity
  8
0
 62
     9
100
AcDbPolyline
 90
        2
 70
     0
 39
0.013858
 10
-0.127539
 20
1.828933
 40
0.013858
 41
0.013858
 10
-0.765713
 20
1.454067
 40
0.013858
 41
0.013858
  0
LWPOLYLINE
  5
2C
100
AcDbEntity
  8
0
 62
     9
100
AcDbPolyline
 90
        2
 70
     0
 39
0.013858
 10
-0.765713
 20
1.454067
 40
0.013858
 41
0.013858
 10
-0.765713
 20
1.63561
 40
0.013858
 41
0.013858
  0
LWPOLYLINE
  5
2D
100
AcDbEntity
  8
0
 62
   252
100
AcDbPolyline
 90
        2
 70
     0
 39
0.013858
 10
-0.765713
 20
1.454067
 40
0.013858
 41
0.013858
 10
-0.127539
 20
1.828933
 40
0.013858
 41
0.013858
  0
LWPOLYLINE
  5
2E
100
AcDbEntity
  8
0
 62
   252
100
AcDbPolyline
 90
        2
 70
     0
 39
0.013858
 10
-0.127539
 20
1.828933
 40
0.013858
 41
0.013858
 10
-0.082496
 20
1.825469
 40
0.013858
 41
0.013858
  0
LWPOLYLINE
  5
2F
100
AcDbEntity
  8
0
 62
   252
100
AcDbPolyline
 90
        2
 70
     0
 39
0.013858
 10
-0.082496
 20
1.825469
 40
0.013858
 41
0.013858
 10
-0.720673
 20
1.451295
 40
0.013858
 41
0.013858
  0
LWPOLYLINE
  5
30
100
AcDbEntity
  8
0
 62
   252
100
AcDbPolyline
 90
        2
 70
     0
 39
0.013858
 10
-0.720673
 20
1.451295
 40
0.013858
 41
0.013858
 10
-0.765713
 20
1.454067
 40
0.013858
 41
0.013858
  0
LWPOLYLINE
  5
31
100
AcDbEntity
  8
0
 62
   253
100
AcDbPolyline
 90
        2
 70
     0
 39
0.013858
 10
-0.720673
 20
1.451295
 40
0.013858
 41
0.013858
 10
-0.082496
 20
1.825469
 40
0.013858
 41
0.013858
  0
LWPOLYLINE
  5
32
100
AcDbEntity
  8
0
 62
   253
100
AcDbPolyline
 90
        2
 70
     0
 39
0.013858
 10
-0.082496
 20
1.825469
 40
0.013858
 41
0.013858
 10
-0.04785
 20
1.816461
 40
0.013858
 41
0.013858
  0
LWPOLYLINE
  5
33
100
AcDbEntity
  8
0
 62
   253
100
AcDbPolyline
 90
        2
 70
     0
 39
0.013858
 10
-0.04785
 20
1.816461
 40
0.013858
 41
0.013858
 10
-0.686028
 20
1.442287
 40
0.013858
 41
0.013858
  0
LWPOLYLINE
  5
34
100
AcDbEntity
  8
0
 62
   253
100
AcDbPolyline
 90
        2
 70
     0
 39
0.013858
 10
-0.686028
 20
1.442287
 40
0.013858
 41
0.013858
 10
-0.720673
 20
1.451295
 40
0.013858
 41
0.013858
  0
LWPOLYLINE
  5
35
100
AcDbEntity
  8
0
 62
   253
100
AcDbPolyline
 90
        2
 70
     0
 39
0.013858
 10
-0.686028
 20
1.442287
 40
0.013858
 41
0.013858
 10
-0.04785
 20
1.816461
 40
0.013858
 41
0.013858
  0
LWPOLYLINE
  5
36
100
AcDbEntity
  8
0
 62
   253
100
AcDbPolyline
 90
        2
 70
     0
 39
0.013858
 10
-0.04785
 20
1.816461
 40
0.013858
 41
0.013858
 10
-0.022213
 20
1.803295
 40
0.013858
 41
0.013858
  0
LWPOLYLINE
  5
37
100
AcDbEntity
  8
0
 62
   253
100
AcDbPolyline
 90
        2
 70
     0
 39
0.013858
 10
-0.022213
 20
1.803295
 40
0.013858
 41
0.013858
 10
-0.661083
 20
1.429122
 40
0.013858
 41
0.013858
  0
LWPOLYLINE
  5
38
100
AcDbEntity
  8
0
 62
   253
100
AcDbPolyline
 90
        2
 70
     0
 39
0.013858
 10
-0.661083
 20
1.429122
 40
0.013858
 41
0.013858
 10
-0.686028
 20
1.442287
 40
0.013858
 41
0.013858
  0
LWPOLYLINE
  5
39
100
AcDbEntity
  8
0
 62
   253
100
AcDbPolyline
 90
        2
 70
     0
 39
0.013858
 10
-0.661083
 20
1.429122
 40
0.013858
 41
0.013858
 10
-0.022213
 20
1.803295
 40
0.013858
 41
0.013858
  0
LWPOLYLINE
  5
3A
100
AcDbEntity
  8
0
 62
   253
100
AcDbPolyline
 90
        2
 70
     0
 39
0.013858
 10
-0.022213
 20
1.803295
 40
0.013858
 41
0.013858
 10
-0.00489
 20
1.787358
 40
0.013858
 41
0.013858
  0
LWPOLYLINE
  5
3B
100
AcDbEntity
  8
0
 62
   253
100
AcDbPolyline
 90
        2
 70
     0
 39
0.013858
 10
-0.00489
 20
1.787358
 40
0.013858
 41
0.013858
 10
-0.643067
 20
1.412492
 40
0.013858
 41
0.013858
  0
LWPOLYLINE
  5
3C
100
AcDbEntity
  8
0
 62
   253
100
AcDbPolyline
 90
        2
 70
     0
 39
0.013858
 10
-0.643067
 20
1.412492
 40
0.013858
 41
0.013858
 10
-0.661083
 20
1.429122
 40
0.013858
 41
0.013858
  0
LWPOLYLINE
  5
3D
100
AcDbEntity
  8
0
 62
     9
100
AcDbPolyline
 90
        2
 70
     0
 39
0.013858
 10
-0.643067
 20
1.412492
 40
0.013858
 41
0.013858
 10
-0.00489
 20
1.787358
 40
0.013858
 41
0.013858
  0
LWPOLYLINE
  5
3E
100
AcDbEntity
  8
0
 62
     9
100
AcDbPolyline
 90
        2
 70
     0
 39
0.013858
 10
-0.00489
 20
1.787358
 40
0.013858
 41
0.013858
 10
0.005504
 20
1.769343
 40
0.013858
 41
0.013858
  0
LWPOLYLINE
  5
3F
100
AcDbEntity
  8
0
 62
     9
100
AcDbPolyline
 90
        2
 70
     0
 39
0.013858
 10
0.005504
 20
1.769343
 40
0.013858
 41
0.013858
 10
-0.632673
 20
1.395169
 40
0.013858
 41
0.013858
  0
LWPOLYLINE
  5
40
100
AcDbEntity
  8
0
 62
     9
100
AcDbPolyline
 90
        2
 70
     0
 39
0.013858
 10
-0.632673
 20
1.395169
 40
0.013858
 41
0.013858
 10
-0.643067
 20
1.412492
 40
0.013858
 41
0.013858
  0
LWPOLYLINE
  5
41
100
AcDbEntity
  8
0
 62
     9
100
AcDbPolyline
 90
        2
 70
     0
 39
0.013858
 10
-0.632673
 20
1.395169
 40
0.013858
 41
0.013858
 10
0.005504
 20
1.769343
 40
0.013858
 41
0.013858
  0
LWPOLYLINE
  5
42
100
AcDbEntity
  8
0
 62
     9
100
AcDbPolyline
 90
        2
 70
     0
 39
0.013858
 10
0.005504
 20
1.769343
 40
0.013858
 41
0.013858
 10
0.01174
 20
1.751327
 40
0.013858
 41
0.013858
  0
LWPOLYLINE
  5
43
100
AcDbEntity
  8
0
 62
     9
100
AcDbPolyline
 90
        2
 70
     0
 39
0.013858
 10
0.01174
 20
1.751327
 40
0.013858
 41
0.013858
 10
-0.626437
 20
1.377154
 40
0.013858
 41
0.013858
  0
LWPOLYLINE
  5
44
100
AcDbEntity
  8
0
 62
     9
100
AcDbPolyline
 90
        2
 70
     0
 39
0.013858
 10
-0.626437
 20
1.377154
 40
0.013858
 41
0.013858
 10
-0.632673
 20
1.395169
 40
0.013858
 41
0.013858
  0
LWPOLYLINE
  5
45
100
AcDbEntity
  8
0
 62
     9
100
AcDbPolyline
 90
        2
 70
     0
 39
0.013858
 10
-0.626437
 20
1.377154
 40
0.013858
 41
0.013858
 10
0.01174
 20
1.751327
 40
0.013858
 41
0.013858
  0
LWPOLYLINE
  5
46
100
AcDbEntity
  8
0
 62
     9
100
AcDbPolyline
 90
        2
 70
     0
 39
0.013858
 10
0.01174
 20
1.751327
 40
0.013858
 41
0.013858
 10
0.014512
 20
1.719453
 40
0.013858
 41
0.013858
  0
LWPOLYLINE
  5
47
100
AcDbEntity
  8
0
 62
     9
100
AcDbPolyline
 90
        2
 70
     0
 39
0.013858
 10
0.014512
 20
1.719453
 40
0.013858
 41
0.013858
 10
-0.623665
 20
1.34528
 40
0.013858
 41
0.013858
  0
LWPOLYLINE
  5
48
100
AcDbEntity
  8
0
 62
     9
100
AcDbPolyline
 90
        2
 70
     0
 39
0.013858
 10
-0.623665
 20
1.34528
 40
0.013858
 41
0.013858
 10
-0.626437
 20
1.377154
 40
0.013858
 41
0.013858
  0
LWPOLYLINE
  5
49
100
AcDbEntity
  8
0
 62
     9
100
AcDbPolyline
 90
        2
 70
     0
 39
0.013858
 10
-0.623665
 20
1.34528
 40
0.013858
 41
0.013858
 10
0.014512
 20
1.719453
 40
0.013858
 41
0.013858
  0
LWPOLYLINE
  5
4A
100
AcDbEntity
  8
0
 62
     9
100
AcDbPolyline
 90
        2
 70
     0
 39
0.013858
 10
0.014512
 20
1.719453
 40
0.013858
 41
0.013858
 10
0.014512
 20
1.605815
 40
0.013858
 41
0.013858
  0
LWPOLYLINE
  5
4B
100
AcDbEntity
  8
0
 62
     9
100
AcDbPolyline
 90
        2
 70
     0
 39
0.013858
 10
0.014512
 20
1.605815
 40
0.013858
 41
0.013858
 10
-0.623665
 20
1.231642
 40
0.013858
 41
0.013858
  0
LWPOLYLINE
  5
4C
100
AcDbEntity
  8
0
 62
     9
100
AcDbPolyline
 90
        2
 70
     0
 39
0.013858
 10
-0.623665
 20
1.231642
 40
0.013858
 41
0.013858
 10
-0.623665
 20
1.34528
 40
0.013858
 41
0.013858
  0
LWPOLYLINE
  5
4D
100
AcDbEntity
  8
0
 62
     9
100
AcDbPolyline
 90
        2
 70
     0
 39
0.013858
 10
-0.623665
 20
1.231642
 40
0.013858
 41
0.013858
 10
0.014512
 20
1.605815
 40
0.013858
 41
0.013858
  0
LWPOLYLINE
  5
4E
100
AcDbEntity
  8
0
 62
     9
100
AcDbPolyline
 90
        2
 70
     0
 39
0.013858
 10
0.014512
 20
1.605815
 40
0.013858
 41
0.013858
 10
0.015898
 20
1.561469
 40
0.013858
 41
0.013858
  0
LWPOLYLINE
  5
4F
100
AcDbEntity
  8
0
 62
     9
100
AcDbPolyline
 90
        2
 70
     0
 39
0.013858
 10
0.015898
 20
1.561469
 40
0.013858
 41
0.013858
 10
-0.62228
 20
1.186602
 40
0.013858
 41
0.013858
  0
LWPOLYLINE
  5
50
100
AcDbEntity
  8
0
 62
     9
100
AcDbPolyline
 90
        2
 70
     0
 39
0.013858
 10
-0.62228
 20
1.186602
 40
0.013858
 41
0.013858
 10
-0.623665
 20
1.231642
 40
0.013858
 41
0.013858
  0
LWPOLYLINE
  5
51
100
AcDbEntity
  8
0
 62
     9
100
AcDbPolyline
 90
        2
 70
     0
 39
0.013858
 10
-0.62228
 20
1.186602
 40
0.013858
 41
0.013858
 10
0.015898
 20
1.561469
 40
0.013858
 41
0.013858
  0
LWPOLYLINE
  5
52
100
AcDbEntity
  8
0
 62
     9
100
AcDbPolyline
 90
        2
 70
     0
 39
0.013858
 10
0.015898
 20
1.561469
 40
0.013858
 41
0.013858
 10
0.018669
 20
1.513657
 40
0.013858
 41
0.013858
  0
LWPOLYLINE
  5
53
100
AcDbEntity
  8
0
 62
     9
100
AcDbPolyline
 90
        2
 70
     0
 39
0.013858
 10
0.018669
 20
1.513657
 40
0.013858
 41
0.013858
 10
-0.619508
 20
1.138791
 40
0.013858
 41
0.013858
  0
LWPOLYLINE
  5
54
100
AcDbEntity
  8
0
 62
     9
100
AcDbPolyline
 90
        2
 70
     0
 39
0.013858
 10
-0.619508
 20
1.138791
 40
0.013858
 41
0.013858
 10
-0.62228
 20
1.186602
 40
0.013858
 41
0.013858
  0
LWPOLYLINE
  5
55
100
AcDbEntity
  8
0
 62
     9
100
AcDbPolyline
 90
        2
 70
     0
 39
0.013858
 10
-0.619508
 20
1.138791
 40
0.013858
 41
0.013858
 10
0.018669
 20
1.513657
 40
0.013858
 41
0.013858
  0
LWPOLYLINE
  5
56
100
AcDbEntity
  8
0
 62
     9
100
AcDbPolyline
 90
        2
 70
     0
 39
0.013858
 10
0.018669
 20
1.513657
 40
0.013858
 41
0.013858
 10
0.025598
 20
1.463768
 40
0.013858
 41
0.013858
  0
LWPOLYLINE
  5
57
100
AcDbEntity
  8
0
 62
     9
100
AcDbPolyline
 90
        2
 70
     0
 39
0.013858
 10
0.025598
 20
1.463768
 40
0.013858
 41
0.013858
 10
-0.612579
 20
1.089594
 40
0.013858
 41
0.013858
  0
LWPOLYLINE
  5
58
100
AcDbEntity
  8
0
 62
     9
100
AcDbPolyline
 90
        2
 70
     0
 39
0.013858
 10
-0.612579
 20
1.089594
 40
0.013858
 41
0.013858
 10
-0.619508
 20
1.138791
 40
0.013858
 41
0.013858
  0
LWPOLYLINE
  5
59
100
AcDbEntity
  8
0
 62
     9
100
AcDbPolyline
 90
        2
 70
     0
 39
0.013858
 10
-0.612579
 20
1.089594
 40
0.013858
 41
0.013858
 10
0.025598
 20
1.463768
 40
0.013858
 41
0.013858
  0
LWPOLYLINE
  5
5A
100
AcDbEntity
  8
0
 62
     9
100
AcDbPolyline
 90
        2
 70
     0
 39
0.013858
 10
0.025598
 20
1.463768
 40
0.013858
 41
0.013858
 10
0.036685
 20
1.413878
 40
0.013858
 41
0.013858
  0
LWPOLYLINE
  5
5B
100
AcDbEntity
  8
0
 62
     9
100
AcDbPolyline
 90
        2
 70
     0
 39
0.013858
 10
0.036685
 20
1.413878
 40
0.013858
 41
0.013858
 10
-0.601492
 20
1.039705
 40
0.013858
 41
0.013858
  0
LWPOLYLINE
  5
5C
100
AcDbEntity
  8
0
 62
     9
100
AcDbPolyline
 90
        2
 70
     0
 39
0.013858
 10
-0.601492
 20
1.039705
 40
0.013858
 41
0.013858
 10
-0.612579
 20
1.089594
 40
0.013858
 41
0.013858
  0
LWPOLYLINE
  5
5D
100
AcDbEntity
  8
0
 62
     9
100
AcDbPolyline
 90
        2
 70
     0
 39
0.013858
 10
-0.601492
 20
1.039705
 40
0.013858
 41
0.013858
 10
0.036685
 20
1.413878
 40
0.013858
 41
0.013858
  0
LWPOLYLINE
  5
5E
100
AcDbEntity
  8
0
 62
     9
100
AcDbPolyline
 90
        2
 70
     0
 39
0.013858
 10
0.036685
 20
1.413878
 40
0.013858
 41
0.013858
 10
0.051929
 20
1.365374
 40
0.013858
 41
0.013858
  0
LWPOLYLINE
  5
5F
100
AcDbEntity
  8
0
 62
     9
100
AcDbPolyline
 90
        2
 70
     0
 39
0.013858
 10
0.051929
 20
1.365374
 40
0.013858
 41
0.013858
 10
-0.586248
 20
0.991201
 40
0.013858
 41
0.013858
  0
LWPOLYLINE
  5
60
100
AcDbEntity
  8
0
 62
     9
100
AcDbPolyline
 90
        2
 70
     0
 39
0.013858
 10
-0.586248
 20
0.991201
 40
0.013858
 41
0.013858
 10
-0.601492
 20
1.039705
 40
0.013858
 41
0.013858
  0
LWPOLYLINE
  5
61
100
AcDbEntity
  8
0
 62
     9
100
AcDbPolyline
 90
        2
 70
     0
 39
0.013858
 10
-0.586248
 20
0.991201
 40
0.013858
 41
0.013858
 10
0.051929
 20
1.365374
 40
0.013858
 41
0.013858
  0
LWPOLYLINE
  5
62
100
AcDbEntity
  8
0
 62
     9
100
AcDbPolyline
 90
        2
 70
     0
 39
0.013858
 10
0.051929
 20
1.365374
 40
0.013858
 41
0.013858
 10
0.073409
 20
1.320335
 40
0.013858
 41
0.013858
  0
LWPOLYLINE
  5
63
100
AcDbEntity
  8
0
 62
     9
100
AcDbPolyline
 90
        2
 70
     0
 39
0.013858
 10
0.073409
 20
1.320335
 40
0.013858
 41
0.013858
 10
-0.564768
 20
0.945469
 40
0.013858
 41
0.013858
  0
LWPOLYLINE
  5
64
100
AcDbEntity
  8
0
 62
     9
100
AcDbPolyline
 90
        2
 70
     0
 39
0.013858
 10
-0.564768
 20
0.945469
 40
0.013858
 41
0.013858
 10
-0.586248
 20
0.991201
 40
0.013858
 41
0.013858
  0
LWPOLYLINE
  5
65
100
AcDbEntity
  8
0
 62
     9
100
AcDbPolyline
 90
        2
 70
     0
 39
0.013858
 10
-0.564768
 20
0.945469
 40
0.013858
 41
0.013858
 10
0.073409
 20
1.320335
 40
0.013858
 41
0.013858
  0
LWPOLYLINE
  5
66
100
AcDbEntity
  8
0
 62
     9
100
AcDbPolyline
 90
        2
 70
     0
 39
0.013858
 10
0.073409
 20
1.320335
 40
0.013858
 41
0.013858
 10
0.101819
 20
1.279453
 40
0.013858
 41
0.013858
  0
LWPOLYLINE
  5
67
100
AcDbEntity
  8
0
 62
     9
100
AcDbPolyline
 90
        2
 70
     0
 39
0.013858
 10
0.101819
 20
1.279453
 40
0.013858
 41
0.013858
 10
-0.536358
 20
0.904587
 40
0.013858
 41
0.013858
  0
LWPOLYLINE
  5
68
100
AcDbEntity
  8
0
 62
     9
100
AcDbPolyline
 90
        2
 70
     0
 39
0.013858
 10
-0.536358
 20
0.904587
 40
0.013858
 41
0.013858
 10
-0.564768
 20
0.945469
 40
0.013858
 41
0.013858
  0
LWPOLYLINE
  5
69
100
AcDbEntity
  8
0
 62
     9
100
AcDbPolyline
 90
        2
 70
     0
 39
0.013858
 10
-0.536358
 20
0.904587
 40
0.013858
 41
0.013858
 10
0.101819
 20
1.279453
 40
0.013858
 41
0.013858
  0
LWPOLYLINE
  5
6A
100
AcDbEntity
  8
0
 62
     9
100
AcDbPolyline
 90
        2
 70
     0
 39
0.013858
 10
0.101819
 20
1.279453
 40
0.013858
 41
0.013858
 10
0.13785
 20
1.244114
 40
0.013858
 41
0.013858
  0
LWPOLYLINE
  5
6B
100
AcDbEntity
  8
0
 62
     9
100
AcDbPolyline
 90
        2
 70
     0
 39
0.013858
 10
0.13785
 20
1.244114
 40
0.013858
 41
0.013858
 10
-0.500327
 20
0.869941
 40
0.013858
 41
0.013858
  0
LWPOLYLINE
  5
6C
100
AcDbEntity
  8
0
 62
     9
100
AcDbPolyline
 90
        2
 70
     0
 39
0.013858
 10
-0.500327
 20
0.869941
 40
0.013858
 41
0.013858
 10
-0.536358
 20
0.904587
 40
0.013858
 41
0.013858
  0
LWPOLYLINE
  5
6D
100
AcDbEntity
  8
0
 62
   252
100
AcDbPolyline
 90
        2
 70
     0
 39
0.013858
 10
-0.940327
 20
1.63561
 40
0.013858
 41
0.013858
 10
-0.302154
 20
2.010476
 40
0.013858
 41
0.013858
  0
LWPOLYLINE
  5
6E
100
AcDbEntity
  8
0
 62
   252
100
AcDbPolyline
 90
        2
 70
     0
 39
0.013858
 10
-0.302154
 20
2.010476
 40
0.013858
 41
0.013858
 10
-0.127539
 20
2.010476
 40
0.013858
 41
0.013858
  0
LWPOLYLINE
  5
6F
100
AcDbEntity
  8
0
 62
   252
100
AcDbPolyline
 90
        2
 70
     0
 39
0.013858
 10
-0.127539
 20
2.010476
 40
0.013858
 41
0.013858
 10
-0.765713
 20
1.63561
 40
0.013858
 41
0.013858
  0
LWPOLYLINE
  5
70
100
AcDbEntity
  8
0
 62
   252
100
AcDbPolyline
 90
        2
 70
     0
 39
0.013858
 10
-0.765713
 20
1.63561
 40
0.013858
 41
0.013858
 10
-0.940327
 20
1.63561
 40
0.013858
 41
0.013858
  0
LWPOLYLINE
  5
71
100
AcDbEntity
  8
0
 62
   253
100
AcDbPolyline
 90
        2
 70
     0
 39
0.013858
 10
-0.500327
 20
0.685626
 40
0.013858
 41
0.013858
 10
0.13785
 20
1.060492
 40
0.013858
 41
0.013858
  0
LWPOLYLINE
  5
72
100
AcDbEntity
  8
0
 62
   253
100
AcDbPolyline
 90
        2
 70
     0
 39
0.013858
 10
0.13785
 20
1.060492
 40
0.013858
 41
0.013858
 10
0.227929
 20
1.03624
 40
0.013858
 41
0.013858
  0
LWPOLYLINE
  5
73
100
AcDbEntity
  8
0
 62
   253
100
AcDbPolyline
 90
        2
 70
     0
 39
0.013858
 10
0.227929
 20
1.03624
 40
0.013858
 41
0.013858
 10
-0.410248
 20
0.661374
 40
0.013858
 41
0.013858
  0
LWPOLYLINE
  5
74
100
AcDbEntity
  8
0
 62
   253
100
AcDbPolyline
 90
        2
 70
     0
 39
0.013858
 10
-0.410248
 20
0.661374
 40
0.013858
 41
0.013858
 10
-0.500327
 20
0.685626
 40
0.013858
 41
0.013858
  0
LWPOLYLINE
  5
75
100
AcDbEntity
  8
0
 62
     9
100
AcDbPolyline
 90
        2
 70
     0
 39
0.013858
 10
-0.410248
 20
0.661374
 40
0.013858
 41
0.013858
 10
0.227929
 20
1.03624
 40
0.013858
 41
0.013858
  0
LWPOLYLINE
  5
76
100
AcDbEntity
  8
0
 62
     9
100
AcDbPolyline
 90
        2
 70
     0
 39
0.013858
 10
0.227929
 20
1.03624
 40
0.013858
 41
0.013858
 10
0.227929
 20
0.849846
 40
0.013858
 41
0.013858
  0
LWPOLYLINE
  5
77
100
AcDbEntity
  8
0
 62
     9
100
AcDbPolyline
 90
        2
 70
     0
 39
0.013858
 10
0.227929
 20
0.849846
 40
0.013858
 41
0.013858
 10
-0.410248
 20
0.475673
 40
0.013858
 41
0.013858
  0
LWPOLYLINE
  5
78
100
AcDbEntity
  8
0
 62
     9
100
AcDbPolyline
 90
        2
 70
     0
 39
0.013858
 10
-0.410248
 20
0.475673
 40
0.013858
 41
0.013858
 10
-0.410248
 20
0.661374
 40
0.013858
 41
0.013858
  0
LWPOLYLINE
  5
79
100
AcDbEntity
  8
0
 62
   253
100
AcDbPolyline
 90
        2
 70
     0
 39
0.013858
 10
-0.410248
 20
0.475673
 40
0.013858
 41
0.013858
 10
0.227929
 20
0.849846
 40
0.013858
 41
0.013858
  0
LWPOLYLINE
  5
7A
100
AcDbEntity
  8
0
 62
   253
100
AcDbPolyline
 90
        2
 70
     0
 39
0.013858
 10
0.227929
 20
0.849846
 40
0.013858
 41
0.013858
 10
0.29237
 20
0.84361
 40
0.013858
 41
0.013858
  0
LWPOLYLINE
  5
7B
100
AcDbEntity
  8
0
 62
   253
100
AcDbPolyline
 90
        2
 70
     0
 39
0.013858
 10
0.29237
 20
0.84361
 40
0.013858
 41
0.013858
 10
-0.345807
 20
0.469437
 40
0.013858
 41
0.013858
  0
LWPOLYLINE
  5
7C
100
AcDbEntity
  8
0
 62
   253
100
AcDbPolyline
 90
        2
 70
     0
 39
0.013858
 10
-0.345807
 20
0.469437
 40
0.013858
 41
0.013858
 10
-0.410248
 20
0.475673
 40
0.013858
 41
0.013858
  0
LWPOLYLINE
  5
7D
100
AcDbEntity
  8
0
 62
   253
100
AcDbPolyline
 90
        2
 70
     0
 39
0.013858
 10
-0.345807
 20
0.469437
 40
0.013858
 41
0.013858
 10
0.29237
 20
0.84361
 40
0.013858
 41
0.013858
  0
LWPOLYLINE
  5
7E
100
AcDbEntity
  8
0
 62
   253
100
AcDbPolyline
 90
        2
 70
     0
 39
0.013858
 10
0.29237
 20
0.84361
 40
0.013858
 41
0.013858
 10
0.348496
 20
0.826287
 40
0.013858
 41
0.013858
  0
LWPOLYLINE
  5
7F
100
AcDbEntity
  8
0
 62
   253
100
AcDbPolyline
 90
        2
 70
     0
 39
0.013858
 10
0.348496
 20
0.826287
 40
0.013858
 41
0.013858
 10
-0.289681
 20
0.451421
 40
0.013858
 41
0.013858
  0
LWPOLYLINE
  5
80
100
AcDbEntity
  8
0
 62
   253
100
AcDbPolyline
 90
        2
 70
     0
 39
0.013858
 10
-0.289681
 20
0.451421
 40
0.013858
 41
0.013858
 10
-0.345807
 20
0.469437
 40
0.013858
 41
0.013858
  0
LWPOLYLINE
  5
81
100
AcDbEntity
  8
0
 62
     9
100
AcDbPolyline
 90
        2
 70
     0
 39
0.013858
 10
-0.289681
 20
0.451421
 40
0.013858
 41
0.013858
 10
0.348496
 20
0.826287
 40
0.013858
 41
0.013858
  0
LWPOLYLINE
  5
82
100
AcDbEntity
  8
0
 62
     9
100
AcDbPolyline
 90
        2
 70
     0
 39
0.013858
 10
0.348496
 20
0.826287
 40
0.013858
 41
0.013858
 10
0.397
 20
0.798571
 40
0.013858
 41
0.013858
  0
LWPOLYLINE
  5
83
100
AcDbEntity
  8
0
 62
     9
100
AcDbPolyline
 90
        2
 70
     0
 39
0.013858
 10
0.397
 20
0.798571
 40
0.013858
 41
0.013858
 10
-0.241177
 20
0.423705
 40
0.013858
 41
0.013858
  0
LWPOLYLINE
  5
84
100
AcDbEntity
  8
0
 62
     9
100
AcDbPolyline
 90
        2
 70
     0
 39
0.013858
 10
-0.241177
 20
0.423705
 40
0.013858
 41
0.013858
 10
-0.289681
 20
0.451421
 40
0.013858
 41
0.013858
  0
LWPOLYLINE
  5
85
100
AcDbEntity
  8
0
 62
     9
100
AcDbPolyline
 90
        2
 70
     0
 39
0.013858
 10
-0.241177
 20
0.423705
 40
0.013858
 41
0.013858
 10
0.397
 20
0.798571
 40
0.013858
 41
0.013858
  0
LWPOLYLINE
  5
86
100
AcDbEntity
  8
0
 62
     9
100
AcDbPolyline
 90
        2
 70
     0
 39
0.013858
 10
0.397
 20
0.798571
 40
0.013858
 41
0.013858
 10
0.437189
 20
0.762539
 40
0.013858
 41
0.013858
  0
LWPOLYLINE
  5
87
100
AcDbEntity
  8
0
 62
     9
100
AcDbPolyline
 90
        2
 70
     0
 39
0.013858
 10
0.437189
 20
0.762539
 40
0.013858
 41
0.013858
 10
-0.200988
 20
0.387673
 40
0.013858
 41
0.013858
  0
LWPOLYLINE
  5
88
100
AcDbEntity
  8
0
 62
     9
100
AcDbPolyline
 90
        2
 70
     0
 39
0.013858
 10
-0.200988
 20
0.387673
 40
0.013858
 41
0.013858
 10
-0.241177
 20
0.423705
 40
0.013858
 41
0.013858
  0
LWPOLYLINE
  5
89
100
AcDbEntity
  8
0
 62
     9
100
AcDbPolyline
 90
        2
 70
     0
 39
0.013858
 10
-0.200988
 20
0.387673
 40
0.013858
 41
0.013858
 10
0.437189
 20
0.762539
 40
0.013858
 41
0.013858
  0
LWPOLYLINE
  5
8A
100
AcDbEntity
  8
0
 62
     9
100
AcDbPolyline
 90
        2
 70
     0
 39
0.013858
 10
0.437189
 20
0.762539
 40
0.013858
 41
0.013858
 10
0.469063
 20
0.719579
 40
0.013858
 41
0.013858
  0
LWPOLYLINE
  5
8B
100
AcDbEntity
  8
0
 62
     9
100
AcDbPolyline
 90
        2
 70
     0
 39
0.013858
 10
0.469063
 20
0.719579
 40
0.013858
 41
0.013858
 10
-0.169114
 20
0.344713
 40
0.013858
 41
0.013858
  0
LWPOLYLINE
  5
8C
100
AcDbEntity
  8
0
 62
     9
100
AcDbPolyline
 90
        2
 70
     0
 39
0.013858
 10
-0.169114
 20
0.344713
 40
0.013858
 41
0.013858
 10
-0.200988
 20
0.387673
 40
0.013858
 41
0.013858
  0
LWPOLYLINE
  5
8D
100
AcDbEntity
  8
0
 62
     9
100
AcDbPolyline
 90
        2
 70
     0
 39
0.013858
 10
-0.169114
 20
0.344713
 40
0.013858
 41
0.013858
 10
0.469063
 20
0.719579
 40
0.013858
 41
0.013858
  0
LWPOLYLINE
  5
8E
100
AcDbEntity
  8
0
 62
     9
100
AcDbPolyline
 90
        2
 70
     0
 39
0.013858
 10
0.469063
 20
0.719579
 40
0.013858
 41
0.013858
 10
0.493315
 20
0.671075
 40
0.013858
 41
0.013858
  0
LWPOLYLINE
  5
8F
100
AcDbEntity
  8
0
 62
     9
100
AcDbPolyline
 90
        2
 70
     0
 39
0.013858
 10
0.493315
 20
0.671075
 40
0.013858
 41
0.013858
 10
-0.144862
 20
0.296209
 40
0.013858
 41
0.013858
  0
LWPOLYLINE
  5
90
100
AcDbEntity
  8
0
 62
     9
100
AcDbPolyline
 90
        2
 70
     0
 39
0.013858
 10
-0.144862
 20
0.296209
 40
0.013858
 41
0.013858
 10
-0.169114
 20
0.344713
 40
0.013858
 41
0.013858
  0
LWPOLYLINE
  5
91
100
AcDbEntity
  8
0
 62
     9
100
AcDbPolyline
 90
        2
 70
     0
 39
0.013858
 10
-0.144862
 20
0.296209
 40
0.013858
 41
0.013858
 10
0.493315
 20
0.671075
 40
0.013858
 41
0.013858
  0
LWPOLYLINE
  5
92
100
AcDbEntity
  8
0
 62
     9
100
AcDbPolyline
 90
        2
 70
     0
 39
0.013858
 10
0.493315
 20
0.671075
 40
0.013858
 41
0.013858
 10
0.509945
 20
0.618413
 40
0.013858
 41
0.013858
  0
LWPOLYLINE
  5
93
100
AcDbEntity
  8
0
 62
     9
100
AcDbPolyline
 90
        2
 70
     0
 39
0.013858
 10
0.509945
 20
0.618413
 40
0.013858
 41
0.013858
 10
-0.128232
 20
0.243547
 40
0.013858
 41
0.013858
  0
LWPOLYLINE
  5
94
100
AcDbEntity
  8
0
 62
     9
100
AcDbPolyline
 90
        2
 70
     0
 39
0.013858
 10
-0.128232
 20
0.243547
 40
0.013858
 41
0.013858
 10
-0.144862
 20
0.296209
 40
0.013858
 41
0.013858
  0
LWPOLYLINE
  5
95
100
AcDbEntity
  8
0
 62
     9
100
AcDbPolyline
 90
        2
 70
     0
 39
0.013858
 10
-0.128232
 20
0.243547
 40
0.013858
 41
0.013858
 10
0.509945
 20
0.618413
 40
0.013858
 41
0.013858
  0
LWPOLYLINE
  5
96
100
AcDbEntity
  8
0
 62
     9
100
AcDbPolyline
 90
        2
 70
     0
 39
0.013858
 10
0.509945
 20
0.618413
 40
0.013858
 41
0.013858
 10
0.517567
 20
0.56298
 40
0.013858
 41
0.013858
  0
LWPOLYLINE
  5
97
100
AcDbEntity
  8
0
 62
     9
100
AcDbPolyline
 90
        2
 70
     0
 39
0.013858
 10
0.517567
 20
0.56298
 40
0.013858
 41
0.013858
 10
-0.12061
 20
0.188114
 40
0.013858
 41
0.013858
  0
LWPOLYLINE
  5
98
100
AcDbEntity
  8
0
 62
     9
100
AcDbPolyline
 90
        2
 70
     0
 39
0.013858
 10
-0.12061
 20
0.188114
 40
0.013858
 41
0.013858
 10
-0.128232
 20
0.243547
 40
0.013858
 41
0.013858
  0
LWPOLYLINE
  5
99
100
AcDbEntity
  8
0
 62
   253
100
AcDbPolyline
 90
        2
 70
     0
 39
0.013858
 10
-0.12061
 20
0.188114
 40
0.013858
 41
0.013858
 10
0.517567
 20
0.56298
 40
0.013858
 41
0.013858
  0
LWPOLYLINE
  5
9A
100
AcDbEntity
  8
0
 62
   253
100
AcDbPolyline
 90
        2
 70
     0
 39
0.013858
 10
0.517567
 20
0.56298
 40
0.013858
 41
0.013858
 10
0.51826
 20
0.506854
 40
0.013858
 41
0.013858
  0
LWPOLYLINE
  5
9B
100
AcDbEntity
  8
0
 62
   253
100
AcDbPolyline
 90
        2
 70
     0
 39
0.013858
 10
0.51826
 20
0.506854
 40
0.013858
 41
0.013858
 10
-0.119917
 20
0.131988
 40
0.013858
 41
0.013858
  0
LWPOLYLINE
  5
9C
100
AcDbEntity
  8
0
 62
   253
100
AcDbPolyline
 90
        2
 70
     0
 39
0.013858
 10
-0.119917
 20
0.131988
 40
0.013858
 41
0.013858
 10
-0.12061
 20
0.188114
 40
0.013858
 41
0.013858
  0
LWPOLYLINE
  5
9D
100
AcDbEntity
  8
0
 62
   253
100
AcDbPolyline
 90
        2
 70
     0
 39
0.013858
 10
-0.119917
 20
0.131988
 40
0.013858
 41
0.013858
 10
0.51826
 20
0.506854
 40
0.013858
 41
0.013858
  0
LWPOLYLINE
  5
9E
100
AcDbEntity
  8
0
 62
   253
100
AcDbPolyline
 90
        2
 70
     0
 39
0.013858
 10
0.51826
 20
0.506854
 40
0.013858
 41
0.013858
 10
0.509945
 20
0.451421
 40
0.013858
 41
0.013858
  0
LWPOLYLINE
  5
9F
100
AcDbEntity
  8
0
 62
   253
100
AcDbPolyline
 90
        2
 70
     0
 39
0.013858
 10
0.509945
 20
0.451421
 40
0.013858
 41
0.013858
 10
-0.128232
 20
0.076555
 40
0.013858
 41
0.013858
  0
LWPOLYLINE
  5
A0
100
AcDbEntity
  8
0
 62
   253
100
AcDbPolyline
 90
        2
 70
     0
 39
0.013858
 10
-0.128232
 20
0.076555
 40
0.013858
 41
0.013858
 10
-0.119917
 20
0.131988
 40
0.013858
 41
0.013858
  0
LWPOLYLINE
  5
A1
100
AcDbEntity
  8
0
 62
   253
100
AcDbPolyline
 90
        2
 70
     0
 39
0.013858
 10
-0.128232
 20
0.076555
 40
0.013858
 41
0.013858
 10
0.509945
 20
0.451421
 40
0.013858
 41
0.013858
  0
LWPOLYLINE
  5
A2
100
AcDbEntity
  8
0
 62
   253
100
AcDbPolyline
 90
        2
 70
     0
 39
0.013858
 10
0.509945
 20
0.451421
 40
0.013858
 41
0.013858
 10
0.494008
 20
0.397374
 40
0.013858
 41
0.013858
  0
LWPOLYLINE
  5
A3
100
AcDbEntity
  8
0
 62
   253
100
AcDbPolyline
 90
        2
 70
     0
 39
0.013858
 10
0.494008
 20
0.397374
 40
0.013858
 41
0.013858
 10
-0.144169
 20
0.022508
 40
0.013858
 41
0.013858
  0
LWPOLYLINE
  5
A4
100
AcDbEntity
  8
0
 62
   253
100
AcDbPolyline
 90
        2
 70
     0
 39
0.013858
 10
-0.144169
 20
0.022508
 40
0.013858
 41
0.013858
 10
-0.128232
 20
0.076555
 40
0.013858
 41
0.013858
  0
LWPOLYLINE
  5
A5
100
AcDbEntity
  8
0
 62
   252
100
AcDbPolyline
 90
        2
 70
     0
 39
0.013858
 10
-0.144169
 20
0.022508
 40
0.013858
 41
0.013858
 10
0.494008
 20
0.397374
 40
0.013858
 41
0.013858
  0
LWPOLYLINE
  5
A6
100
AcDbEntity
  8
0
 62
   252
100
AcDbPolyline
 90
        2
 70
     0
 39
0.013858
 10
0.494008
 20
0.397374
 40
0.013858
 41
0.013858
 10
0.469756
 20
0.346791
 40
0.013858
 41
0.013858
  0
LWPOLYLINE
  5
A7
100
AcDbEntity
  8
0
 62
   252
100
AcDbPolyline
 90
        2
 70
     0
 39
0.013858
 10
0.469756
 20
0.346791
 40
0.013858
 41
0.013858
 10
-0.168421
 20
-0.027382
 40
0.013858
 41
0.013858
  0
LWPOLYLINE
  5
A8
100
AcDbEntity
  8
0
 62
   252
100
AcDbPolyline
 90
        2
 70
     0
 39
0.013858
 10
-0.168421
 20
-0.027382
 40
0.013858
 41
0.013858
 10
-0.144169
 20
0.022508
 40
0.013858
 41
0.013858
  0
LWPOLYLINE
  5
A9
100
AcDbEntity
  8
0
 62
   252
100
AcDbPolyline
 90
        2
 70
     0
 39
0.013858
 10
-0.168421
 20
-0.027382
 40
0.013858
 41
0.013858
 10
0.469756
 20
0.346791
 40
0.013858
 41
0.013858
  0
LWPOLYLINE
  5
AA
100
AcDbEntity
  8
0
 62
   252
100
AcDbPolyline
 90
        2
 70
     0
 39
0.013858
 10
0.469756
 20
0.346791
 40
0.013858
 41
0.013858
 10
0.437882
 20
0.301752
 40
0.013858
 41
0.013858
  0
LWPOLYLINE
  5
AB
100
AcDbEntity
  8
0
 62
   252
100
AcDbPolyline
 90
        2
 70
     0
 39
0.013858
 10
0.437882
 20
0.301752
 40
0.013858
 41
0.013858
 10
-0.200295
 20
-0.073114
 40
0.013858
 41
0.013858
  0
LWPOLYLINE
  5
AC
100
AcDbEntity
  8
0
 62
   252
100
AcDbPolyline
 90
        2
 70
     0
 39
0.013858
 10
-0.200295
 20
-0.073114
 40
0.013858
 41
0.013858
 10
-0.168421
 20
-0.027382
 40
0.013858
 41
0.013858
  0
LWPOLYLINE
  5
AD
100
AcDbEntity
  8
0
 62
   253
100
AcDbPolyline
 90
        2
 70
     0
 39
0.013858
 10
-0.344421
 20
-0.164579
 40
0.013858
 41
0.013858
 10
0.293756
 20
0.209594
 40
0.013858
 41
0.013858
  0
LWPOLYLINE
  5
AE
100
AcDbEntity
  8
0
 62
   253
100
AcDbPolyline
 90
        2
 70
     0
 39
0.013858
 10
0.293756
 20
0.209594
 40
0.013858
 41
0.013858
 10
0.293756
 20
0.066854
 40
0.013858
 41
0.013858
  0
LWPOLYLINE
  5
AF
100
AcDbEntity
  8
0
 62
   253
100
AcDbPolyline
 90
        2
 70
     0
 39
0.013858
 10
0.293756
 20
0.066854
 40
0.013858
 41
0.013858
 10
-0.344421
 20
-0.308012
 40
0.013858
 41
0.013858
  0
LWPOLYLINE
  5
B0
100
AcDbEntity
  8
0
 62
   253
100
AcDbPolyline
 90
        2
 70
     0
 39
0.013858
 10
-0.344421
 20
-0.308012
 40
0.013858
 41
0.013858
 10
-0.344421
 20
-0.164579
 40
0.013858
 41
0.013858
  0
LWPOLYLINE
  5
B1
100
AcDbEntity
  8
0
 62
     8
100
AcDbPolyline
 90
        2
 70
     0
 39
0.013858
 10
-0.240484
 20
-0.111917
 40
0.013858
 41
0.013858
 10
0.397693
 20
0.262949
 40
0.013858
 41
0.013858
  0
LWPOLYLINE
  5
B2
100
AcDbEntity
  8
0
 62
     8
100
AcDbPolyline
 90
        2
 70
     0
 39
0.013858
 10
0.397693
 20
0.262949
 40
0.013858
 41
0.013858
 10
0.349882
 20
0.231768
 40
0.013858
 41
0.013858
  0
LWPOLYLINE
  5
B3
100
AcDbEntity
  8
0
 62
     8
100
AcDbPolyline
 90
        2
 70
     0
 39
0.013858
 10
0.349882
 20
0.231768
 40
0.013858
 41
0.013858
 10
-0.288295
 20
-0.143098
 40
0.013858
 41
0.013858
  0
LWPOLYLINE
  5
B4
100
AcDbEntity
  8
0
 62
     8
100
AcDbPolyline
 90
        2
 70
     0
 39
0.013858
 10
-0.288295
 20
-0.143098
 40
0.013858
 41
0.013858
 10
-0.240484
 20
-0.111917
 40
0.013858
 41
0.013858
  0
LWPOLYLINE
  5
B5
100
AcDbEntity
  8
0
 62
     8
100
AcDbPolyline
 90
        2
 70
     0
 39
0.013858
 10
-0.200295
 20
-0.073114
 40
0.013858
 41
0.013858
 10
0.437882
 20
0.301752
 40
0.013858
 41
0.013858
  0
LWPOLYLINE
  5
B6
100
AcDbEntity
  8
0
 62
     8
100
AcDbPolyline
 90
        2
 70
     0
 39
0.013858
 10
0.437882
 20
0.301752
 40
0.013858
 41
0.013858
 10
0.397693
 20
0.262949
 40
0.013858
 41
0.013858
  0
LWPOLYLINE
  5
B7
100
AcDbEntity
  8
0
 62
     8
100
AcDbPolyline
 90
        2
 70
     0
 39
0.013858
 10
0.397693
 20
0.262949
 40
0.013858
 41
0.013858
 10
-0.240484
 20
-0.111917
 40
0.013858
 41
0.013858
  0
LWPOLYLINE
  5
B8
100
AcDbEntity
  8
0
 62
     8
100
AcDbPolyline
 90
        2
 70
     0
 39
0.013858
 10
-0.240484
 20
-0.111917
 40
0.013858
 41
0.013858
 10
-0.200295
 20
-0.073114
 40
0.013858
 41
0.013858
  0
LWPOLYLINE
  5
B9
100
AcDbEntity
  8
0
 62
     7
100
AcDbPolyline
 90
        2
 70
     0
 39
0.013858
 10
-0.940327
 20
1.63561
 40
0.013858
 41
0.013858
 10
-0.765713
 20
1.63561
 40
0.013858
 41
0.013858
  0
LWPOLYLINE
  5
BA
100
AcDbEntity
  8
0
 62
     7
100
AcDbPolyline
 90
        2
 70
     0
 39
0.013858
 10
-0.765713
 20
1.63561
 40
0.013858
 41
0.013858
 10
-0.765713
 20
1.454067
 40
0.013858
 41
0.013858
  0
LWPOLYLINE
  5
BB
100
AcDbEntity
  8
0
 62
     7
100
AcDbPolyline
 90
        2
 70
     0
 39
0.013858
 10
-0.765713
 20
1.454067
 40
0.013858
 41
0.013858
 10
-0.720673
 20
1.451295
 40
0.013858
 41
0.013858
  0
LWPOLYLINE
  5
BC
100
AcDbEntity
  8
0
 62
     7
100
AcDbPolyline
 90
        2
 70
     0
 39
0.013858
 10
-0.720673
 20
1.451295
 40
0.013858
 41
0.013858
 10
-0.686028
 20
1.442287
 40
0.013858
 41
0.013858
  0
LWPOLYLINE
  5
BD
100
AcDbEntity
  8
0
 62
     7
100
AcDbPolyline
 90
        2
 70
     0
 39
0.013858
 10
-0.686028
 20
1.442287
 40
0.013858
 41
0.013858
 10
-0.661083
 20
1.429122
 40
0.013858
 41
0.013858
  0
LWPOLYLINE
  5
BE
100
AcDbEntity
  8
0
 62
     7
100
AcDbPolyline
 90
        2
 70
     0
 39
0.013858
 10
-0.661083
 20
1.429122
 40
0.013858
 41
0.013858
 10
-0.643067
 20
1.412492
 40
0.013858
 41
0.013858
  0
LWPOLYLINE
  5
BF
100
AcDbEntity
  8
0
 62
     7
100
AcDbPolyline
 90
        2
 70
     0
 39
0.013858
 10
-0.643067
 20
1.412492
 40
0.013858
 41
0.013858
 10
-0.632673
 20
1.395169
 40
0.013858
 41
0.013858
  0
LWPOLYLINE
  5
C0
100
AcDbEntity
  8
0
 62
     7
100
AcDbPolyline
 90
        2
 70
     0
 39
0.013858
 10
-0.632673
 20
1.395169
 40
0.013858
 41
0.013858
 10
-0.626437
 20
1.377154
 40
0.013858
 41
0.013858
  0
LWPOLYLINE
  5
C1
100
AcDbEntity
  8
0
 62
     7
100
AcDbPolyline
 90
        2
 70
     0
 39
0.013858
 10
-0.626437
 20
1.377154
 40
0.013858
 41
0.013858
 10
-0.623665
 20
1.34528
 40
0.013858
 41
0.013858
  0
LWPOLYLINE
  5
C2
100
AcDbEntity
  8
0
 62
     7
100
AcDbPolyline
 90
        2
 70
     0
 39
0.013858
 10
-0.623665
 20
1.34528
 40
0.013858
 41
0.013858
 10
-0.623665
 20
1.231642
 40
0.013858
 41
0.013858
  0
LWPOLYLINE
  5
C3
100
AcDbEntity
  8
0
 62
     7
100
AcDbPolyline
 90
        2
 70
     0
 39
0.013858
 10
-0.623665
 20
1.231642
 40
0.013858
 41
0.013858
 10
-0.62228
 20
1.186602
 40
0.013858
 41
0.013858
  0
LWPOLYLINE
  5
C4
100
AcDbEntity
  8
0
 62
     7
100
AcDbPolyline
 90
        2
 70
     0
 39
0.013858
 10
-0.62228
 20
1.186602
 40
0.013858
 41
0.013858
 10
-0.619508
 20
1.138791
 40
0.013858
 41
0.013858
  0
LWPOLYLINE
  5
C5
100
AcDbEntity
  8
0
 62
     7
100
AcDbPolyline
 90
        2
 70
     0
 39
0.013858
 10
-0.619508
 20
1.138791
 40
0.013858
 41
0.013858
 10
-0.612579
 20
1.089594
 40
0.013858
 41
0.013858
  0
LWPOLYLINE
  5
C6
100
AcDbEntity
  8
0
 62
     7
100
AcDbPolyline
 90
        2
 70
     0
 39
0.013858
 10
-0.612579
 20
1.089594
 40
0.013858
 41
0.013858
 10
-0.601492
 20
1.039705
 40
0.013858
 41
0.013858
  0
LWPOLYLINE
  5
C7
100
AcDbEntity
  8
0
 62
     7
100
AcDbPolyline
 90
        2
 70
     0
 39
0.013858
 10
-0.601492
 20
1.039705
 40
0.013858
 41
0.013858
 10
-0.586248
 20
0.991201
 40
0.013858
 41
0.013858
  0
LWPOLYLINE
  5
C8
100
AcDbEntity
  8
0
 62
     7
100
AcDbPolyline
 90
        2
 70
     0
 39
0.013858
 10
-0.586248
 20
0.991201
 40
0.013858
 41
0.013858
 10
-0.564768
 20
0.945469
 40
0.013858
 41
0.013858
  0
LWPOLYLINE
  5
C9
100
AcDbEntity
  8
0
 62
     7
100
AcDbPolyline
 90
        2
 70
     0
 39
0.013858
 10
-0.564768
 20
0.945469
 40
0.013858
 41
0.013858
 10
-0.536358
 20
0.904587
 40
0.013858
 41
0.013858
  0
LWPOLYLINE
  5
CA
100
AcDbEntity
  8
0
 62
     7
100
AcDbPolyline
 90
        2
 70
     0
 39
0.013858
 10
-0.536358
 20
0.904587
 40
0.013858
 41
0.013858
 10
-0.500327
 20
0.869941
 40
0.013858
 41
0.013858
  0
LWPOLYLINE
  5
CB
100
AcDbEntity
  8
0
 62
     7
100
AcDbPolyline
 90
        2
 70
     0
 39
0.013858
 10
-0.500327
 20
0.869941
 40
0.013858
 41
0.013858
 10
-0.500327
 20
0.685626
 40
0.013858
 41
0.013858
  0
LWPOLYLINE
  5
CC
100
AcDbEntity
  8
0
 62
     7
100
AcDbPolyline
 90
        2
 70
     0
 39
0.013858
 10
-0.500327
 20
0.685626
 40
0.013858
 41
0.013858
 10
-0.410248
 20
0.661374
 40
0.013858
 41
0.013858
  0
LWPOLYLINE
  5
CD
100
AcDbEntity
  8
0
 62
     7
100
AcDbPolyline
 90
        2
 70
     0
 39
0.013858
 10
-0.410248
 20
0.661374
 40
0.013858
 41
0.013858
 10
-0.410248
 20
0.475673
 40
0.013858
 41
0.013858
  0
LWPOLYLINE
  5
CE
100
AcDbEntity
  8
0
 62
     7
100
AcDbPolyline
 90
        2
 70
     0
 39
0.013858
 10
-0.410248
 20
0.475673
 40
0.013858
 41
0.013858
 10
-0.345807
 20
0.469437
 40
0.013858
 41
0.013858
  0
LWPOLYLINE
  5
CF
100
AcDbEntity
  8
0
 62
     7
100
AcDbPolyline
 90
        2
 70
     0
 39
0.013858
 10
-0.345807
 20
0.469437
 40
0.013858
 41
0.013858
 10
-0.289681
 20
0.451421
 40
0.013858
 41
0.013858
  0
LWPOLYLINE
  5
D0
100
AcDbEntity
  8
0
 62
     7
100
AcDbPolyline
 90
        2
 70
     0
 39
0.013858
 10
-0.289681
 20
0.451421
 40
0.013858
 41
0.013858
 10
-0.241177
 20
0.423705
 40
0.013858
 41
0.013858
  0
LWPOLYLINE
  5
D1
100
AcDbEntity
  8
0
 62
     7
100
AcDbPolyline
 90
        2
 70
     0
 39
0.013858
 10
-0.241177
 20
0.423705
 40
0.013858
 41
0.013858
 10
-0.200988
 20
0.387673
 40
0.013858
 41
0.013858
  0
LWPOLYLINE
  5
D2
100
AcDbEntity
  8
0
 62
     7
100
AcDbPolyline
 90
        2
 70
     0
 39
0.013858
 10
-0.200988
 20
0.387673
 40
0.013858
 41
0.013858
 10
-0.169114
 20
0.344713
 40
0.013858
 41
0.013858
  0
LWPOLYLINE
  5
D3
100
AcDbEntity
  8
0
 62
     7
100
AcDbPolyline
 90
        2
 70
     0
 39
0.013858
 10
-0.169114
 20
0.344713
 40
0.013858
 41
0.013858
 10
-0.144862
 20
0.296209
 40
0.013858
 41
0.013858
  0
LWPOLYLINE
  5
D4
100
AcDbEntity
  8
0
 62
     7
100
AcDbPolyline
 90
        2
 70
     0
 39
0.013858
 10
-0.144862
 20
0.296209
 40
0.013858
 41
0.013858
 10
-0.128232
 20
0.243547
 40
0.013858
 41
0.013858
  0
LWPOLYLINE
  5
D5
100
AcDbEntity
  8
0
 62
     7
100
AcDbPolyline
 90
        2
 70
     0
 39
0.013858
 10
-0.128232
 20
0.243547
 40
0.013858
 41
0.013858
 10
-0.12061
 20
0.188114
 40
0.013858
 41
0.013858
  0
LWPOLYLINE
  5
D6
100
AcDbEntity
  8
0
 62
     7
100
AcDbPolyline
 90
        2
 70
     0
 39
0.013858
 10
-0.12061
 20
0.188114
 40
0.013858
 41
0.013858
 10
-0.119917
 20
0.131988
 40
0.013858
 41
0.013858
  0
LWPOLYLINE
  5
D7
100
AcDbEntity
  8
0
 62
     7
100
AcDbPolyline
 90
        2
 70
     0
 39
0.013858
 10
-0.119917
 20
0.131988
 40
0.013858
 41
0.013858
 10
-0.128232
 20
0.076555
 40
0.013858
 41
0.013858
  0
LWPOLYLINE
  5
D8
100
AcDbEntity
  8
0
 62
     7
100
AcDbPolyline
 90
        2
 70
     0
 39
0.013858
 10
-0.128232
 20
0.076555
 40
0.013858
 41
0.013858
 10
-0.144169
 20
0.022508
 40
0.013858
 41
0.013858
  0
LWPOLYLINE
  5
D9
100
AcDbEntity
  8
0
 62
     7
100
AcDbPolyline
 90
        2
 70
     0
 39
0.013858
 10
-0.144169
 20
0.022508
 40
0.013858
 41
0.013858
 10
-0.168421
 20
-0.027382
 40
0.013858
 41
0.013858
  0
LWPOLYLINE
  5
DA
100
AcDbEntity
  8
0
 62
     7
100
AcDbPolyline
 90
        2
 70
     0
 39
0.013858
 10
-0.168421
 20
-0.027382
 40
0.013858
 41
0.013858
 10
-0.200295
 20
-0.073114
 40
0.013858
 41
0.013858
  0
LWPOLYLINE
  5
DB
100
AcDbEntity
  8
0
 62
     7
100
AcDbPolyline
 90
        2
 70
     0
 39
0.013858
 10
-0.200295
 20
-0.073114
 40
0.013858
 41
0.013858
 10
-0.240484
 20
-0.111917
 40
0.013858
 41
0.013858
  0
LWPOLYLINE
  5
DC
100
AcDbEntity
  8
0
 62
     7
100
AcDbPolyline
 90
        2
 70
     0
 39
0.013858
 10
-0.240484
 20
-0.111917
 40
0.013858
 41
0.013858
 10
-0.288295
 20
-0.143098
 40
0.013858
 41
0.013858
  0
LWPOLYLINE
  5
DD
100
AcDbEntity
  8
0
 62
     7
100
AcDbPolyline
 90
        2
 70
     0
 39
0.013858
 10
-0.288295
 20
-0.143098
 40
0.013858
 41
0.013858
 10
-0.344421
 20
-0.164579
 40
0.013858
 41
0.013858
  0
LWPOLYLINE
  5
DE
100
AcDbEntity
  8
0
 62
     7
100
AcDbPolyline
 90
        2
 70
     0
 39
0.013858
 10
-0.344421
 20
-0.164579
 40
0.013858
 41
0.013858
 10
-0.344421
 20
-0.308012
 40
0.013858
 41
0.013858
  0
LWPOLYLINE
  5
DF
100
AcDbEntity
  8
0
 62
     7
100
AcDbPolyline
 90
        2
 70
     0
 39
0.013858
 10
-0.344421
 20
-0.308012
 40
0.013858
 41
0.013858
 10
-0.939634
 20
-0.308012
 40
0.013858
 41
0.013858
  0
LWPOLYLINE
  5
E0
100
AcDbEntity
  8
0
 62
     7
100
AcDbPolyline
 90
        2
 70
     0
 39
0.013858
 10
-0.939634
 20
-0.308012
 40
0.013858
 41
0.013858
 10
-0.939634
 20
1.63561
 40
0.013858
 41
0.013858
  0
LWPOLYLINE
  5
E1
100
AcDbEntity
  8
0
 62
     7
100
AcDbPolyline
 90
        2
 70
     0
 39
0.013858
 10
-0.939634
 20
1.63561
 40
0.013858
 41
0.013858
 10
-0.940327
 20
1.63561
 40
0.013858
 41
0.013858
  0
MTEXT
  5
E2
100
AcDbEntity
  8
0
 62
     0
100
AcDbMText
 10
-1.457043
 20
-0.320835
 30
0.0
 40
0.166992
 41
0.0
 71
     1
 72
     1
  1
{\fTimes New Roman|b0|i0|c0|p32;BA  1272}
 73
     1
 44
1.0
  0
MTEXT
  5
E3
100
AcDbEntity
  8
0
 62
     0
100
AcDbMText
 10
-1.457043
 20
-0.522472
 30
0.0
 40
0.166992
 41
0.0
 71
     1
 72
     1
  1
{\fTimes New Roman|b0|i0|c0|p32;13/16" x 1-15/16"}
 73
     1
 44
1.0
  0
MTEXT
  5
E4
100
AcDbEntity
  8
0
 62
     0
100
AcDbMText
 10
-1.327146
 20
3.64574
 30
0.0
 40
0.166992
 41
0.0
 71
     1
 72
     1
  1
{\fTimes New Roman|b0|i0|c0|p32;BA  1272}
 73
     1
 44
1.0
  0
MTEXT
  5
E5
100
AcDbEntity
  8
0
 62
     0
100
AcDbMText
 10
-1.327146
 20
3.444102
 30
0.0
 40
0.166992
 41
0.0
 71
     1
 72
     1
  1
{\fTimes New Roman|b0|i0|c0|p32;13/16" x 1-15/16"}
 73
     1
 44
1.0
  0
ENDSEC
  0
SECTION
  2
OBJECTS
  0
DICTIONARY
  5
19
100
AcDbDictionary
280
     0
281
     1
  3
ACAD_GROUP
350
1A
  3
ACAD_MLINESTYLE
350
1B
  3
ACAD_LAYOUT
350
1E
  3
ACAD_PLOTSETTINGS
350
22
  3
ACAD_PLOTSTYLENAME
350
1F
  3
ACAD_WIPEOUT_VARS
350
23
  0
DICTIONARY
  5
1A
102
{ACAD_REACTORS
330
19
102
}
100
AcDbDictionary
280
     0
281
     1
  0
DICTIONARY
  5
1B
102
{ACAD_REACTORS
330
19
102
}
100
AcDbDictionary
280
     0
281
     1
  3
Standard
350
1C
  0
MLINESTYLE
  5
1C
102
{ACAD_REACTORS
330
1B
102
}
100
AcDbMlineStyle
  2
Standard
 70
     0
  3

 62
     0
 51
90.0
 52
90.0
 71
     2
 49
0.5
 62
   256
  6
BYLAYER
 49
-0.5
 62
   256
  6
BYLAYER
  0
ACDBDICTIONARYWDFLT
  5
1F
102
{ACAD_REACTORS
330
19
102
}
100
AcDbDictionary
281
     1
  3
Normal
350
1D
100
AcDbDictionaryWithDefault
340
1D
  0
ACDBPLACEHOLDER
  5
1D
102
{ACAD_REACTORS
330
1F
102
}
  0
LAYOUT
  5
20
102
{ACAD_REACTORS
330
1E
102
}
100
AcDbPlotSettings
  1

  2

  4

  6

 40
0.0
 41
0.0
 42
0.0
 43
0.0
 44
0.0
 45
0.0
 46
0.0
 47
0.0
 48
0.0
 49
0.0
140
0.0
141
0.0
142
1.0
143
1.0
 70
  1024
 72
     0
 73
     0
 74
     0
  7

 75
     0
147
1.0
148
0.0
149
0.0
100
AcDbLayout
  1
Model
 70
     0
 71
     0
 10
0.0
 20
0.0
 11
0.0
 21
0.0
 12
0.0
 22
0.0
 32
0.0
 14
0.0
 24
0.0
 34
0.0
 15
0.0
 25
0.0
 35
0.0
146
0.0
 13
0.0
 23
0.0
 33
0.0
 16
0.0
 26
0.0
 36
0.0
 17
0.0
 27
0.0
 37
0.0
 76
     0
330
A
331
0
345
0
346
0
  0
LAYOUT
  5
21
102
{ACAD_REACTORS
330
1E
102
}
100
AcDbPlotSettings
  1

  2

  4

  6

 40
0.0
 41
0.0
 42
0.0
 43
0.0
 44
0.0
 45
0.0
 46
0.0
 47
0.0
 48
0.0
 49
0.0
140
0.0
141
0.0
142
1.0
143
1.0
 70
     0
 72
     0
 73
     0
 74
     0
  7

 75
     0
147
1.0
148
0.0
149
0.0
100
AcDbLayout
  1
Layout1
 70
     0
 71
     0
 10
0.0
 20
0.0
 11
0.0
 21
0.0
 12
0.0
 22
0.0
 32
0.0
 14
0.0
 24
0.0
 34
0.0
 15
0.0
 25
0.0
 35
0.0
146
0.0
 13
0.0
 23
0.0
 33
0.0
 16
0.0
 26
0.0
 36
0.0
 17
0.0
 27
0.0
 37
0.0
 76
     0
330
B
331
0
345
0
346
0
  0
DICTIONARY
  5
1E
102
{ACAD_REACTORS
330
19
102
}
100
AcDbDictionary
280
     0
281
     1
  3
Layout1
350
21
  3
Model
350
20
  0
DICTIONARY
  5
22
102
{ACAD_REACTORS
330
19
102
}
100
AcDbDictionary
280
     0
281
     1
  0
WIPEOUTVARIABLES
  5
23
100
AcDbWipeoutVariables
 70
     1
  0
ENDSEC
  0
EOF
