  0
SECTION
  2
HEADER
  9
$ACADVER
  1
AC1006
  9
$EXTMIN
 10
2.792240
 20
0.991320
  9
$EXTMAX
 10
6.600000
 20
10.195240
  9
$LTSCALE
 40
0.044000
  9
$PDMODE
 70
    35
  9
$PDSIZE
 40
0.035200
  0
ENDSEC
  0
SECTION
  2
TABLES
  0
TABLE
  2
LTYPE
 70
     9
  0
LTYPE
  2
CONTINUOUS
 70
    64
  3
Solid line
 72
    65
 73
     0
 40
0.000000
  0
LTYPE
  2
DASHED
 70
    64
  3
__ __ __ __ __ __ __ __ __ __ __ __ __ __ __
 72
    65
 73
     2
 40
0.000330
 49
0.000220
 49
-0.000110
  0
LTYPE
  2
HIDDEN
 70
    64
  3
 _ _ _ _ _ _ _ _ _ _ _ _ _ _ _ _ _ _ _ _ _ _
 72
    65
 73
     2
 40
0.000165
 49
0.000110
 49
-0.000055
  0
LTYPE
  2
CENTER
 70
    64
  3
____ _ ____ _ ____ _ ____ _ ____ _ ____ _ ____
 72
    65
 73
     4
 40
0.000880
 49
0.000550
 49
-0.000110
 49
0.000110
 49
-0.000110
  0
LTYPE
  2
PHANTOM
 70
    64
  3
_____ _ _ _____ _ _ _____ _ _ _____ _ _ ____
 72
    65
 73
     6
 40
0.001100
 49
0.000550
 49
-0.000110
 49
0.000110
 49
-0.000110
 49
0.000110
 49
-0.000110
  0
LTYPE
  2
DOT
 70
    64
  3
...............................................
 72
    65
 73
     2
 40
0.000110
 49
0.000000
 49
-0.000110
  0
LTYPE
  2
DASHDOT
 70
    64
  3
__ . __ . __ . __ . __ . __ . __ . __ . __ . __
 72
    65
 73
     4
 40
0.000440
 49
0.000220
 49
-0.000110
 49
0.000000
 49
-0.000110
  0
LTYPE
  2
BORDER
 70
    64
  3
__ __ . __ __ . __ __ . __ __ . __ __ . __ __
 72
    65
 73
     6
 40
0.000770
 49
0.000220
 49
-0.000110
 49
0.000220
 49
-0.000110
 49
0.000000
 49
-0.000110
  0
LTYPE
  2
DIVIDE
 70
    64
  3
__ . . __ . . __ . . __ . . __ . . __ . . __
 72
    65
 73
     6
 40
0.000550
 49
0.000220
 49
-0.000110
 49
0.000000
 49
-0.000110
 49
0.000000
 49
-0.000110
  0
LTYPE
  2
DOTDOT
 70
    64
  3
 . .  . .  . .  . .  . .  . . 
 72
    65
 73
     5
 40
0.000242
 49
-0.000110
 49
0.000000
 49
-0.000110
 49
0.000000
 49
-0.000110
  0
ENDTAB
  0
TABLE
  2
STYLE
 70
     2
  0
STYLE
 70
     0
  2
SN0
 40
0.000000
 41
0.000440
 50
0.000000
 71
     0
 42
0.000000
  3
ROMAND
  0
STYLE
 70
    68
  2
SV0
 40
0.000000
 41
0.000440
 50
0.000000
 71
     0
 42
0.000000
  3
ROMAND
  0
ENDTAB
  0
TABLE
  2
LAYER
 70
     3
  0
LAYER
  2
FOREGROUND
 70
    64
 62
     7
  6
CONTINUOUS
  0
LAYER
  2
BACKGROUND
 70
    65
 62
    -7
  6
CONTINUOUS
  0
LAYER
  2
0
 70
    64
 62
     7
  6
CONTINUOUS
  0
ENDTAB
  0
ENDSEC
  0
SECTION
  2
ENTITIES
  0
POLYLINE
  8
FOREGROUND
  6
CONTINUOUS
 66
     1
 40
0.000000
 41
0.000000
  0
VERTEX
  8
FOREGROUND
  6
CONTINUOUS
 10
0.000000
 20
11.186560
  0
VERTEX
  8
FOREGROUND
  6
CONTINUOUS
 10
8.499920
 20
11.186560
  0
VERTEX
  8
FOREGROUND
  6
CONTINUOUS
 10
8.499920
 20
0.186560
  0
VERTEX
  8
FOREGROUND
  6
CONTINUOUS
 10
0.000000
 20
0.186560
  0
VERTEX
  8
FOREGROUND
  6
CONTINUOUS
 10
0.000000
 20
11.186560
  0
SEQEND
  8
0
  0
POLYLINE
  8
FOREGROUND
  6
CONTINUOUS
 66
     1
 40
0.000000
 41
0.000000
  0
VERTEX
  8
FOREGROUND
  6
CONTINUOUS
 10
0.000000
 20
11.186560
  0
VERTEX
  8
FOREGROUND
  6
CONTINUOUS
 10
8.499920
 20
11.186560
  0
VERTEX
  8
FOREGROUND
  6
CONTINUOUS
 10
8.499920
 20
0.186560
  0
VERTEX
  8
FOREGROUND
  6
CONTINUOUS
 10
0.000000
 20
0.186560
  0
VERTEX
  8
FOREGROUND
  6
CONTINUOUS
 10
0.000000
 20
11.186560
  0
SEQEND
  8
0
  0
POLYLINE
  8
0
  6
CONTINUOUS
 66
     1
 40
0.014080
 41
0.014080
  0
VERTEX
  8
0
  6
CONTINUOUS
 10
6.273960
 20
10.079080
  0
VERTEX
  8
0
  6
CONTINUOUS
 10
6.273960
 20
9.646560
  0
VERTEX
  8
0
  6
CONTINUOUS
 10
6.187280
 20
9.646560
  0
VERTEX
  8
0
  6
CONTINUOUS
 10
6.187280
 20
9.591560
  0
VERTEX
  8
0
  6
CONTINUOUS
 10
6.206200
 20
9.589360
  0
VERTEX
  8
0
  6
CONTINUOUS
 10
6.223360
 20
9.583200
  0
VERTEX
  8
0
  6
CONTINUOUS
 10
6.237880
 20
9.573960
  0
VERTEX
  8
0
  6
CONTINUOUS
 10
6.255040
 20
9.554160
  0
VERTEX
  8
0
  6
CONTINUOUS
 10
6.263400
 20
9.538320
  0
VERTEX
  8
0
  6
CONTINUOUS
 10
6.270880
 20
9.511480
  0
VERTEX
  8
0
  6
CONTINUOUS
 10
6.272640
 20
9.492120
  0
VERTEX
  8
0
  6
CONTINUOUS
 10
6.269560
 20
9.462640
  0
VERTEX
  8
0
  6
CONTINUOUS
 10
6.259880
 20
9.434040
  0
VERTEX
  8
0
  6
CONTINUOUS
 10
6.243160
 20
9.407640
  0
VERTEX
  8
0
  6
CONTINUOUS
 10
6.227760
 20
9.392240
  0
VERTEX
  8
0
  6
CONTINUOUS
 10
6.209280
 20
9.379040
  0
VERTEX
  8
0
  6
CONTINUOUS
 10
6.187720
 20
9.368920
  0
VERTEX
  8
0
  6
CONTINUOUS
 10
6.149440
 20
9.358360
  0
VERTEX
  8
0
  6
CONTINUOUS
 10
6.037680
 20
9.335920
  0
VERTEX
  8
0
  6
CONTINUOUS
 10
5.983120
 20
9.321840
  0
VERTEX
  8
0
  6
CONTINUOUS
 10
5.957160
 20
9.313040
  0
VERTEX
  8
0
  6
CONTINUOUS
 10
5.921080
 20
9.296320
  0
VERTEX
  8
0
  6
CONTINUOUS
 10
5.899960
 20
9.282680
  0
VERTEX
  8
0
  6
CONTINUOUS
 10
5.881480
 20
9.266400
  0
VERTEX
  8
0
  6
CONTINUOUS
 10
5.865200
 20
9.247040
  0
VERTEX
  8
0
  6
CONTINUOUS
 10
5.852880
 20
9.224160
  0
VERTEX
  8
0
  6
CONTINUOUS
 10
5.844080
 20
9.198200
  0
VERTEX
  8
0
  6
CONTINUOUS
 10
5.839240
 20
9.167840
  0
VERTEX
  8
0
  6
CONTINUOUS
 10
5.838360
 20
9.151120
  0
VERTEX
  8
0
  6
CONTINUOUS
 10
5.638600
 20
9.151120
  0
VERTEX
  8
0
  6
CONTINUOUS
 10
5.638600
 20
8.467360
  0
VERTEX
  8
0
  6
CONTINUOUS
 10
3.747920
 20
8.467360
  0
VERTEX
  8
0
  6
CONTINUOUS
 10
3.747920
 20
9.151120
  0
VERTEX
  8
0
  6
CONTINUOUS
 10
3.548160
 20
9.151120
  0
VERTEX
  8
0
  6
CONTINUOUS
 10
3.545520
 20
9.183680
  0
VERTEX
  8
0
  6
CONTINUOUS
 10
3.538480
 20
9.211840
  0
VERTEX
  8
0
  6
CONTINUOUS
 10
3.527920
 20
9.236040
  0
VERTEX
  8
0
  6
CONTINUOUS
 10
3.513840
 20
9.256720
  0
VERTEX
  8
0
  6
CONTINUOUS
 10
3.496240
 20
9.274320
  0
VERTEX
  8
0
  6
CONTINUOUS
 10
3.476440
 20
9.289280
  0
VERTEX
  8
0
  6
CONTINUOUS
 10
3.442120
 20
9.307320
  0
VERTEX
  8
0
  6
CONTINUOUS
 10
3.404280
 20
9.320960
  0
VERTEX
  8
0
  6
CONTINUOUS
 10
3.349280
 20
9.334600
  0
VERTEX
  8
0
  6
CONTINUOUS
 10
3.237960
 20
9.356600
  0
VERTEX
  8
0
  6
CONTINUOUS
 10
3.199680
 20
9.367160
  0
VERTEX
  8
0
  6
CONTINUOUS
 10
3.178120
 20
9.377720
  0
VERTEX
  8
0
  6
CONTINUOUS
 10
3.159640
 20
9.390920
  0
VERTEX
  8
0
  6
CONTINUOUS
 10
3.144240
 20
9.406320
  0
VERTEX
  8
0
  6
CONTINUOUS
 10
3.127520
 20
9.432720
  0
VERTEX
  8
0
  6
CONTINUOUS
 10
3.120040
 20
9.452080
  0
VERTEX
  8
0
  6
CONTINUOUS
 10
3.114760
 20
9.481560
  0
VERTEX
  8
0
  6
CONTINUOUS
 10
3.114760
 20
9.501360
  0
VERTEX
  8
0
  6
CONTINUOUS
 10
3.117840
 20
9.520280
  0
VERTEX
  8
0
  6
CONTINUOUS
 10
3.127080
 20
9.546240
  0
VERTEX
  8
0
  6
CONTINUOUS
 10
3.136760
 20
9.561200
  0
VERTEX
  8
0
  6
CONTINUOUS
 10
3.148640
 20
9.573520
  0
VERTEX
  8
0
  6
CONTINUOUS
 10
3.163160
 20
9.583200
  0
VERTEX
  8
0
  6
CONTINUOUS
 10
3.180320
 20
9.589360
  0
VERTEX
  8
0
  6
CONTINUOUS
 10
3.199240
 20
9.591560
  0
VERTEX
  8
0
  6
CONTINUOUS
 10
3.199240
 20
9.646560
  0
VERTEX
  8
0
  6
CONTINUOUS
 10
3.112560
 20
9.646560
  0
VERTEX
  8
0
  6
CONTINUOUS
 10
3.112560
 20
10.079080
  0
VERTEX
  8
0
  6
CONTINUOUS
 10
4.692160
 20
10.187760
  0
VERTEX
  8
0
  6
CONTINUOUS
 10
6.274840
 20
10.080840
  0
VERTEX
  8
0
  6
CONTINUOUS
 10
6.273960
 20
10.079080
  0
SEQEND
  8
0
  0
POLYLINE
  8
0
  6
CONTINUOUS
 66
     1
 40
0.000000
 41
0.000000
  0
VERTEX
  8
0
  6
CONTINUOUS
 10
6.276600
 20
2.603040
  0
VERTEX
  8
0
  6
CONTINUOUS
 10
6.276600
 20
2.170960
  0
VERTEX
  8
0
  6
CONTINUOUS
 10
6.189480
 20
2.170960
  0
VERTEX
  8
0
  6
CONTINUOUS
 10
6.189480
 20
2.115520
  0
VERTEX
  8
0
  6
CONTINUOUS
 10
6.208840
 20
2.113320
  0
VERTEX
  8
0
  6
CONTINUOUS
 10
6.225560
 20
2.107160
  0
VERTEX
  8
0
  6
CONTINUOUS
 10
6.240080
 20
2.097920
  0
VERTEX
  8
0
  6
CONTINUOUS
 10
6.257680
 20
2.078120
  0
VERTEX
  8
0
  6
CONTINUOUS
 10
6.266040
 20
2.062280
  0
VERTEX
  8
0
  6
CONTINUOUS
 10
6.273520
 20
2.035440
  0
VERTEX
  8
0
  6
CONTINUOUS
 10
6.274840
 20
2.006400
  0
VERTEX
  8
0
  6
CONTINUOUS
 10
6.272200
 20
1.986600
  0
VERTEX
  8
0
  6
CONTINUOUS
 10
6.262520
 20
1.958000
  0
VERTEX
  8
0
  6
CONTINUOUS
 10
6.245800
 20
1.931600
  0
VERTEX
  8
0
  6
CONTINUOUS
 10
6.230400
 20
1.916200
  0
VERTEX
  8
0
  6
CONTINUOUS
 10
6.211920
 20
1.903000
  0
VERTEX
  8
0
  6
CONTINUOUS
 10
6.190360
 20
1.892880
  0
VERTEX
  8
0
  6
CONTINUOUS
 10
6.152080
 20
1.882320
  0
VERTEX
  8
0
  6
CONTINUOUS
 10
6.040320
 20
1.859880
  0
VERTEX
  8
0
  6
CONTINUOUS
 10
5.985760
 20
1.845800
  0
VERTEX
  8
0
  6
CONTINUOUS
 10
5.947480
 20
1.832160
  0
VERTEX
  8
0
  6
CONTINUOUS
 10
5.913160
 20
1.813680
  0
VERTEX
  8
0
  6
CONTINUOUS
 10
5.892920
 20
1.798720
  0
VERTEX
  8
0
  6
CONTINUOUS
 10
5.867840
 20
1.771000
  0
VERTEX
  8
0
  6
CONTINUOUS
 10
5.855520
 20
1.748120
  0
VERTEX
  8
0
  6
CONTINUOUS
 10
5.846720
 20
1.722160
  0
VERTEX
  8
0
  6
CONTINUOUS
 10
5.841880
 20
1.691800
  0
VERTEX
  8
0
  6
CONTINUOUS
 10
5.841000
 20
1.675080
  0
VERTEX
  8
0
  6
CONTINUOUS
 10
5.641240
 20
1.675080
  0
VERTEX
  8
0
  6
CONTINUOUS
 10
5.641240
 20
0.991320
  0
VERTEX
  8
0
  6
CONTINUOUS
 10
3.750120
 20
0.991320
  0
VERTEX
  8
0
  6
CONTINUOUS
 10
3.750120
 20
1.675080
  0
VERTEX
  8
0
  6
CONTINUOUS
 10
3.550800
 20
1.675080
  0
VERTEX
  8
0
  6
CONTINUOUS
 10
3.548160
 20
1.707640
  0
VERTEX
  8
0
  6
CONTINUOUS
 10
3.541120
 20
1.735800
  0
VERTEX
  8
0
  6
CONTINUOUS
 10
3.530560
 20
1.760000
  0
VERTEX
  8
0
  6
CONTINUOUS
 10
3.516040
 20
1.780680
  0
VERTEX
  8
0
  6
CONTINUOUS
 10
3.498880
 20
1.798280
  0
VERTEX
  8
0
  6
CONTINUOUS
 10
3.479080
 20
1.813240
  0
VERTEX
  8
0
  6
CONTINUOUS
 10
3.444760
 20
1.831280
  0
VERTEX
  8
0
  6
CONTINUOUS
 10
3.406480
 20
1.844920
  0
VERTEX
  8
0
  6
CONTINUOUS
 10
3.351920
 20
1.858560
  0
VERTEX
  8
0
  6
CONTINUOUS
 10
3.240600
 20
1.881000
  0
VERTEX
  8
0
  6
CONTINUOUS
 10
3.202320
 20
1.891560
  0
VERTEX
  8
0
  6
CONTINUOUS
 10
3.180320
 20
1.901680
  0
VERTEX
  8
0
  6
CONTINUOUS
 10
3.161840
 20
1.914880
  0
VERTEX
  8
0
  6
CONTINUOUS
 10
3.146880
 20
1.930720
  0
VERTEX
  8
0
  6
CONTINUOUS
 10
3.135000
 20
1.947880
  0
VERTEX
  8
0
  6
CONTINUOUS
 10
3.122680
 20
1.976040
  0
VERTEX
  8
0
  6
CONTINUOUS
 10
3.118280
 20
1.995840
  0
VERTEX
  8
0
  6
CONTINUOUS
 10
3.116960
 20
2.015640
  0
VERTEX
  8
0
  6
CONTINUOUS
 10
3.118280
 20
2.035000
  0
VERTEX
  8
0
  6
CONTINUOUS
 10
3.125760
 20
2.061840
  0
VERTEX
  8
0
  6
CONTINUOUS
 10
3.134120
 20
2.078120
  0
VERTEX
  8
0
  6
CONTINUOUS
 10
3.151280
 20
2.097480
  0
VERTEX
  8
0
  6
CONTINUOUS
 10
3.165800
 20
2.107160
  0
VERTEX
  8
0
  6
CONTINUOUS
 10
3.182520
 20
2.113320
  0
VERTEX
  8
0
  6
CONTINUOUS
 10
3.201880
 20
2.115520
  0
VERTEX
  8
0
  6
CONTINUOUS
 10
3.201880
 20
2.170960
  0
VERTEX
  8
0
  6
CONTINUOUS
 10
3.114760
 20
2.170960
  0
VERTEX
  8
0
  6
CONTINUOUS
 10
3.114760
 20
2.603040
  0
VERTEX
  8
0
  6
CONTINUOUS
 10
4.694360
 20
2.711720
  0
VERTEX
  8
0
  6
CONTINUOUS
 10
6.277480
 20
2.604800
  0
VERTEX
  8
0
  6
CONTINUOUS
 10
6.276600
 20
2.603040
  0
SEQEND
  8
0
  0
POLYLINE
  8
0
  6
CONTINUOUS
 66
     1
 40
0.000000
 41
0.000000
  0
VERTEX
  8
0
  6
CONTINUOUS
 10
6.276600
 20
4.511320
  0
VERTEX
  8
0
  6
CONTINUOUS
 10
6.276600
 20
4.078800
  0
VERTEX
  8
0
  6
CONTINUOUS
 10
6.189480
 20
4.078800
  0
VERTEX
  8
0
  6
CONTINUOUS
 10
6.189480
 20
4.023360
  0
VERTEX
  8
0
  6
CONTINUOUS
 10
6.208840
 20
4.021160
  0
VERTEX
  8
0
  6
CONTINUOUS
 10
6.225560
 20
4.015000
  0
VERTEX
  8
0
  6
CONTINUOUS
 10
6.240080
 20
4.005760
  0
VERTEX
  8
0
  6
CONTINUOUS
 10
6.252400
 20
3.993440
  0
VERTEX
  8
0
  6
CONTINUOUS
 10
6.266040
 20
3.970120
  0
VERTEX
  8
0
  6
CONTINUOUS
 10
6.273520
 20
3.943280
  0
VERTEX
  8
0
  6
CONTINUOUS
 10
6.274840
 20
3.914680
  0
VERTEX
  8
0
  6
CONTINUOUS
 10
6.272200
 20
3.894880
  0
VERTEX
  8
0
  6
CONTINUOUS
 10
6.262520
 20
3.866280
  0
VERTEX
  8
0
  6
CONTINUOUS
 10
6.245800
 20
3.839880
  0
VERTEX
  8
0
  6
CONTINUOUS
 10
6.230400
 20
3.824040
  0
VERTEX
  8
0
  6
CONTINUOUS
 10
6.201800
 20
3.805560
  0
VERTEX
  8
0
  6
CONTINUOUS
 10
6.178040
 20
3.796760
  0
VERTEX
  8
0
  6
CONTINUOUS
 10
6.124800
 20
3.784440
  0
VERTEX
  8
0
  6
CONTINUOUS
 10
6.040320
 20
3.767720
  0
VERTEX
  8
0
  6
CONTINUOUS
 10
5.985760
 20
3.753640
  0
VERTEX
  8
0
  6
CONTINUOUS
 10
5.947480
 20
3.740000
  0
VERTEX
  8
0
  6
CONTINUOUS
 10
5.913160
 20
3.721520
  0
VERTEX
  8
0
  6
CONTINUOUS
 10
5.892920
 20
3.706560
  0
VERTEX
  8
0
  6
CONTINUOUS
 10
5.867840
 20
3.678840
  0
VERTEX
  8
0
  6
CONTINUOUS
 10
5.855520
 20
3.655960
  0
VERTEX
  8
0
  6
CONTINUOUS
 10
5.846720
 20
3.630000
  0
VERTEX
  8
0
  6
CONTINUOUS
 10
5.841880
 20
3.599640
  0
VERTEX
  8
0
  6
CONTINUOUS
 10
5.841000
 20
3.582920
  0
VERTEX
  8
0
  6
CONTINUOUS
 10
5.641240
 20
3.582920
  0
VERTEX
  8
0
  6
CONTINUOUS
 10
5.641240
 20
2.899160
  0
VERTEX
  8
0
  6
CONTINUOUS
 10
3.750120
 20
2.899160
  0
VERTEX
  8
0
  6
CONTINUOUS
 10
3.750120
 20
3.582920
  0
VERTEX
  8
0
  6
CONTINUOUS
 10
3.550800
 20
3.582920
  0
VERTEX
  8
0
  6
CONTINUOUS
 10
3.548160
 20
3.615480
  0
VERTEX
  8
0
  6
CONTINUOUS
 10
3.541120
 20
3.643640
  0
VERTEX
  8
0
  6
CONTINUOUS
 10
3.530560
 20
3.667840
  0
VERTEX
  8
0
  6
CONTINUOUS
 10
3.516040
 20
3.688520
  0
VERTEX
  8
0
  6
CONTINUOUS
 10
3.498880
 20
3.706120
  0
VERTEX
  8
0
  6
CONTINUOUS
 10
3.479080
 20
3.721080
  0
VERTEX
  8
0
  6
CONTINUOUS
 10
3.444760
 20
3.739120
  0
VERTEX
  8
0
  6
CONTINUOUS
 10
3.406480
 20
3.752760
  0
VERTEX
  8
0
  6
CONTINUOUS
 10
3.351920
 20
3.766400
  0
VERTEX
  8
0
  6
CONTINUOUS
 10
3.240600
 20
3.788840
  0
VERTEX
  8
0
  6
CONTINUOUS
 10
3.202320
 20
3.799400
  0
VERTEX
  8
0
  6
CONTINUOUS
 10
3.180320
 20
3.809520
  0
VERTEX
  8
0
  6
CONTINUOUS
 10
3.161840
 20
3.822720
  0
VERTEX
  8
0
  6
CONTINUOUS
 10
3.146880
 20
3.838560
  0
VERTEX
  8
0
  6
CONTINUOUS
 10
3.135000
 20
3.855720
  0
VERTEX
  8
0
  6
CONTINUOUS
 10
3.122680
 20
3.883880
  0
VERTEX
  8
0
  6
CONTINUOUS
 10
3.118280
 20
3.903680
  0
VERTEX
  8
0
  6
CONTINUOUS
 10
3.116960
 20
3.923480
  0
VERTEX
  8
0
  6
CONTINUOUS
 10
3.118280
 20
3.942840
  0
VERTEX
  8
0
  6
CONTINUOUS
 10
3.125760
 20
3.969680
  0
VERTEX
  8
0
  6
CONTINUOUS
 10
3.134120
 20
3.985960
  0
VERTEX
  8
0
  6
CONTINUOUS
 10
3.151280
 20
4.005320
  0
VERTEX
  8
0
  6
CONTINUOUS
 10
3.165800
 20
4.015000
  0
VERTEX
  8
0
  6
CONTINUOUS
 10
3.182520
 20
4.021160
  0
VERTEX
  8
0
  6
CONTINUOUS
 10
3.201880
 20
4.023360
  0
VERTEX
  8
0
  6
CONTINUOUS
 10
3.201880
 20
4.078800
  0
VERTEX
  8
0
  6
CONTINUOUS
 10
3.114760
 20
4.078800
  0
VERTEX
  8
0
  6
CONTINUOUS
 10
3.114760
 20
4.511320
  0
VERTEX
  8
0
  6
CONTINUOUS
 10
4.694360
 20
4.619560
  0
VERTEX
  8
0
  6
CONTINUOUS
 10
6.277480
 20
4.512640
  0
VERTEX
  8
0
  6
CONTINUOUS
 10
6.276600
 20
4.511320
  0
SEQEND
  8
0
  0
SOLID
  8
0
 62
    15
 10
5.319160
 20
6.635640
 11
5.963320
 21
7.013160
 12
5.319160
 22
5.951880
 13
5.963320
 23
6.329400
  0
POLYLINE
  8
0
  6
CONTINUOUS
 66
     1
 40
0.000000
 41
0.000000
  0
VERTEX
  8
0
  6
CONTINUOUS
 10
5.319160
 20
6.635640
  0
VERTEX
  8
0
  6
CONTINUOUS
 10
5.963320
 20
7.013160
  0
VERTEX
  8
0
  6
CONTINUOUS
 10
5.963320
 20
6.329400
  0
VERTEX
  8
0
  6
CONTINUOUS
 10
5.319160
 20
5.951880
  0
VERTEX
  8
0
  6
CONTINUOUS
 10
5.319160
 20
6.635640
  0
SEQEND
  8
0
  0
SOLID
  8
0
 62
    15
 10
5.867400
 20
7.131520
 11
6.512000
 21
7.509040
 12
5.867400
 22
7.076080
 13
6.512000
 23
7.453600
  0
POLYLINE
  8
0
  6
CONTINUOUS
 66
     1
 40
0.000000
 41
0.000000
  0
VERTEX
  8
0
  6
CONTINUOUS
 10
5.867400
 20
7.131520
  0
VERTEX
  8
0
  6
CONTINUOUS
 10
6.512000
 20
7.509040
  0
VERTEX
  8
0
  6
CONTINUOUS
 10
6.512000
 20
7.453600
  0
VERTEX
  8
0
  6
CONTINUOUS
 10
5.867400
 20
7.076080
  0
VERTEX
  8
0
  6
CONTINUOUS
 10
5.867400
 20
7.131520
  0
SEQEND
  8
0
  0
SOLID
  8
0
 62
    15
 10
5.867400
 20
7.076080
 11
6.512000
 21
7.453600
 12
5.903480
 22
7.068160
 13
6.547640
 23
7.445680
  0
POLYLINE
  8
0
  6
CONTINUOUS
 66
     1
 40
0.000000
 41
0.000000
  0
VERTEX
  8
0
  6
CONTINUOUS
 10
5.867400
 20
7.076080
  0
VERTEX
  8
0
  6
CONTINUOUS
 10
6.512000
 20
7.453600
  0
VERTEX
  8
0
  6
CONTINUOUS
 10
6.547640
 20
7.445680
  0
VERTEX
  8
0
  6
CONTINUOUS
 10
5.903480
 20
7.068160
  0
VERTEX
  8
0
  6
CONTINUOUS
 10
5.867400
 20
7.076080
  0
SEQEND
  8
0
  0
SOLID
  8
0
 62
    15
 10
5.903480
 20
7.068160
 11
6.547640
 21
7.445680
 12
5.930320
 22
7.046160
 13
6.574480
 23
7.423680
  0
POLYLINE
  8
0
  6
CONTINUOUS
 66
     1
 40
0.000000
 41
0.000000
  0
VERTEX
  8
0
  6
CONTINUOUS
 10
5.903480
 20
7.068160
  0
VERTEX
  8
0
  6
CONTINUOUS
 10
6.547640
 20
7.445680
  0
VERTEX
  8
0
  6
CONTINUOUS
 10
6.574480
 20
7.423680
  0
VERTEX
  8
0
  6
CONTINUOUS
 10
5.930320
 20
7.046160
  0
VERTEX
  8
0
  6
CONTINUOUS
 10
5.903480
 20
7.068160
  0
SEQEND
  8
0
  0
SOLID
  8
0
 62
    15
 10
5.930320
 20
7.046160
 11
6.574480
 21
7.423680
 12
5.946600
 22
7.014480
 13
6.591200
 23
7.392000
  0
POLYLINE
  8
0
  6
CONTINUOUS
 66
     1
 40
0.000000
 41
0.000000
  0
VERTEX
  8
0
  6
CONTINUOUS
 10
5.930320
 20
7.046160
  0
VERTEX
  8
0
  6
CONTINUOUS
 10
6.574480
 20
7.423680
  0
VERTEX
  8
0
  6
CONTINUOUS
 10
6.591200
 20
7.392000
  0
VERTEX
  8
0
  6
CONTINUOUS
 10
5.946600
 20
7.014480
  0
VERTEX
  8
0
  6
CONTINUOUS
 10
5.930320
 20
7.046160
  0
SEQEND
  8
0
  0
SOLID
  8
0
 62
    15
 10
5.590640
 20
6.774680
 11
6.235240
 21
7.152200
 12
5.553240
 22
6.741680
 13
6.197840
 23
7.119200
  0
POLYLINE
  8
0
  6
CONTINUOUS
 66
     1
 40
0.000000
 41
0.000000
  0
VERTEX
  8
0
  6
CONTINUOUS
 10
5.590640
 20
6.774680
  0
VERTEX
  8
0
  6
CONTINUOUS
 10
6.235240
 20
7.152200
  0
VERTEX
  8
0
  6
CONTINUOUS
 10
6.197840
 20
7.119200
  0
VERTEX
  8
0
  6
CONTINUOUS
 10
5.553240
 20
6.741680
  0
VERTEX
  8
0
  6
CONTINUOUS
 10
5.590640
 20
6.774680
  0
SEQEND
  8
0
  0
SOLID
  8
0
 62
    15
 10
5.553240
 20
6.741680
 11
6.197840
 21
7.119200
 12
5.528160
 22
6.696360
 13
6.172760
 23
7.073880
  0
POLYLINE
  8
0
  6
CONTINUOUS
 66
     1
 40
0.000000
 41
0.000000
  0
VERTEX
  8
0
  6
CONTINUOUS
 10
5.553240
 20
6.741680
  0
VERTEX
  8
0
  6
CONTINUOUS
 10
6.197840
 20
7.119200
  0
VERTEX
  8
0
  6
CONTINUOUS
 10
6.172760
 20
7.073880
  0
VERTEX
  8
0
  6
CONTINUOUS
 10
5.528160
 20
6.696360
  0
VERTEX
  8
0
  6
CONTINUOUS
 10
5.553240
 20
6.741680
  0
SEQEND
  8
0
  0
SOLID
  8
0
 62
    15
 10
5.528160
 20
6.696360
 11
6.172760
 21
7.073880
 12
5.518480
 22
6.635640
 13
6.163080
 23
7.013160
  0
POLYLINE
  8
0
  6
CONTINUOUS
 66
     1
 40
0.000000
 41
0.000000
  0
VERTEX
  8
0
  6
CONTINUOUS
 10
5.528160
 20
6.696360
  0
VERTEX
  8
0
  6
CONTINUOUS
 10
6.172760
 20
7.073880
  0
VERTEX
  8
0
  6
CONTINUOUS
 10
6.163080
 20
7.013160
  0
VERTEX
  8
0
  6
CONTINUOUS
 10
5.518480
 20
6.635640
  0
VERTEX
  8
0
  6
CONTINUOUS
 10
5.528160
 20
6.696360
  0
SEQEND
  8
0
  0
SOLID
  8
0
 62
    15
 10
5.954520
 20
7.564040
 11
6.598680
 21
7.941560
 12
5.954520
 22
7.131520
 13
6.598680
 23
7.509040
  0
POLYLINE
  8
0
  6
CONTINUOUS
 66
     1
 40
0.000000
 41
0.000000
  0
VERTEX
  8
0
  6
CONTINUOUS
 10
5.954520
 20
7.564040
  0
VERTEX
  8
0
  6
CONTINUOUS
 10
6.598680
 20
7.941560
  0
VERTEX
  8
0
  6
CONTINUOUS
 10
6.598680
 20
7.509040
  0
VERTEX
  8
0
  6
CONTINUOUS
 10
5.954520
 20
7.131520
  0
VERTEX
  8
0
  6
CONTINUOUS
 10
5.954520
 20
7.564040
  0
SEQEND
  8
0
  0
SOLID
  8
0
 62
    15
 10
5.946600
 20
7.014480
 11
6.591200
 21
7.392000
 12
5.952760
 22
6.977080
 13
6.596920
 23
7.354600
  0
POLYLINE
  8
0
  6
CONTINUOUS
 66
     1
 40
0.000000
 41
0.000000
  0
VERTEX
  8
0
  6
CONTINUOUS
 10
5.946600
 20
7.014480
  0
VERTEX
  8
0
  6
CONTINUOUS
 10
6.591200
 20
7.392000
  0
VERTEX
  8
0
  6
CONTINUOUS
 10
6.596920
 20
7.354600
  0
VERTEX
  8
0
  6
CONTINUOUS
 10
5.952760
 20
6.977080
  0
VERTEX
  8
0
  6
CONTINUOUS
 10
5.946600
 20
7.014480
  0
SEQEND
  8
0
  0
SOLID
  8
0
 62
    15
 10
5.952760
 20
6.977080
 11
6.596920
 21
7.354600
 12
5.947040
 22
6.937920
 13
6.591640
 23
7.315440
  0
POLYLINE
  8
0
  6
CONTINUOUS
 66
     1
 40
0.000000
 41
0.000000
  0
VERTEX
  8
0
  6
CONTINUOUS
 10
5.952760
 20
6.977080
  0
VERTEX
  8
0
  6
CONTINUOUS
 10
6.596920
 20
7.354600
  0
VERTEX
  8
0
  6
CONTINUOUS
 10
6.591640
 20
7.315440
  0
VERTEX
  8
0
  6
CONTINUOUS
 10
5.947040
 20
6.937920
  0
VERTEX
  8
0
  6
CONTINUOUS
 10
5.952760
 20
6.977080
  0
SEQEND
  8
0
  0
SOLID
  8
0
 62
    15
 10
5.929880
 20
6.900960
 11
6.574040
 21
7.278480
 12
5.899520
 22
6.870160
 13
6.543680
 23
7.247680
  0
POLYLINE
  8
0
  6
CONTINUOUS
 66
     1
 40
0.000000
 41
0.000000
  0
VERTEX
  8
0
  6
CONTINUOUS
 10
5.929880
 20
6.900960
  0
VERTEX
  8
0
  6
CONTINUOUS
 10
6.574040
 20
7.278480
  0
VERTEX
  8
0
  6
CONTINUOUS
 10
6.543680
 20
7.247680
  0
VERTEX
  8
0
  6
CONTINUOUS
 10
5.899520
 20
6.870160
  0
VERTEX
  8
0
  6
CONTINUOUS
 10
5.929880
 20
6.900960
  0
SEQEND
  8
0
  0
SOLID
  8
0
 62
    15
 10
5.947040
 20
6.937920
 11
6.591640
 21
7.315440
 12
5.929880
 22
6.900960
 13
6.574040
 23
7.278480
  0
POLYLINE
  8
0
  6
CONTINUOUS
 66
     1
 40
0.000000
 41
0.000000
  0
VERTEX
  8
0
  6
CONTINUOUS
 10
5.947040
 20
6.937920
  0
VERTEX
  8
0
  6
CONTINUOUS
 10
6.591640
 20
7.315440
  0
VERTEX
  8
0
  6
CONTINUOUS
 10
6.574040
 20
7.278480
  0
VERTEX
  8
0
  6
CONTINUOUS
 10
5.929880
 20
6.900960
  0
VERTEX
  8
0
  6
CONTINUOUS
 10
5.947040
 20
6.937920
  0
SEQEND
  8
0
  0
SOLID
  8
0
 62
    15
 10
2.843720
 20
7.068160
 11
3.487880
 21
7.445680
 12
2.879800
 22
7.076080
 13
3.523960
 23
7.453600
  0
POLYLINE
  8
0
  6
CONTINUOUS
 66
     1
 40
0.000000
 41
0.000000
  0
VERTEX
  8
0
  6
CONTINUOUS
 10
2.843720
 20
7.068160
  0
VERTEX
  8
0
  6
CONTINUOUS
 10
3.487880
 20
7.445680
  0
VERTEX
  8
0
  6
CONTINUOUS
 10
3.523960
 20
7.453600
  0
VERTEX
  8
0
  6
CONTINUOUS
 10
2.879800
 20
7.076080
  0
VERTEX
  8
0
  6
CONTINUOUS
 10
2.843720
 20
7.068160
  0
SEQEND
  8
0
  0
SOLID
  8
0
 62
    15
 10
2.792680
 20
7.564040
 11
3.437280
 21
7.941560
 12
4.372280
 22
7.672280
 13
5.016440
 23
8.050240
  0
POLYLINE
  8
0
  6
CONTINUOUS
 66
     1
 40
0.000000
 41
0.000000
  0
VERTEX
  8
0
  6
CONTINUOUS
 10
2.792680
 20
7.564040
  0
VERTEX
  8
0
  6
CONTINUOUS
 10
3.437280
 20
7.941560
  0
VERTEX
  8
0
  6
CONTINUOUS
 10
5.016440
 20
8.050240
  0
VERTEX
  8
0
  6
CONTINUOUS
 10
4.372280
 20
7.672280
  0
VERTEX
  8
0
  6
CONTINUOUS
 10
2.792680
 20
7.564040
  0
SEQEND
  8
0
  0
SOLID
  8
0
 62
    15
 10
4.372280
 20
7.672280
 11
5.016440
 21
8.050240
 12
5.955400
 22
7.565360
 13
6.599560
 23
7.942880
  0
POLYLINE
  8
0
  6
CONTINUOUS
 66
     1
 40
0.000000
 41
0.000000
  0
VERTEX
  8
0
  6
CONTINUOUS
 10
4.372280
 20
7.672280
  0
VERTEX
  8
0
  6
CONTINUOUS
 10
5.016440
 20
8.050240
  0
VERTEX
  8
0
  6
CONTINUOUS
 10
6.599560
 20
7.942880
  0
VERTEX
  8
0
  6
CONTINUOUS
 10
5.955400
 20
7.565360
  0
VERTEX
  8
0
  6
CONTINUOUS
 10
4.372280
 20
7.672280
  0
SEQEND
  8
0
  0
SOLID
  8
0
 62
    15
 10
5.955400
 20
7.565360
 11
6.599560
 21
7.942880
 12
5.954520
 22
7.564040
 13
6.598680
 23
7.941560
  0
POLYLINE
  8
0
  6
CONTINUOUS
 66
     1
 40
0.000000
 41
0.000000
  0
VERTEX
  8
0
  6
CONTINUOUS
 10
5.955400
 20
7.565360
  0
VERTEX
  8
0
  6
CONTINUOUS
 10
6.599560
 20
7.942880
  0
VERTEX
  8
0
  6
CONTINUOUS
 10
6.598680
 20
7.941560
  0
VERTEX
  8
0
  6
CONTINUOUS
 10
5.954520
 20
7.564040
  0
VERTEX
  8
0
  6
CONTINUOUS
 10
5.955400
 20
7.565360
  0
SEQEND
  8
0
  0
POLYLINE
  8
0
  6
CONTINUOUS
 66
     1
 40
0.000000
 41
0.000000
  0
VERTEX
  8
0
  6
CONTINUOUS
 10
5.954520
 20
7.564040
  0
VERTEX
  8
0
  6
CONTINUOUS
 10
5.954520
 20
7.131520
  0
VERTEX
  8
0
  6
CONTINUOUS
 10
5.867400
 20
7.131520
  0
VERTEX
  8
0
  6
CONTINUOUS
 10
5.867400
 20
7.076080
  0
VERTEX
  8
0
  6
CONTINUOUS
 10
5.903480
 20
7.068160
  0
VERTEX
  8
0
  6
CONTINUOUS
 10
5.930320
 20
7.046160
  0
VERTEX
  8
0
  6
CONTINUOUS
 10
5.946600
 20
7.014480
  0
VERTEX
  8
0
  6
CONTINUOUS
 10
5.952760
 20
6.977080
  0
VERTEX
  8
0
  6
CONTINUOUS
 10
5.947040
 20
6.937920
  0
VERTEX
  8
0
  6
CONTINUOUS
 10
5.929880
 20
6.900960
  0
VERTEX
  8
0
  6
CONTINUOUS
 10
5.899520
 20
6.870160
  0
VERTEX
  8
0
  6
CONTINUOUS
 10
5.855960
 20
6.849480
  0
VERTEX
  8
0
  6
CONTINUOUS
 10
5.637280
 20
6.798000
  0
VERTEX
  8
0
  6
CONTINUOUS
 10
5.590640
 20
6.774680
  0
VERTEX
  8
0
  6
CONTINUOUS
 10
5.553240
 20
6.741680
  0
VERTEX
  8
0
  6
CONTINUOUS
 10
5.528160
 20
6.696360
  0
VERTEX
  8
0
  6
CONTINUOUS
 10
5.518480
 20
6.635640
  0
VERTEX
  8
0
  6
CONTINUOUS
 10
5.319160
 20
6.635640
  0
VERTEX
  8
0
  6
CONTINUOUS
 10
5.319160
 20
5.951880
  0
VERTEX
  8
0
  6
CONTINUOUS
 10
3.428040
 20
5.951880
  0
VERTEX
  8
0
  6
CONTINUOUS
 10
3.428040
 20
6.635640
  0
VERTEX
  8
0
  6
CONTINUOUS
 10
3.228280
 20
6.635640
  0
VERTEX
  8
0
  6
CONTINUOUS
 10
3.218600
 20
6.696360
  0
VERTEX
  8
0
  6
CONTINUOUS
 10
3.193960
 20
6.741680
  0
VERTEX
  8
0
  6
CONTINUOUS
 10
3.156560
 20
6.774240
  0
VERTEX
  8
0
  6
CONTINUOUS
 10
3.110360
 20
6.797120
  0
VERTEX
  8
0
  6
CONTINUOUS
 10
2.892560
 20
6.848160
  0
VERTEX
  8
0
  6
CONTINUOUS
 10
2.848560
 20
6.868840
  0
VERTEX
  8
0
  6
CONTINUOUS
 10
2.818200
 20
6.899640
  0
VERTEX
  8
0
  6
CONTINUOUS
 10
2.800600
 20
6.937040
  0
VERTEX
  8
0
  6
CONTINUOUS
 10
2.794880
 20
6.976200
  0
VERTEX
  8
0
  6
CONTINUOUS
 10
2.800600
 20
7.014040
  0
VERTEX
  8
0
  6
CONTINUOUS
 10
2.816880
 20
7.045720
  0
VERTEX
  8
0
  6
CONTINUOUS
 10
2.843720
 20
7.068160
  0
VERTEX
  8
0
  6
CONTINUOUS
 10
2.879800
 20
7.076080
  0
VERTEX
  8
0
  6
CONTINUOUS
 10
2.879800
 20
7.131520
  0
VERTEX
  8
0
  6
CONTINUOUS
 10
2.792680
 20
7.131520
  0
VERTEX
  8
0
  6
CONTINUOUS
 10
2.792680
 20
7.564040
  0
VERTEX
  8
0
  6
CONTINUOUS
 10
4.372280
 20
7.672280
  0
VERTEX
  8
0
  6
CONTINUOUS
 10
5.955400
 20
7.565360
  0
VERTEX
  8
0
  6
CONTINUOUS
 10
5.954520
 20
7.564040
  0
SEQEND
  8
0
  0
TEXT
  8
0
 10
4.354240
 20
5.694040
 40
0.138371
  1
BA  1271
 41
1.000000
  7
SN0
 71
     0
 72
     5
 11
5.039012
 21
5.694040
  0
TEXT
  8
0
 10
4.246440
 20
5.502640
 40
0.138371
  1
Sides 1-5/8"
 41
1.000000
  7
SN0
 71
     0
 72
     5
 11
5.147964
 21
5.502640
  0
TEXT
  8
0
 10
4.354240
 20
8.839600
 40
0.138371
  1
BA  1271
 41
1.000000
  7
SN0
 71
     0
 72
     5
 11
5.039012
 21
8.839600
  0
TEXT
  8
0
 10
4.246440
 20
8.647760
 40
0.138371
  1
Sides 1-5/8"
 41
1.000000
  7
SN0
 71
     0
 72
     5
 11
5.147964
 21
8.647760
  0
ENDSEC
  0
EOF
