  0
SECTION
  2
HEADER
  9
$ACADVER
  1
AC1006
  9
$EXTMIN
 10
1.657040
 20
1.171720
  9
$EXTMAX
 10
6.739920
 20
7.648080
  9
$LTSCALE
 40
0.044000
  9
$PDMODE
 70
    35
  9
$PDSIZE
 40
0.035200
  0
ENDSEC
  0
SECTION
  2
TABLES
  0
TABLE
  2
LTYPE
 70
     9
  0
LTYPE
  2
CONTINUOUS
 70
    64
  3
Solid line
 72
    65
 73
     0
 40
0.000000
  0
LTYPE
  2
DASHED
 70
    64
  3
__ __ __ __ __ __ __ __ __ __ __ __ __ __ __
 72
    65
 73
     2
 40
0.000330
 49
0.000220
 49
-0.000110
  0
LTYPE
  2
HIDDEN
 70
    64
  3
 _ _ _ _ _ _ _ _ _ _ _ _ _ _ _ _ _ _ _ _ _ _
 72
    65
 73
     2
 40
0.000165
 49
0.000110
 49
-0.000055
  0
LTYPE
  2
CENTER
 70
    64
  3
____ _ ____ _ ____ _ ____ _ ____ _ ____ _ ____
 72
    65
 73
     4
 40
0.000880
 49
0.000550
 49
-0.000110
 49
0.000110
 49
-0.000110
  0
LTYPE
  2
PHANTOM
 70
    64
  3
_____ _ _ _____ _ _ _____ _ _ _____ _ _ ____
 72
    65
 73
     6
 40
0.001100
 49
0.000550
 49
-0.000110
 49
0.000110
 49
-0.000110
 49
0.000110
 49
-0.000110
  0
LTYPE
  2
DOT
 70
    64
  3
...............................................
 72
    65
 73
     2
 40
0.000110
 49
0.000000
 49
-0.000110
  0
LTYPE
  2
DASHDOT
 70
    64
  3
__ . __ . __ . __ . __ . __ . __ . __ . __ . __
 72
    65
 73
     4
 40
0.000440
 49
0.000220
 49
-0.000110
 49
0.000000
 49
-0.000110
  0
LTYPE
  2
BORDER
 70
    64
  3
__ __ . __ __ . __ __ . __ __ . __ __ . __ __
 72
    65
 73
     6
 40
0.000770
 49
0.000220
 49
-0.000110
 49
0.000220
 49
-0.000110
 49
0.000000
 49
-0.000110
  0
LTYPE
  2
DIVIDE
 70
    64
  3
__ . . __ . . __ . . __ . . __ . . __ . . __
 72
    65
 73
     6
 40
0.000550
 49
0.000220
 49
-0.000110
 49
0.000000
 49
-0.000110
 49
0.000000
 49
-0.000110
  0
LTYPE
  2
DOTDOT
 70
    64
  3
 . .  . .  . .  . .  . .  . . 
 72
    65
 73
     5
 40
0.000242
 49
-0.000110
 49
0.000000
 49
-0.000110
 49
0.000000
 49
-0.000110
  0
ENDTAB
  0
TABLE
  2
STYLE
 70
     2
  0
STYLE
 70
     0
  2
SN0
 40
0.000000
 41
0.000440
 50
0.000000
 71
     0
 42
0.000000
  3
ROMAND
  0
STYLE
 70
    68
  2
SV0
 40
0.000000
 41
0.000440
 50
0.000000
 71
     0
 42
0.000000
  3
ROMAND
  0
ENDTAB
  0
TABLE
  2
LAYER
 70
     3
  0
LAYER
  2
FOREGROUND
 70
    64
 62
     7
  6
CONTINUOUS
  0
LAYER
  2
BACKGROUND
 70
    65
 62
    -7
  6
CONTINUOUS
  0
LAYER
  2
0
 70
    64
 62
     7
  6
CONTINUOUS
  0
ENDTAB
  0
ENDSEC
  0
SECTION
  2
ENTITIES
  0
POLYLINE
  8
FOREGROUND
  6
CONTINUOUS
 66
     1
 40
0.000000
 41
0.000000
  0
VERTEX
  8
FOREGROUND
  6
CONTINUOUS
 10
0.000000
 20
8.819800
  0
VERTEX
  8
FOREGROUND
  6
CONTINUOUS
 10
8.499920
 20
8.819800
  0
VERTEX
  8
FOREGROUND
  6
CONTINUOUS
 10
8.499920
 20
-2.180200
  0
VERTEX
  8
FOREGROUND
  6
CONTINUOUS
 10
0.000000
 20
-2.180200
  0
VERTEX
  8
FOREGROUND
  6
CONTINUOUS
 10
0.000000
 20
8.819800
  0
SEQEND
  8
0
  0
POLYLINE
  8
FOREGROUND
  6
CONTINUOUS
 66
     1
 40
0.000000
 41
0.000000
  0
VERTEX
  8
FOREGROUND
  6
CONTINUOUS
 10
0.000000
 20
8.819800
  0
VERTEX
  8
FOREGROUND
  6
CONTINUOUS
 10
8.499920
 20
8.819800
  0
VERTEX
  8
FOREGROUND
  6
CONTINUOUS
 10
8.499920
 20
-2.180200
  0
VERTEX
  8
FOREGROUND
  6
CONTINUOUS
 10
0.000000
 20
-2.180200
  0
VERTEX
  8
FOREGROUND
  6
CONTINUOUS
 10
0.000000
 20
8.819800
  0
SEQEND
  8
0
  0
POLYLINE
  8
0
  6
CONTINUOUS
 66
     1
 40
0.014080
 41
0.014080
  0
VERTEX
  8
0
  6
CONTINUOUS
 10
1.685200
 20
6.890840
  0
VERTEX
  8
0
  6
CONTINUOUS
 10
1.685200
 20
7.640600
  0
VERTEX
  8
0
  6
CONTINUOUS
 10
2.763640
 20
7.640600
  0
VERTEX
  8
0
  6
CONTINUOUS
 10
2.838880
 20
7.542480
  0
VERTEX
  8
0
  6
CONTINUOUS
 10
2.950200
 20
7.542480
  0
VERTEX
  8
0
  6
CONTINUOUS
 10
2.959440
 20
7.557880
  0
VERTEX
  8
0
  6
CONTINUOUS
 10
2.972200
 20
7.571520
  0
VERTEX
  8
0
  6
CONTINUOUS
 10
2.996840
 20
7.587360
  0
VERTEX
  8
0
  6
CONTINUOUS
 10
3.026320
 20
7.598800
  0
VERTEX
  8
0
  6
CONTINUOUS
 10
3.047880
 20
7.603640
  0
VERTEX
  8
0
  6
CONTINUOUS
 10
3.069880
 20
7.606720
  0
VERTEX
  8
0
  6
CONTINUOUS
 10
3.092760
 20
7.607600
  0
VERTEX
  8
0
  6
CONTINUOUS
 10
3.115200
 20
7.606280
  0
VERTEX
  8
0
  6
CONTINUOUS
 10
3.147320
 20
7.600560
  0
VERTEX
  8
0
  6
CONTINUOUS
 10
3.175920
 20
7.590880
  0
VERTEX
  8
0
  6
CONTINUOUS
 10
3.199680
 20
7.576360
  0
VERTEX
  8
0
  6
CONTINUOUS
 10
3.212000
 20
7.564040
  0
VERTEX
  8
0
  6
CONTINUOUS
 10
3.220800
 20
7.550400
  0
VERTEX
  8
0
  6
CONTINUOUS
 10
3.223440
 20
7.542480
  0
VERTEX
  8
0
  6
CONTINUOUS
 10
3.248080
 20
7.542480
  0
VERTEX
  8
0
  6
CONTINUOUS
 10
3.269200
 20
7.570640
  0
VERTEX
  8
0
  6
CONTINUOUS
 10
3.290320
 20
7.590880
  0
VERTEX
  8
0
  6
CONTINUOUS
 10
3.312320
 20
7.604080
  0
VERTEX
  8
0
  6
CONTINUOUS
 10
3.334760
 20
7.611120
  0
VERTEX
  8
0
  6
CONTINUOUS
 10
3.349720
 20
7.612880
  0
VERTEX
  8
0
  6
CONTINUOUS
 10
3.380080
 20
7.609800
  0
VERTEX
  8
0
  6
CONTINUOUS
 10
3.410880
 20
7.599680
  0
VERTEX
  8
0
  6
CONTINUOUS
 10
3.457080
 20
7.576360
  0
VERTEX
  8
0
  6
CONTINUOUS
 10
3.502840
 20
7.548640
  0
VERTEX
  8
0
  6
CONTINUOUS
 10
3.534520
 20
7.535880
  0
VERTEX
  8
0
  6
CONTINUOUS
 10
3.566640
 20
7.527960
  0
VERTEX
  8
0
  6
CONTINUOUS
 10
3.598320
 20
7.523560
  0
VERTEX
  8
0
  6
CONTINUOUS
 10
3.658160
 20
7.522240
  0
VERTEX
  8
0
  6
CONTINUOUS
 10
3.707440
 20
7.522680
  0
VERTEX
  8
0
  6
CONTINUOUS
 10
3.717560
 20
7.521800
  0
VERTEX
  8
0
  6
CONTINUOUS
 10
3.755840
 20
7.505520
  0
VERTEX
  8
0
  6
CONTINUOUS
 10
3.812160
 20
7.487480
  0
VERTEX
  8
0
  6
CONTINUOUS
 10
3.900160
 20
7.466360
  0
VERTEX
  8
0
  6
CONTINUOUS
 10
3.969240
 20
7.454040
  0
VERTEX
  8
0
  6
CONTINUOUS
 10
4.044920
 20
7.444360
  0
VERTEX
  8
0
  6
CONTINUOUS
 10
4.125440
 20
7.437320
  0
VERTEX
  8
0
  6
CONTINUOUS
 10
4.210360
 20
7.435120
  0
VERTEX
  8
0
  6
CONTINUOUS
 10
4.295280
 20
7.437320
  0
VERTEX
  8
0
  6
CONTINUOUS
 10
4.375800
 20
7.444360
  0
VERTEX
  8
0
  6
CONTINUOUS
 10
4.451480
 20
7.454040
  0
VERTEX
  8
0
  6
CONTINUOUS
 10
4.520560
 20
7.466360
  0
VERTEX
  8
0
  6
CONTINUOUS
 10
4.608560
 20
7.487480
  0
VERTEX
  8
0
  6
CONTINUOUS
 10
4.664880
 20
7.505520
  0
VERTEX
  8
0
  6
CONTINUOUS
 10
4.703160
 20
7.521800
  0
VERTEX
  8
0
  6
CONTINUOUS
 10
4.713280
 20
7.522680
  0
VERTEX
  8
0
  6
CONTINUOUS
 10
4.806560
 20
7.522680
  0
VERTEX
  8
0
  6
CONTINUOUS
 10
4.838240
 20
7.525320
  0
VERTEX
  8
0
  6
CONTINUOUS
 10
4.869920
 20
7.531480
  0
VERTEX
  8
0
  6
CONTINUOUS
 10
4.902040
 20
7.541600
  0
VERTEX
  8
0
  6
CONTINUOUS
 10
4.933280
 20
7.557440
  0
VERTEX
  8
0
  6
CONTINUOUS
 10
4.979040
 20
7.584720
  0
VERTEX
  8
0
  6
CONTINUOUS
 10
5.009840
 20
7.599680
  0
VERTEX
  8
0
  6
CONTINUOUS
 10
5.040640
 20
7.609800
  0
VERTEX
  8
0
  6
CONTINUOUS
 10
5.071000
 20
7.612880
  0
VERTEX
  8
0
  6
CONTINUOUS
 10
5.085960
 20
7.611120
  0
VERTEX
  8
0
  6
CONTINUOUS
 10
5.108400
 20
7.604080
  0
VERTEX
  8
0
  6
CONTINUOUS
 10
5.130400
 20
7.590880
  0
VERTEX
  8
0
  6
CONTINUOUS
 10
5.151520
 20
7.570640
  0
VERTEX
  8
0
  6
CONTINUOUS
 10
5.172640
 20
7.542480
  0
VERTEX
  8
0
  6
CONTINUOUS
 10
5.197280
 20
7.542480
  0
VERTEX
  8
0
  6
CONTINUOUS
 10
5.203880
 20
7.557440
  0
VERTEX
  8
0
  6
CONTINUOUS
 10
5.214440
 20
7.570640
  0
VERTEX
  8
0
  6
CONTINUOUS
 10
5.236000
 20
7.586480
  0
VERTEX
  8
0
  6
CONTINUOUS
 10
5.263280
 20
7.597920
  0
VERTEX
  8
0
  6
CONTINUOUS
 10
5.283960
 20
7.603200
  0
VERTEX
  8
0
  6
CONTINUOUS
 10
5.305520
 20
7.606280
  0
VERTEX
  8
0
  6
CONTINUOUS
 10
5.327960
 20
7.607600
  0
VERTEX
  8
0
  6
CONTINUOUS
 10
5.350840
 20
7.606720
  0
VERTEX
  8
0
  6
CONTINUOUS
 10
5.372840
 20
7.603640
  0
VERTEX
  8
0
  6
CONTINUOUS
 10
5.404520
 20
7.595720
  0
VERTEX
  8
0
  6
CONTINUOUS
 10
5.432680
 20
7.582520
  0
VERTEX
  8
0
  6
CONTINUOUS
 10
5.448520
 20
7.571520
  0
VERTEX
  8
0
  6
CONTINUOUS
 10
5.461280
 20
7.557880
  0
VERTEX
  8
0
  6
CONTINUOUS
 10
5.470520
 20
7.542480
  0
VERTEX
  8
0
  6
CONTINUOUS
 10
5.581840
 20
7.542480
  0
VERTEX
  8
0
  6
CONTINUOUS
 10
5.657080
 20
7.640600
  0
VERTEX
  8
0
  6
CONTINUOUS
 10
6.732880
 20
7.640600
  0
VERTEX
  8
0
  6
CONTINUOUS
 10
6.732880
 20
6.890840
  0
VERTEX
  8
0
  6
CONTINUOUS
 10
1.684760
 20
6.890840
  0
VERTEX
  8
0
  6
CONTINUOUS
 10
1.685200
 20
6.890840
  0
SEQEND
  8
0
  0
POLYLINE
  8
0
  6
CONTINUOUS
 66
     1
 40
0.000000
 41
0.000000
  0
VERTEX
  8
0
  6
CONTINUOUS
 10
1.658360
 20
1.171720
  0
VERTEX
  8
0
  6
CONTINUOUS
 10
1.658360
 20
1.921480
  0
VERTEX
  8
0
  6
CONTINUOUS
 10
2.736360
 20
1.921480
  0
VERTEX
  8
0
  6
CONTINUOUS
 10
2.812040
 20
1.823360
  0
VERTEX
  8
0
  6
CONTINUOUS
 10
2.923360
 20
1.823360
  0
VERTEX
  8
0
  6
CONTINUOUS
 10
2.932600
 20
1.838760
  0
VERTEX
  8
0
  6
CONTINUOUS
 10
2.945360
 20
1.852400
  0
VERTEX
  8
0
  6
CONTINUOUS
 10
2.970000
 20
1.868680
  0
VERTEX
  8
0
  6
CONTINUOUS
 10
2.999480
 20
1.879680
  0
VERTEX
  8
0
  6
CONTINUOUS
 10
3.020600
 20
1.884960
  0
VERTEX
  8
0
  6
CONTINUOUS
 10
3.043040
 20
1.887600
  0
VERTEX
  8
0
  6
CONTINUOUS
 10
3.065480
 20
1.888480
  0
VERTEX
  8
0
  6
CONTINUOUS
 10
3.087920
 20
1.887160
  0
VERTEX
  8
0
  6
CONTINUOUS
 10
3.109920
 20
1.884080
  0
VERTEX
  8
0
  6
CONTINUOUS
 10
3.139840
 20
1.875720
  0
VERTEX
  8
0
  6
CONTINUOUS
 10
3.165800
 20
1.862520
  0
VERTEX
  8
0
  6
CONTINUOUS
 10
3.179440
 20
1.851520
  0
VERTEX
  8
0
  6
CONTINUOUS
 10
3.193960
 20
1.831280
  0
VERTEX
  8
0
  6
CONTINUOUS
 10
3.196600
 20
1.823360
  0
VERTEX
  8
0
  6
CONTINUOUS
 10
3.221240
 20
1.823360
  0
VERTEX
  8
0
  6
CONTINUOUS
 10
3.242360
 20
1.851520
  0
VERTEX
  8
0
  6
CONTINUOUS
 10
3.263480
 20
1.871760
  0
VERTEX
  8
0
  6
CONTINUOUS
 10
3.285480
 20
1.885400
  0
VERTEX
  8
0
  6
CONTINUOUS
 10
3.307920
 20
1.892440
  0
VERTEX
  8
0
  6
CONTINUOUS
 10
3.322880
 20
1.893760
  0
VERTEX
  8
0
  6
CONTINUOUS
 10
3.338280
 20
1.893320
  0
VERTEX
  8
0
  6
CONTINUOUS
 10
3.368640
 20
1.886720
  0
VERTEX
  8
0
  6
CONTINUOUS
 10
3.399440
 20
1.873960
  0
VERTEX
  8
0
  6
CONTINUOUS
 10
3.476000
 20
1.829960
  0
VERTEX
  8
0
  6
CONTINUOUS
 10
3.507680
 20
1.816760
  0
VERTEX
  8
0
  6
CONTINUOUS
 10
3.539360
 20
1.808840
  0
VERTEX
  8
0
  6
CONTINUOUS
 10
3.586880
 20
1.803560
  0
VERTEX
  8
0
  6
CONTINUOUS
 10
3.680600
 20
1.803560
  0
VERTEX
  8
0
  6
CONTINUOUS
 10
3.690720
 20
1.802680
  0
VERTEX
  8
0
  6
CONTINUOUS
 10
3.729000
 20
1.786400
  0
VERTEX
  8
0
  6
CONTINUOUS
 10
3.785320
 20
1.768360
  0
VERTEX
  8
0
  6
CONTINUOUS
 10
3.873320
 20
1.747240
  0
VERTEX
  8
0
  6
CONTINUOUS
 10
3.942400
 20
1.734920
  0
VERTEX
  8
0
  6
CONTINUOUS
 10
4.018080
 20
1.725240
  0
VERTEX
  8
0
  6
CONTINUOUS
 10
4.098600
 20
1.718200
  0
VERTEX
  8
0
  6
CONTINUOUS
 10
4.183520
 20
1.716000
  0
VERTEX
  8
0
  6
CONTINUOUS
 10
4.268440
 20
1.718200
  0
VERTEX
  8
0
  6
CONTINUOUS
 10
4.348960
 20
1.725240
  0
VERTEX
  8
0
  6
CONTINUOUS
 10
4.424640
 20
1.734920
  0
VERTEX
  8
0
  6
CONTINUOUS
 10
4.493280
 20
1.747240
  0
VERTEX
  8
0
  6
CONTINUOUS
 10
4.581280
 20
1.768360
  0
VERTEX
  8
0
  6
CONTINUOUS
 10
4.638040
 20
1.786400
  0
VERTEX
  8
0
  6
CONTINUOUS
 10
4.676320
 20
1.802680
  0
VERTEX
  8
0
  6
CONTINUOUS
 10
4.686440
 20
1.803560
  0
VERTEX
  8
0
  6
CONTINUOUS
 10
4.779720
 20
1.803560
  0
VERTEX
  8
0
  6
CONTINUOUS
 10
4.827240
 20
1.808840
  0
VERTEX
  8
0
  6
CONTINUOUS
 10
4.858920
 20
1.816760
  0
VERTEX
  8
0
  6
CONTINUOUS
 10
4.890600
 20
1.829960
  0
VERTEX
  8
0
  6
CONTINUOUS
 10
4.967600
 20
1.873960
  0
VERTEX
  8
0
  6
CONTINUOUS
 10
4.998400
 20
1.886720
  0
VERTEX
  8
0
  6
CONTINUOUS
 10
5.028760
 20
1.893320
  0
VERTEX
  8
0
  6
CONTINUOUS
 10
5.044160
 20
1.893760
  0
VERTEX
  8
0
  6
CONTINUOUS
 10
5.059120
 20
1.892440
  0
VERTEX
  8
0
  6
CONTINUOUS
 10
5.081560
 20
1.885400
  0
VERTEX
  8
0
  6
CONTINUOUS
 10
5.103560
 20
1.871760
  0
VERTEX
  8
0
  6
CONTINUOUS
 10
5.124680
 20
1.851520
  0
VERTEX
  8
0
  6
CONTINUOUS
 10
5.145800
 20
1.823360
  0
VERTEX
  8
0
  6
CONTINUOUS
 10
5.170000
 20
1.823360
  0
VERTEX
  8
0
  6
CONTINUOUS
 10
5.176600
 20
1.838320
  0
VERTEX
  8
0
  6
CONTINUOUS
 10
5.187160
 20
1.851520
  0
VERTEX
  8
0
  6
CONTINUOUS
 10
5.200800
 20
1.862520
  0
VERTEX
  8
0
  6
CONTINUOUS
 10
5.226760
 20
1.875720
  0
VERTEX
  8
0
  6
CONTINUOUS
 10
5.257120
 20
1.884080
  0
VERTEX
  8
0
  6
CONTINUOUS
 10
5.278680
 20
1.887160
  0
VERTEX
  8
0
  6
CONTINUOUS
 10
5.301120
 20
1.888480
  0
VERTEX
  8
0
  6
CONTINUOUS
 10
5.324000
 20
1.887600
  0
VERTEX
  8
0
  6
CONTINUOUS
 10
5.346000
 20
1.884960
  0
VERTEX
  8
0
  6
CONTINUOUS
 10
5.377680
 20
1.876600
  0
VERTEX
  8
0
  6
CONTINUOUS
 10
5.405840
 20
1.863840
  0
VERTEX
  8
0
  6
CONTINUOUS
 10
5.421680
 20
1.852400
  0
VERTEX
  8
0
  6
CONTINUOUS
 10
5.434440
 20
1.838760
  0
VERTEX
  8
0
  6
CONTINUOUS
 10
5.443680
 20
1.823360
  0
VERTEX
  8
0
  6
CONTINUOUS
 10
5.555000
 20
1.823360
  0
VERTEX
  8
0
  6
CONTINUOUS
 10
5.630240
 20
1.921480
  0
VERTEX
  8
0
  6
CONTINUOUS
 10
6.705600
 20
1.921480
  0
VERTEX
  8
0
  6
CONTINUOUS
 10
6.705600
 20
1.171720
  0
VERTEX
  8
0
  6
CONTINUOUS
 10
1.657920
 20
1.171720
  0
VERTEX
  8
0
  6
CONTINUOUS
 10
1.658360
 20
1.171720
  0
SEQEND
  8
0
  0
POLYLINE
  8
0
  6
CONTINUOUS
 66
     1
 40
0.000000
 41
0.000000
  0
VERTEX
  8
0
  6
CONTINUOUS
 10
1.658360
 20
2.488200
  0
VERTEX
  8
0
  6
CONTINUOUS
 10
1.658360
 20
3.237960
  0
VERTEX
  8
0
  6
CONTINUOUS
 10
2.736360
 20
3.237960
  0
VERTEX
  8
0
  6
CONTINUOUS
 10
2.812040
 20
3.139840
  0
VERTEX
  8
0
  6
CONTINUOUS
 10
2.923360
 20
3.139840
  0
VERTEX
  8
0
  6
CONTINUOUS
 10
2.932600
 20
3.155240
  0
VERTEX
  8
0
  6
CONTINUOUS
 10
2.945360
 20
3.168880
  0
VERTEX
  8
0
  6
CONTINUOUS
 10
2.970000
 20
3.185160
  0
VERTEX
  8
0
  6
CONTINUOUS
 10
2.999480
 20
3.196160
  0
VERTEX
  8
0
  6
CONTINUOUS
 10
3.020600
 20
3.201440
  0
VERTEX
  8
0
  6
CONTINUOUS
 10
3.043040
 20
3.204080
  0
VERTEX
  8
0
  6
CONTINUOUS
 10
3.065480
 20
3.204960
  0
VERTEX
  8
0
  6
CONTINUOUS
 10
3.087920
 20
3.203640
  0
VERTEX
  8
0
  6
CONTINUOUS
 10
3.109920
 20
3.200560
  0
VERTEX
  8
0
  6
CONTINUOUS
 10
3.139840
 20
3.192200
  0
VERTEX
  8
0
  6
CONTINUOUS
 10
3.165800
 20
3.179000
  0
VERTEX
  8
0
  6
CONTINUOUS
 10
3.179440
 20
3.168000
  0
VERTEX
  8
0
  6
CONTINUOUS
 10
3.193960
 20
3.147760
  0
VERTEX
  8
0
  6
CONTINUOUS
 10
3.196600
 20
3.139840
  0
VERTEX
  8
0
  6
CONTINUOUS
 10
3.221240
 20
3.139840
  0
VERTEX
  8
0
  6
CONTINUOUS
 10
3.242360
 20
3.168000
  0
VERTEX
  8
0
  6
CONTINUOUS
 10
3.263480
 20
3.188240
  0
VERTEX
  8
0
  6
CONTINUOUS
 10
3.285480
 20
3.201880
  0
VERTEX
  8
0
  6
CONTINUOUS
 10
3.307920
 20
3.208480
  0
VERTEX
  8
0
  6
CONTINUOUS
 10
3.322880
 20
3.210240
  0
VERTEX
  8
0
  6
CONTINUOUS
 10
3.338280
 20
3.209800
  0
VERTEX
  8
0
  6
CONTINUOUS
 10
3.353240
 20
3.207160
  0
VERTEX
  8
0
  6
CONTINUOUS
 10
3.384040
 20
3.197040
  0
VERTEX
  8
0
  6
CONTINUOUS
 10
3.430240
 20
3.173720
  0
VERTEX
  8
0
  6
CONTINUOUS
 10
3.476000
 20
3.146000
  0
VERTEX
  8
0
  6
CONTINUOUS
 10
3.507680
 20
3.133240
  0
VERTEX
  8
0
  6
CONTINUOUS
 10
3.539360
 20
3.125320
  0
VERTEX
  8
0
  6
CONTINUOUS
 10
3.571480
 20
3.120920
  0
VERTEX
  8
0
  6
CONTINUOUS
 10
3.630880
 20
3.119600
  0
VERTEX
  8
0
  6
CONTINUOUS
 10
3.680600
 20
3.120040
  0
VERTEX
  8
0
  6
CONTINUOUS
 10
3.690720
 20
3.119160
  0
VERTEX
  8
0
  6
CONTINUOUS
 10
3.729000
 20
3.102880
  0
VERTEX
  8
0
  6
CONTINUOUS
 10
3.785320
 20
3.084840
  0
VERTEX
  8
0
  6
CONTINUOUS
 10
3.873320
 20
3.063720
  0
VERTEX
  8
0
  6
CONTINUOUS
 10
3.942400
 20
3.051400
  0
VERTEX
  8
0
  6
CONTINUOUS
 10
4.018080
 20
3.041720
  0
VERTEX
  8
0
  6
CONTINUOUS
 10
4.098600
 20
3.034680
  0
VERTEX
  8
0
  6
CONTINUOUS
 10
4.183520
 20
3.032480
  0
VERTEX
  8
0
  6
CONTINUOUS
 10
4.268440
 20
3.034680
  0
VERTEX
  8
0
  6
CONTINUOUS
 10
4.348960
 20
3.041720
  0
VERTEX
  8
0
  6
CONTINUOUS
 10
4.424640
 20
3.051400
  0
VERTEX
  8
0
  6
CONTINUOUS
 10
4.493280
 20
3.063720
  0
VERTEX
  8
0
  6
CONTINUOUS
 10
4.581280
 20
3.084840
  0
VERTEX
  8
0
  6
CONTINUOUS
 10
4.638040
 20
3.102880
  0
VERTEX
  8
0
  6
CONTINUOUS
 10
4.676320
 20
3.119160
  0
VERTEX
  8
0
  6
CONTINUOUS
 10
4.686440
 20
3.120040
  0
VERTEX
  8
0
  6
CONTINUOUS
 10
4.779720
 20
3.120040
  0
VERTEX
  8
0
  6
CONTINUOUS
 10
4.810960
 20
3.122680
  0
VERTEX
  8
0
  6
CONTINUOUS
 10
4.843080
 20
3.128840
  0
VERTEX
  8
0
  6
CONTINUOUS
 10
4.874760
 20
3.138960
  0
VERTEX
  8
0
  6
CONTINUOUS
 10
4.906000
 20
3.154800
  0
VERTEX
  8
0
  6
CONTINUOUS
 10
4.952200
 20
3.182080
  0
VERTEX
  8
0
  6
CONTINUOUS
 10
4.983000
 20
3.197040
  0
VERTEX
  8
0
  6
CONTINUOUS
 10
5.013800
 20
3.207160
  0
VERTEX
  8
0
  6
CONTINUOUS
 10
5.028760
 20
3.209800
  0
VERTEX
  8
0
  6
CONTINUOUS
 10
5.044160
 20
3.210240
  0
VERTEX
  8
0
  6
CONTINUOUS
 10
5.059120
 20
3.208480
  0
VERTEX
  8
0
  6
CONTINUOUS
 10
5.081560
 20
3.201880
  0
VERTEX
  8
0
  6
CONTINUOUS
 10
5.103560
 20
3.188240
  0
VERTEX
  8
0
  6
CONTINUOUS
 10
5.124680
 20
3.168000
  0
VERTEX
  8
0
  6
CONTINUOUS
 10
5.145800
 20
3.139840
  0
VERTEX
  8
0
  6
CONTINUOUS
 10
5.170000
 20
3.139840
  0
VERTEX
  8
0
  6
CONTINUOUS
 10
5.176600
 20
3.154800
  0
VERTEX
  8
0
  6
CONTINUOUS
 10
5.187160
 20
3.168000
  0
VERTEX
  8
0
  6
CONTINUOUS
 10
5.200800
 20
3.179000
  0
VERTEX
  8
0
  6
CONTINUOUS
 10
5.226760
 20
3.192200
  0
VERTEX
  8
0
  6
CONTINUOUS
 10
5.257120
 20
3.200560
  0
VERTEX
  8
0
  6
CONTINUOUS
 10
5.278680
 20
3.203640
  0
VERTEX
  8
0
  6
CONTINUOUS
 10
5.301120
 20
3.204960
  0
VERTEX
  8
0
  6
CONTINUOUS
 10
5.324000
 20
3.204080
  0
VERTEX
  8
0
  6
CONTINUOUS
 10
5.346000
 20
3.201440
  0
VERTEX
  8
0
  6
CONTINUOUS
 10
5.377680
 20
3.193080
  0
VERTEX
  8
0
  6
CONTINUOUS
 10
5.405840
 20
3.180320
  0
VERTEX
  8
0
  6
CONTINUOUS
 10
5.421680
 20
3.168880
  0
VERTEX
  8
0
  6
CONTINUOUS
 10
5.434440
 20
3.155240
  0
VERTEX
  8
0
  6
CONTINUOUS
 10
5.443680
 20
3.139840
  0
VERTEX
  8
0
  6
CONTINUOUS
 10
5.555000
 20
3.139840
  0
VERTEX
  8
0
  6
CONTINUOUS
 10
5.630240
 20
3.237960
  0
VERTEX
  8
0
  6
CONTINUOUS
 10
6.705600
 20
3.237960
  0
VERTEX
  8
0
  6
CONTINUOUS
 10
6.705600
 20
2.488200
  0
VERTEX
  8
0
  6
CONTINUOUS
 10
1.657920
 20
2.488200
  0
VERTEX
  8
0
  6
CONTINUOUS
 10
1.658360
 20
2.488200
  0
SEQEND
  8
0
  0
SOLID
  8
0
 62
    15
 10
4.294400
 20
4.876960
 11
4.296600
 21
5.622760
 12
4.374920
 22
4.883560
 13
4.377120
 23
5.629360
  0
POLYLINE
  8
0
  6
CONTINUOUS
 66
     1
 40
0.000000
 41
0.000000
  0
VERTEX
  8
0
  6
CONTINUOUS
 10
4.294400
 20
4.876960
  0
VERTEX
  8
0
  6
CONTINUOUS
 10
4.296600
 20
5.622760
  0
VERTEX
  8
0
  6
CONTINUOUS
 10
4.377120
 20
5.629360
  0
VERTEX
  8
0
  6
CONTINUOUS
 10
4.374920
 20
4.883560
  0
VERTEX
  8
0
  6
CONTINUOUS
 10
4.294400
 20
4.876960
  0
SEQEND
  8
0
  0
SOLID
  8
0
 62
    15
 10
2.762760
 20
5.080240
 11
2.764960
 21
5.825600
 12
2.838000
 22
4.982120
 13
2.840200
 23
5.727920
  0
POLYLINE
  8
0
  6
CONTINUOUS
 66
     1
 40
0.000000
 41
0.000000
  0
VERTEX
  8
0
  6
CONTINUOUS
 10
2.762760
 20
5.080240
  0
VERTEX
  8
0
  6
CONTINUOUS
 10
2.764960
 20
5.825600
  0
VERTEX
  8
0
  6
CONTINUOUS
 10
2.840200
 20
5.727920
  0
VERTEX
  8
0
  6
CONTINUOUS
 10
2.838000
 20
4.982120
  0
VERTEX
  8
0
  6
CONTINUOUS
 10
2.762760
 20
5.080240
  0
SEQEND
  8
0
  0
SOLID
  8
0
 62
    15
 10
2.838000
 20
4.982120
 11
2.840200
 21
5.727920
 12
2.949320
 22
4.982120
 13
2.951520
 23
5.727920
  0
POLYLINE
  8
0
  6
CONTINUOUS
 66
     1
 40
0.000000
 41
0.000000
  0
VERTEX
  8
0
  6
CONTINUOUS
 10
2.838000
 20
4.982120
  0
VERTEX
  8
0
  6
CONTINUOUS
 10
2.840200
 20
5.727920
  0
VERTEX
  8
0
  6
CONTINUOUS
 10
2.951520
 20
5.727920
  0
VERTEX
  8
0
  6
CONTINUOUS
 10
2.949320
 20
4.982120
  0
VERTEX
  8
0
  6
CONTINUOUS
 10
2.838000
 20
4.982120
  0
SEQEND
  8
0
  0
SOLID
  8
0
 62
    15
 10
2.949320
 20
4.982120
 11
2.951520
 21
5.727920
 12
2.958560
 22
4.997520
 13
2.960760
 23
5.743320
  0
POLYLINE
  8
0
  6
CONTINUOUS
 66
     1
 40
0.000000
 41
0.000000
  0
VERTEX
  8
0
  6
CONTINUOUS
 10
2.949320
 20
4.982120
  0
VERTEX
  8
0
  6
CONTINUOUS
 10
2.951520
 20
5.727920
  0
VERTEX
  8
0
  6
CONTINUOUS
 10
2.960760
 20
5.743320
  0
VERTEX
  8
0
  6
CONTINUOUS
 10
2.958560
 20
4.997520
  0
VERTEX
  8
0
  6
CONTINUOUS
 10
2.949320
 20
4.982120
  0
SEQEND
  8
0
  0
SOLID
  8
0
 62
    15
 10
2.958560
 20
4.997520
 11
2.960760
 21
5.743320
 12
2.971320
 22
5.010720
 13
2.973520
 23
5.756520
  0
POLYLINE
  8
0
  6
CONTINUOUS
 66
     1
 40
0.000000
 41
0.000000
  0
VERTEX
  8
0
  6
CONTINUOUS
 10
2.958560
 20
4.997520
  0
VERTEX
  8
0
  6
CONTINUOUS
 10
2.960760
 20
5.743320
  0
VERTEX
  8
0
  6
CONTINUOUS
 10
2.973520
 20
5.756520
  0
VERTEX
  8
0
  6
CONTINUOUS
 10
2.971320
 20
5.010720
  0
VERTEX
  8
0
  6
CONTINUOUS
 10
2.958560
 20
4.997520
  0
SEQEND
  8
0
  0
SOLID
  8
0
 62
    15
 10
2.971320
 20
5.010720
 11
2.973520
 21
5.756520
 12
3.005200
 22
5.031400
 13
3.007400
 23
5.777200
  0
POLYLINE
  8
0
  6
CONTINUOUS
 66
     1
 40
0.000000
 41
0.000000
  0
VERTEX
  8
0
  6
CONTINUOUS
 10
2.971320
 20
5.010720
  0
VERTEX
  8
0
  6
CONTINUOUS
 10
2.973520
 20
5.756520
  0
VERTEX
  8
0
  6
CONTINUOUS
 10
3.007400
 20
5.777200
  0
VERTEX
  8
0
  6
CONTINUOUS
 10
3.005200
 20
5.031400
  0
VERTEX
  8
0
  6
CONTINUOUS
 10
2.971320
 20
5.010720
  0
SEQEND
  8
0
  0
SOLID
  8
0
 62
    15
 10
3.005200
 20
5.031400
 11
3.007400
 21
5.777200
 12
3.046560
 22
5.043280
 13
3.048760
 23
5.789080
  0
POLYLINE
  8
0
  6
CONTINUOUS
 66
     1
 40
0.000000
 41
0.000000
  0
VERTEX
  8
0
  6
CONTINUOUS
 10
3.005200
 20
5.031400
  0
VERTEX
  8
0
  6
CONTINUOUS
 10
3.007400
 20
5.777200
  0
VERTEX
  8
0
  6
CONTINUOUS
 10
3.048760
 20
5.789080
  0
VERTEX
  8
0
  6
CONTINUOUS
 10
3.046560
 20
5.043280
  0
VERTEX
  8
0
  6
CONTINUOUS
 10
3.005200
 20
5.031400
  0
SEQEND
  8
0
  0
SOLID
  8
0
 62
    15
 10
3.046560
 20
5.043280
 11
3.048760
 21
5.789080
 12
3.091440
 22
5.046800
 13
3.093640
 23
5.792600
  0
POLYLINE
  8
0
  6
CONTINUOUS
 66
     1
 40
0.000000
 41
0.000000
  0
VERTEX
  8
0
  6
CONTINUOUS
 10
3.046560
 20
5.043280
  0
VERTEX
  8
0
  6
CONTINUOUS
 10
3.048760
 20
5.789080
  0
VERTEX
  8
0
  6
CONTINUOUS
 10
3.093640
 20
5.792600
  0
VERTEX
  8
0
  6
CONTINUOUS
 10
3.091440
 20
5.046800
  0
VERTEX
  8
0
  6
CONTINUOUS
 10
3.046560
 20
5.043280
  0
SEQEND
  8
0
  0
SOLID
  8
0
 62
    15
 10
3.091440
 20
5.046800
 11
3.093640
 21
5.792600
 12
3.135880
 22
5.042840
 13
3.138080
 23
5.788200
  0
POLYLINE
  8
0
  6
CONTINUOUS
 66
     1
 40
0.000000
 41
0.000000
  0
VERTEX
  8
0
  6
CONTINUOUS
 10
3.091440
 20
5.046800
  0
VERTEX
  8
0
  6
CONTINUOUS
 10
3.093640
 20
5.792600
  0
VERTEX
  8
0
  6
CONTINUOUS
 10
3.138080
 20
5.788200
  0
VERTEX
  8
0
  6
CONTINUOUS
 10
3.135880
 20
5.042840
  0
VERTEX
  8
0
  6
CONTINUOUS
 10
3.091440
 20
5.046800
  0
SEQEND
  8
0
  0
SOLID
  8
0
 62
    15
 10
3.135880
 20
5.042840
 11
3.138080
 21
5.788200
 12
3.175040
 22
5.030080
 13
3.177240
 23
5.775880
  0
POLYLINE
  8
0
  6
CONTINUOUS
 66
     1
 40
0.000000
 41
0.000000
  0
VERTEX
  8
0
  6
CONTINUOUS
 10
3.135880
 20
5.042840
  0
VERTEX
  8
0
  6
CONTINUOUS
 10
3.138080
 20
5.788200
  0
VERTEX
  8
0
  6
CONTINUOUS
 10
3.177240
 20
5.775880
  0
VERTEX
  8
0
  6
CONTINUOUS
 10
3.175040
 20
5.030080
  0
VERTEX
  8
0
  6
CONTINUOUS
 10
3.135880
 20
5.042840
  0
SEQEND
  8
0
  0
SOLID
  8
0
 62
    15
 10
3.175040
 20
5.030080
 11
3.177240
 21
5.775880
 12
3.205400
 22
5.009840
 13
3.207600
 23
5.755640
  0
POLYLINE
  8
0
  6
CONTINUOUS
 66
     1
 40
0.000000
 41
0.000000
  0
VERTEX
  8
0
  6
CONTINUOUS
 10
3.175040
 20
5.030080
  0
VERTEX
  8
0
  6
CONTINUOUS
 10
3.177240
 20
5.775880
  0
VERTEX
  8
0
  6
CONTINUOUS
 10
3.207600
 20
5.755640
  0
VERTEX
  8
0
  6
CONTINUOUS
 10
3.205400
 20
5.009840
  0
VERTEX
  8
0
  6
CONTINUOUS
 10
3.175040
 20
5.030080
  0
SEQEND
  8
0
  0
SOLID
  8
0
 62
    15
 10
3.205400
 20
5.009840
 11
3.207600
 21
5.755640
 12
3.215960
 22
4.997080
 13
3.218160
 23
5.742880
  0
POLYLINE
  8
0
  6
CONTINUOUS
 66
     1
 40
0.000000
 41
0.000000
  0
VERTEX
  8
0
  6
CONTINUOUS
 10
3.205400
 20
5.009840
  0
VERTEX
  8
0
  6
CONTINUOUS
 10
3.207600
 20
5.755640
  0
VERTEX
  8
0
  6
CONTINUOUS
 10
3.218160
 20
5.742880
  0
VERTEX
  8
0
  6
CONTINUOUS
 10
3.215960
 20
4.997080
  0
VERTEX
  8
0
  6
CONTINUOUS
 10
3.205400
 20
5.009840
  0
SEQEND
  8
0
  0
SOLID
  8
0
 62
    15
 10
3.215960
 20
4.997080
 11
3.218160
 21
5.742880
 12
3.222560
 22
4.982120
 13
3.224760
 23
5.727920
  0
POLYLINE
  8
0
  6
CONTINUOUS
 66
     1
 40
0.000000
 41
0.000000
  0
VERTEX
  8
0
  6
CONTINUOUS
 10
3.215960
 20
4.997080
  0
VERTEX
  8
0
  6
CONTINUOUS
 10
3.218160
 20
5.742880
  0
VERTEX
  8
0
  6
CONTINUOUS
 10
3.224760
 20
5.727920
  0
VERTEX
  8
0
  6
CONTINUOUS
 10
3.222560
 20
4.982120
  0
VERTEX
  8
0
  6
CONTINUOUS
 10
3.215960
 20
4.997080
  0
SEQEND
  8
0
  0
SOLID
  8
0
 62
    15
 10
3.222560
 20
4.982120
 11
3.224760
 21
5.727920
 12
3.247200
 22
4.982120
 13
3.249400
 23
5.727920
  0
POLYLINE
  8
0
  6
CONTINUOUS
 66
     1
 40
0.000000
 41
0.000000
  0
VERTEX
  8
0
  6
CONTINUOUS
 10
3.222560
 20
4.982120
  0
VERTEX
  8
0
  6
CONTINUOUS
 10
3.224760
 20
5.727920
  0
VERTEX
  8
0
  6
CONTINUOUS
 10
3.249400
 20
5.727920
  0
VERTEX
  8
0
  6
CONTINUOUS
 10
3.247200
 20
4.982120
  0
VERTEX
  8
0
  6
CONTINUOUS
 10
3.222560
 20
4.982120
  0
SEQEND
  8
0
  0
SOLID
  8
0
 62
    15
 10
3.247200
 20
4.982120
 11
3.249400
 21
5.727920
 12
3.275360
 22
5.017760
 13
3.277560
 23
5.763560
  0
POLYLINE
  8
0
  6
CONTINUOUS
 66
     1
 40
0.000000
 41
0.000000
  0
VERTEX
  8
0
  6
CONTINUOUS
 10
3.247200
 20
4.982120
  0
VERTEX
  8
0
  6
CONTINUOUS
 10
3.249400
 20
5.727920
  0
VERTEX
  8
0
  6
CONTINUOUS
 10
3.277560
 20
5.763560
  0
VERTEX
  8
0
  6
CONTINUOUS
 10
3.275360
 20
5.017760
  0
VERTEX
  8
0
  6
CONTINUOUS
 10
3.247200
 20
4.982120
  0
SEQEND
  8
0
  0
SOLID
  8
0
 62
    15
 10
3.275360
 20
5.017760
 11
3.277560
 21
5.763560
 12
3.303960
 22
5.040200
 13
3.306600
 23
5.786000
  0
POLYLINE
  8
0
  6
CONTINUOUS
 66
     1
 40
0.000000
 41
0.000000
  0
VERTEX
  8
0
  6
CONTINUOUS
 10
3.275360
 20
5.017760
  0
VERTEX
  8
0
  6
CONTINUOUS
 10
3.277560
 20
5.763560
  0
VERTEX
  8
0
  6
CONTINUOUS
 10
3.306600
 20
5.786000
  0
VERTEX
  8
0
  6
CONTINUOUS
 10
3.303960
 20
5.040200
  0
VERTEX
  8
0
  6
CONTINUOUS
 10
3.275360
 20
5.017760
  0
SEQEND
  8
0
  0
SOLID
  8
0
 62
    15
 10
3.303960
 20
5.040200
 11
3.306600
 21
5.786000
 12
3.333880
 22
5.050760
 13
3.336080
 23
5.796560
  0
POLYLINE
  8
0
  6
CONTINUOUS
 66
     1
 40
0.000000
 41
0.000000
  0
VERTEX
  8
0
  6
CONTINUOUS
 10
3.303960
 20
5.040200
  0
VERTEX
  8
0
  6
CONTINUOUS
 10
3.306600
 20
5.786000
  0
VERTEX
  8
0
  6
CONTINUOUS
 10
3.336080
 20
5.796560
  0
VERTEX
  8
0
  6
CONTINUOUS
 10
3.333880
 20
5.050760
  0
VERTEX
  8
0
  6
CONTINUOUS
 10
3.303960
 20
5.040200
  0
SEQEND
  8
0
  0
SOLID
  8
0
 62
    15
 10
3.333880
 20
5.050760
 11
3.336080
 21
5.796560
 12
3.364240
 22
5.051640
 13
3.366440
 23
5.797440
  0
POLYLINE
  8
0
  6
CONTINUOUS
 66
     1
 40
0.000000
 41
0.000000
  0
VERTEX
  8
0
  6
CONTINUOUS
 10
3.333880
 20
5.050760
  0
VERTEX
  8
0
  6
CONTINUOUS
 10
3.336080
 20
5.796560
  0
VERTEX
  8
0
  6
CONTINUOUS
 10
3.366440
 20
5.797440
  0
VERTEX
  8
0
  6
CONTINUOUS
 10
3.364240
 20
5.051640
  0
VERTEX
  8
0
  6
CONTINUOUS
 10
3.333880
 20
5.050760
  0
SEQEND
  8
0
  0
SOLID
  8
0
 62
    15
 10
3.364240
 20
5.051640
 11
3.366440
 21
5.797440
 12
3.394600
 22
5.045040
 13
3.396800
 23
5.790840
  0
POLYLINE
  8
0
  6
CONTINUOUS
 66
     1
 40
0.000000
 41
0.000000
  0
VERTEX
  8
0
  6
CONTINUOUS
 10
3.364240
 20
5.051640
  0
VERTEX
  8
0
  6
CONTINUOUS
 10
3.366440
 20
5.797440
  0
VERTEX
  8
0
  6
CONTINUOUS
 10
3.396800
 20
5.790840
  0
VERTEX
  8
0
  6
CONTINUOUS
 10
3.394600
 20
5.045040
  0
VERTEX
  8
0
  6
CONTINUOUS
 10
3.364240
 20
5.051640
  0
SEQEND
  8
0
  0
SOLID
  8
0
 62
    15
 10
3.394600
 20
5.045040
 11
3.396800
 21
5.790840
 12
3.425400
 22
5.032280
 13
3.427600
 23
5.778080
  0
POLYLINE
  8
0
  6
CONTINUOUS
 66
     1
 40
0.000000
 41
0.000000
  0
VERTEX
  8
0
  6
CONTINUOUS
 10
3.394600
 20
5.045040
  0
VERTEX
  8
0
  6
CONTINUOUS
 10
3.396800
 20
5.790840
  0
VERTEX
  8
0
  6
CONTINUOUS
 10
3.427600
 20
5.778080
  0
VERTEX
  8
0
  6
CONTINUOUS
 10
3.425400
 20
5.032280
  0
VERTEX
  8
0
  6
CONTINUOUS
 10
3.394600
 20
5.045040
  0
SEQEND
  8
0
  0
SOLID
  8
0
 62
    15
 10
3.425400
 20
5.032280
 11
3.427600
 21
5.778080
 12
3.486560
 22
4.997080
 13
3.488760
 23
5.742880
  0
POLYLINE
  8
0
  6
CONTINUOUS
 66
     1
 40
0.000000
 41
0.000000
  0
VERTEX
  8
0
  6
CONTINUOUS
 10
3.425400
 20
5.032280
  0
VERTEX
  8
0
  6
CONTINUOUS
 10
3.427600
 20
5.778080
  0
VERTEX
  8
0
  6
CONTINUOUS
 10
3.488760
 20
5.742880
  0
VERTEX
  8
0
  6
CONTINUOUS
 10
3.486560
 20
4.997080
  0
VERTEX
  8
0
  6
CONTINUOUS
 10
3.425400
 20
5.032280
  0
SEQEND
  8
0
  0
SOLID
  8
0
 62
    15
 10
3.486560
 20
4.997080
 11
3.488760
 21
5.742880
 12
3.517800
 22
4.981240
 13
3.520000
 23
5.727040
  0
POLYLINE
  8
0
  6
CONTINUOUS
 66
     1
 40
0.000000
 41
0.000000
  0
VERTEX
  8
0
  6
CONTINUOUS
 10
3.486560
 20
4.997080
  0
VERTEX
  8
0
  6
CONTINUOUS
 10
3.488760
 20
5.742880
  0
VERTEX
  8
0
  6
CONTINUOUS
 10
3.520000
 20
5.727040
  0
VERTEX
  8
0
  6
CONTINUOUS
 10
3.517800
 20
4.981240
  0
VERTEX
  8
0
  6
CONTINUOUS
 10
3.486560
 20
4.997080
  0
SEQEND
  8
0
  0
SOLID
  8
0
 62
    15
 10
3.517800
 20
4.981240
 11
3.520000
 21
5.727040
 12
3.549480
 22
4.970680
 13
3.551680
 23
5.716480
  0
POLYLINE
  8
0
  6
CONTINUOUS
 66
     1
 40
0.000000
 41
0.000000
  0
VERTEX
  8
0
  6
CONTINUOUS
 10
3.517800
 20
4.981240
  0
VERTEX
  8
0
  6
CONTINUOUS
 10
3.520000
 20
5.727040
  0
VERTEX
  8
0
  6
CONTINUOUS
 10
3.551680
 20
5.716480
  0
VERTEX
  8
0
  6
CONTINUOUS
 10
3.549480
 20
4.970680
  0
VERTEX
  8
0
  6
CONTINUOUS
 10
3.517800
 20
4.981240
  0
SEQEND
  8
0
  0
SOLID
  8
0
 62
    15
 10
3.549480
 20
4.970680
 11
3.551680
 21
5.716480
 12
3.612840
 22
4.962320
 13
3.615040
 23
5.708120
  0
POLYLINE
  8
0
  6
CONTINUOUS
 66
     1
 40
0.000000
 41
0.000000
  0
VERTEX
  8
0
  6
CONTINUOUS
 10
3.549480
 20
4.970680
  0
VERTEX
  8
0
  6
CONTINUOUS
 10
3.551680
 20
5.716480
  0
VERTEX
  8
0
  6
CONTINUOUS
 10
3.615040
 20
5.708120
  0
VERTEX
  8
0
  6
CONTINUOUS
 10
3.612840
 20
4.962320
  0
VERTEX
  8
0
  6
CONTINUOUS
 10
3.549480
 20
4.970680
  0
SEQEND
  8
0
  0
SOLID
  8
0
 62
    15
 10
3.612840
 20
4.962320
 11
3.615040
 21
5.708120
 12
3.642760
 22
4.961440
 13
3.644960
 23
5.707240
  0
POLYLINE
  8
0
  6
CONTINUOUS
 66
     1
 40
0.000000
 41
0.000000
  0
VERTEX
  8
0
  6
CONTINUOUS
 10
3.612840
 20
4.962320
  0
VERTEX
  8
0
  6
CONTINUOUS
 10
3.615040
 20
5.708120
  0
VERTEX
  8
0
  6
CONTINUOUS
 10
3.644960
 20
5.707240
  0
VERTEX
  8
0
  6
CONTINUOUS
 10
3.642760
 20
4.961440
  0
VERTEX
  8
0
  6
CONTINUOUS
 10
3.612840
 20
4.962320
  0
SEQEND
  8
0
  0
SOLID
  8
0
 62
    15
 10
3.642760
 20
4.961440
 11
3.644960
 21
5.707240
 12
3.657280
 22
4.961880
 13
3.659480
 23
5.707680
  0
POLYLINE
  8
0
  6
CONTINUOUS
 66
     1
 40
0.000000
 41
0.000000
  0
VERTEX
  8
0
  6
CONTINUOUS
 10
3.642760
 20
4.961440
  0
VERTEX
  8
0
  6
CONTINUOUS
 10
3.644960
 20
5.707240
  0
VERTEX
  8
0
  6
CONTINUOUS
 10
3.659480
 20
5.707680
  0
VERTEX
  8
0
  6
CONTINUOUS
 10
3.657280
 20
4.961880
  0
VERTEX
  8
0
  6
CONTINUOUS
 10
3.642760
 20
4.961440
  0
SEQEND
  8
0
  0
SOLID
  8
0
 62
    15
 10
3.657280
 20
4.961880
 11
3.659480
 21
5.707680
 12
3.670480
 22
4.961880
 13
3.673120
 23
5.707680
  0
POLYLINE
  8
0
  6
CONTINUOUS
 66
     1
 40
0.000000
 41
0.000000
  0
VERTEX
  8
0
  6
CONTINUOUS
 10
3.657280
 20
4.961880
  0
VERTEX
  8
0
  6
CONTINUOUS
 10
3.659480
 20
5.707680
  0
VERTEX
  8
0
  6
CONTINUOUS
 10
3.673120
 20
5.707680
  0
VERTEX
  8
0
  6
CONTINUOUS
 10
3.670480
 20
4.961880
  0
VERTEX
  8
0
  6
CONTINUOUS
 10
3.657280
 20
4.961880
  0
SEQEND
  8
0
  0
SOLID
  8
0
 62
    15
 10
3.670480
 20
4.961880
 11
3.673120
 21
5.707680
 12
3.695560
 22
4.962320
 13
3.697760
 23
5.708120
  0
POLYLINE
  8
0
  6
CONTINUOUS
 66
     1
 40
0.000000
 41
0.000000
  0
VERTEX
  8
0
  6
CONTINUOUS
 10
3.670480
 20
4.961880
  0
VERTEX
  8
0
  6
CONTINUOUS
 10
3.673120
 20
5.707680
  0
VERTEX
  8
0
  6
CONTINUOUS
 10
3.697760
 20
5.708120
  0
VERTEX
  8
0
  6
CONTINUOUS
 10
3.695560
 20
4.962320
  0
VERTEX
  8
0
  6
CONTINUOUS
 10
3.670480
 20
4.961880
  0
SEQEND
  8
0
  0
SOLID
  8
0
 62
    15
 10
3.695560
 20
4.962320
 11
3.697760
 21
5.708120
 12
3.716680
 22
4.961440
 13
3.718880
 23
5.706800
  0
POLYLINE
  8
0
  6
CONTINUOUS
 66
     1
 40
0.000000
 41
0.000000
  0
VERTEX
  8
0
  6
CONTINUOUS
 10
3.695560
 20
4.962320
  0
VERTEX
  8
0
  6
CONTINUOUS
 10
3.697760
 20
5.708120
  0
VERTEX
  8
0
  6
CONTINUOUS
 10
3.718880
 20
5.706800
  0
VERTEX
  8
0
  6
CONTINUOUS
 10
3.716680
 20
4.961440
  0
VERTEX
  8
0
  6
CONTINUOUS
 10
3.695560
 20
4.962320
  0
SEQEND
  8
0
  0
SOLID
  8
0
 62
    15
 10
3.716680
 20
4.961440
 11
3.718880
 21
5.706800
 12
3.745720
 22
4.948240
 13
3.747920
 23
5.694040
  0
POLYLINE
  8
0
  6
CONTINUOUS
 66
     1
 40
0.000000
 41
0.000000
  0
VERTEX
  8
0
  6
CONTINUOUS
 10
3.716680
 20
4.961440
  0
VERTEX
  8
0
  6
CONTINUOUS
 10
3.718880
 20
5.706800
  0
VERTEX
  8
0
  6
CONTINUOUS
 10
3.747920
 20
5.694040
  0
VERTEX
  8
0
  6
CONTINUOUS
 10
3.745720
 20
4.948240
  0
VERTEX
  8
0
  6
CONTINUOUS
 10
3.716680
 20
4.961440
  0
SEQEND
  8
0
  0
SOLID
  8
0
 62
    15
 10
3.745720
 20
4.948240
 11
3.747920
 21
5.694040
 12
3.786640
 22
4.934160
 13
3.788840
 23
5.679960
  0
POLYLINE
  8
0
  6
CONTINUOUS
 66
     1
 40
0.000000
 41
0.000000
  0
VERTEX
  8
0
  6
CONTINUOUS
 10
3.745720
 20
4.948240
  0
VERTEX
  8
0
  6
CONTINUOUS
 10
3.747920
 20
5.694040
  0
VERTEX
  8
0
  6
CONTINUOUS
 10
3.788840
 20
5.679960
  0
VERTEX
  8
0
  6
CONTINUOUS
 10
3.786640
 20
4.934160
  0
VERTEX
  8
0
  6
CONTINUOUS
 10
3.745720
 20
4.948240
  0
SEQEND
  8
0
  0
SOLID
  8
0
 62
    15
 10
3.786640
 20
4.934160
 11
3.788840
 21
5.679960
 12
3.838560
 22
4.919640
 13
3.840760
 23
5.665440
  0
POLYLINE
  8
0
  6
CONTINUOUS
 66
     1
 40
0.000000
 41
0.000000
  0
VERTEX
  8
0
  6
CONTINUOUS
 10
3.786640
 20
4.934160
  0
VERTEX
  8
0
  6
CONTINUOUS
 10
3.788840
 20
5.679960
  0
VERTEX
  8
0
  6
CONTINUOUS
 10
3.840760
 20
5.665440
  0
VERTEX
  8
0
  6
CONTINUOUS
 10
3.838560
 20
4.919640
  0
VERTEX
  8
0
  6
CONTINUOUS
 10
3.786640
 20
4.934160
  0
SEQEND
  8
0
  0
SOLID
  8
0
 62
    15
 10
3.838560
 20
4.919640
 11
3.840760
 21
5.665440
 12
3.899280
 22
4.906000
 13
3.901480
 23
5.651800
  0
POLYLINE
  8
0
  6
CONTINUOUS
 66
     1
 40
0.000000
 41
0.000000
  0
VERTEX
  8
0
  6
CONTINUOUS
 10
3.838560
 20
4.919640
  0
VERTEX
  8
0
  6
CONTINUOUS
 10
3.840760
 20
5.665440
  0
VERTEX
  8
0
  6
CONTINUOUS
 10
3.901480
 20
5.651800
  0
VERTEX
  8
0
  6
CONTINUOUS
 10
3.899280
 20
4.906000
  0
VERTEX
  8
0
  6
CONTINUOUS
 10
3.838560
 20
4.919640
  0
SEQEND
  8
0
  0
SOLID
  8
0
 62
    15
 10
3.899280
 20
4.906000
 11
3.901480
 21
5.651800
 12
3.968360
 22
4.893680
 13
3.970560
 23
5.639480
  0
POLYLINE
  8
0
  6
CONTINUOUS
 66
     1
 40
0.000000
 41
0.000000
  0
VERTEX
  8
0
  6
CONTINUOUS
 10
3.899280
 20
4.906000
  0
VERTEX
  8
0
  6
CONTINUOUS
 10
3.901480
 20
5.651800
  0
VERTEX
  8
0
  6
CONTINUOUS
 10
3.970560
 20
5.639480
  0
VERTEX
  8
0
  6
CONTINUOUS
 10
3.968360
 20
4.893680
  0
VERTEX
  8
0
  6
CONTINUOUS
 10
3.899280
 20
4.906000
  0
SEQEND
  8
0
  0
SOLID
  8
0
 62
    15
 10
3.968360
 20
4.893680
 11
3.970560
 21
5.639480
 12
4.043600
 22
4.883560
 13
4.046240
 23
5.629360
  0
POLYLINE
  8
0
  6
CONTINUOUS
 66
     1
 40
0.000000
 41
0.000000
  0
VERTEX
  8
0
  6
CONTINUOUS
 10
3.968360
 20
4.893680
  0
VERTEX
  8
0
  6
CONTINUOUS
 10
3.970560
 20
5.639480
  0
VERTEX
  8
0
  6
CONTINUOUS
 10
4.046240
 20
5.629360
  0
VERTEX
  8
0
  6
CONTINUOUS
 10
4.043600
 20
4.883560
  0
VERTEX
  8
0
  6
CONTINUOUS
 10
3.968360
 20
4.893680
  0
SEQEND
  8
0
  0
SOLID
  8
0
 62
    15
 10
4.043600
 20
4.883560
 11
4.046240
 21
5.629360
 12
4.124560
 22
4.876960
 13
4.126760
 23
5.622760
  0
POLYLINE
  8
0
  6
CONTINUOUS
 66
     1
 40
0.000000
 41
0.000000
  0
VERTEX
  8
0
  6
CONTINUOUS
 10
4.043600
 20
4.883560
  0
VERTEX
  8
0
  6
CONTINUOUS
 10
4.046240
 20
5.629360
  0
VERTEX
  8
0
  6
CONTINUOUS
 10
4.126760
 20
5.622760
  0
VERTEX
  8
0
  6
CONTINUOUS
 10
4.124560
 20
4.876960
  0
VERTEX
  8
0
  6
CONTINUOUS
 10
4.043600
 20
4.883560
  0
SEQEND
  8
0
  0
SOLID
  8
0
 62
    15
 10
4.124560
 20
4.876960
 11
4.126760
 21
5.622760
 12
4.209480
 22
4.874760
 13
4.211680
 23
5.620560
  0
POLYLINE
  8
0
  6
CONTINUOUS
 66
     1
 40
0.000000
 41
0.000000
  0
VERTEX
  8
0
  6
CONTINUOUS
 10
4.124560
 20
4.876960
  0
VERTEX
  8
0
  6
CONTINUOUS
 10
4.126760
 20
5.622760
  0
VERTEX
  8
0
  6
CONTINUOUS
 10
4.211680
 20
5.620560
  0
VERTEX
  8
0
  6
CONTINUOUS
 10
4.209480
 20
4.874760
  0
VERTEX
  8
0
  6
CONTINUOUS
 10
4.124560
 20
4.876960
  0
SEQEND
  8
0
  0
SOLID
  8
0
 62
    15
 10
4.209480
 20
4.874760
 11
4.211680
 21
5.620560
 12
4.294400
 22
4.876960
 13
4.296600
 23
5.622760
  0
POLYLINE
  8
0
  6
CONTINUOUS
 66
     1
 40
0.000000
 41
0.000000
  0
VERTEX
  8
0
  6
CONTINUOUS
 10
4.209480
 20
4.874760
  0
VERTEX
  8
0
  6
CONTINUOUS
 10
4.211680
 20
5.620560
  0
VERTEX
  8
0
  6
CONTINUOUS
 10
4.296600
 20
5.622760
  0
VERTEX
  8
0
  6
CONTINUOUS
 10
4.294400
 20
4.876960
  0
VERTEX
  8
0
  6
CONTINUOUS
 10
4.209480
 20
4.874760
  0
SEQEND
  8
0
  0
SOLID
  8
0
 62
    15
 10
1.684320
 20
5.080240
 11
1.686520
 21
5.825600
 12
2.762760
 22
5.080240
 13
2.764960
 23
5.825600
  0
POLYLINE
  8
0
  6
CONTINUOUS
 66
     1
 40
0.000000
 41
0.000000
  0
VERTEX
  8
0
  6
CONTINUOUS
 10
1.684320
 20
5.080240
  0
VERTEX
  8
0
  6
CONTINUOUS
 10
1.686520
 20
5.825600
  0
VERTEX
  8
0
  6
CONTINUOUS
 10
2.764960
 20
5.825600
  0
VERTEX
  8
0
  6
CONTINUOUS
 10
2.762760
 20
5.080240
  0
VERTEX
  8
0
  6
CONTINUOUS
 10
1.684320
 20
5.080240
  0
SEQEND
  8
0
  0
SOLID
  8
0
 62
    15
 10
4.374920
 20
4.883560
 11
4.377120
 21
5.629360
 12
4.450600
 22
4.893680
 13
4.452800
 23
5.639480
  0
POLYLINE
  8
0
  6
CONTINUOUS
 66
     1
 40
0.000000
 41
0.000000
  0
VERTEX
  8
0
  6
CONTINUOUS
 10
4.374920
 20
4.883560
  0
VERTEX
  8
0
  6
CONTINUOUS
 10
4.377120
 20
5.629360
  0
VERTEX
  8
0
  6
CONTINUOUS
 10
4.452800
 20
5.639480
  0
VERTEX
  8
0
  6
CONTINUOUS
 10
4.450600
 20
4.893680
  0
VERTEX
  8
0
  6
CONTINUOUS
 10
4.374920
 20
4.883560
  0
SEQEND
  8
0
  0
SOLID
  8
0
 62
    15
 10
4.450600
 20
4.893680
 11
4.452800
 21
5.639480
 12
4.519240
 22
4.906000
 13
4.521880
 23
5.651800
  0
POLYLINE
  8
0
  6
CONTINUOUS
 66
     1
 40
0.000000
 41
0.000000
  0
VERTEX
  8
0
  6
CONTINUOUS
 10
4.450600
 20
4.893680
  0
VERTEX
  8
0
  6
CONTINUOUS
 10
4.452800
 20
5.639480
  0
VERTEX
  8
0
  6
CONTINUOUS
 10
4.521880
 20
5.651800
  0
VERTEX
  8
0
  6
CONTINUOUS
 10
4.519240
 20
4.906000
  0
VERTEX
  8
0
  6
CONTINUOUS
 10
4.450600
 20
4.893680
  0
SEQEND
  8
0
  0
SOLID
  8
0
 62
    15
 10
4.519240
 20
4.906000
 11
4.521880
 21
5.651800
 12
4.580400
 22
4.919640
 13
4.582600
 23
5.665440
  0
POLYLINE
  8
0
  6
CONTINUOUS
 66
     1
 40
0.000000
 41
0.000000
  0
VERTEX
  8
0
  6
CONTINUOUS
 10
4.519240
 20
4.906000
  0
VERTEX
  8
0
  6
CONTINUOUS
 10
4.521880
 20
5.651800
  0
VERTEX
  8
0
  6
CONTINUOUS
 10
4.582600
 20
5.665440
  0
VERTEX
  8
0
  6
CONTINUOUS
 10
4.580400
 20
4.919640
  0
VERTEX
  8
0
  6
CONTINUOUS
 10
4.519240
 20
4.906000
  0
SEQEND
  8
0
  0
SOLID
  8
0
 62
    15
 10
4.580400
 20
4.919640
 11
4.582600
 21
5.665440
 12
4.631880
 22
4.934160
 13
4.634080
 23
5.679960
  0
POLYLINE
  8
0
  6
CONTINUOUS
 66
     1
 40
0.000000
 41
0.000000
  0
VERTEX
  8
0
  6
CONTINUOUS
 10
4.580400
 20
4.919640
  0
VERTEX
  8
0
  6
CONTINUOUS
 10
4.582600
 20
5.665440
  0
VERTEX
  8
0
  6
CONTINUOUS
 10
4.634080
 20
5.679960
  0
VERTEX
  8
0
  6
CONTINUOUS
 10
4.631880
 20
4.934160
  0
VERTEX
  8
0
  6
CONTINUOUS
 10
4.580400
 20
4.919640
  0
SEQEND
  8
0
  0
SOLID
  8
0
 62
    15
 10
4.631880
 20
4.934160
 11
4.634080
 21
5.679960
 12
4.673240
 22
4.948240
 13
4.675440
 23
5.694040
  0
POLYLINE
  8
0
  6
CONTINUOUS
 66
     1
 40
0.000000
 41
0.000000
  0
VERTEX
  8
0
  6
CONTINUOUS
 10
4.631880
 20
4.934160
  0
VERTEX
  8
0
  6
CONTINUOUS
 10
4.634080
 20
5.679960
  0
VERTEX
  8
0
  6
CONTINUOUS
 10
4.675440
 20
5.694040
  0
VERTEX
  8
0
  6
CONTINUOUS
 10
4.673240
 20
4.948240
  0
VERTEX
  8
0
  6
CONTINUOUS
 10
4.631880
 20
4.934160
  0
SEQEND
  8
0
  0
SOLID
  8
0
 62
    15
 10
4.673240
 20
4.948240
 11
4.675440
 21
5.694040
 12
4.702280
 22
4.961440
 13
4.704480
 23
5.706800
  0
POLYLINE
  8
0
  6
CONTINUOUS
 66
     1
 40
0.000000
 41
0.000000
  0
VERTEX
  8
0
  6
CONTINUOUS
 10
4.673240
 20
4.948240
  0
VERTEX
  8
0
  6
CONTINUOUS
 10
4.675440
 20
5.694040
  0
VERTEX
  8
0
  6
CONTINUOUS
 10
4.704480
 20
5.706800
  0
VERTEX
  8
0
  6
CONTINUOUS
 10
4.702280
 20
4.961440
  0
VERTEX
  8
0
  6
CONTINUOUS
 10
4.673240
 20
4.948240
  0
SEQEND
  8
0
  0
SOLID
  8
0
 62
    15
 10
4.702280
 20
4.961440
 11
4.704480
 21
5.706800
 12
4.723400
 22
4.962320
 13
4.725600
 23
5.708120
  0
POLYLINE
  8
0
  6
CONTINUOUS
 66
     1
 40
0.000000
 41
0.000000
  0
VERTEX
  8
0
  6
CONTINUOUS
 10
4.702280
 20
4.961440
  0
VERTEX
  8
0
  6
CONTINUOUS
 10
4.704480
 20
5.706800
  0
VERTEX
  8
0
  6
CONTINUOUS
 10
4.725600
 20
5.708120
  0
VERTEX
  8
0
  6
CONTINUOUS
 10
4.723400
 20
4.962320
  0
VERTEX
  8
0
  6
CONTINUOUS
 10
4.702280
 20
4.961440
  0
SEQEND
  8
0
  0
SOLID
  8
0
 62
    15
 10
4.723400
 20
4.962320
 11
4.725600
 21
5.708120
 12
4.748040
 22
4.961880
 13
4.750240
 23
5.707680
  0
POLYLINE
  8
0
  6
CONTINUOUS
 66
     1
 40
0.000000
 41
0.000000
  0
VERTEX
  8
0
  6
CONTINUOUS
 10
4.723400
 20
4.962320
  0
VERTEX
  8
0
  6
CONTINUOUS
 10
4.725600
 20
5.708120
  0
VERTEX
  8
0
  6
CONTINUOUS
 10
4.750240
 20
5.707680
  0
VERTEX
  8
0
  6
CONTINUOUS
 10
4.748040
 20
4.961880
  0
VERTEX
  8
0
  6
CONTINUOUS
 10
4.723400
 20
4.962320
  0
SEQEND
  8
0
  0
SOLID
  8
0
 62
    15
 10
4.748040
 20
4.961880
 11
4.750240
 21
5.707680
 12
4.761680
 22
4.961880
 13
4.763880
 23
5.707680
  0
POLYLINE
  8
0
  6
CONTINUOUS
 66
     1
 40
0.000000
 41
0.000000
  0
VERTEX
  8
0
  6
CONTINUOUS
 10
4.748040
 20
4.961880
  0
VERTEX
  8
0
  6
CONTINUOUS
 10
4.750240
 20
5.707680
  0
VERTEX
  8
0
  6
CONTINUOUS
 10
4.763880
 20
5.707680
  0
VERTEX
  8
0
  6
CONTINUOUS
 10
4.761680
 20
4.961880
  0
VERTEX
  8
0
  6
CONTINUOUS
 10
4.748040
 20
4.961880
  0
SEQEND
  8
0
  0
SOLID
  8
0
 62
    15
 10
4.761680
 20
4.961880
 11
4.763880
 21
5.707680
 12
4.775760
 22
4.961440
 13
4.777960
 23
5.707240
  0
POLYLINE
  8
0
  6
CONTINUOUS
 66
     1
 40
0.000000
 41
0.000000
  0
VERTEX
  8
0
  6
CONTINUOUS
 10
4.761680
 20
4.961880
  0
VERTEX
  8
0
  6
CONTINUOUS
 10
4.763880
 20
5.707680
  0
VERTEX
  8
0
  6
CONTINUOUS
 10
4.777960
 20
5.707240
  0
VERTEX
  8
0
  6
CONTINUOUS
 10
4.775760
 20
4.961440
  0
VERTEX
  8
0
  6
CONTINUOUS
 10
4.761680
 20
4.961880
  0
SEQEND
  8
0
  0
SOLID
  8
0
 62
    15
 10
4.775760
 20
4.961440
 11
4.777960
 21
5.707240
 12
4.805680
 22
4.962320
 13
4.807880
 23
5.708120
  0
POLYLINE
  8
0
  6
CONTINUOUS
 66
     1
 40
0.000000
 41
0.000000
  0
VERTEX
  8
0
  6
CONTINUOUS
 10
4.775760
 20
4.961440
  0
VERTEX
  8
0
  6
CONTINUOUS
 10
4.777960
 20
5.707240
  0
VERTEX
  8
0
  6
CONTINUOUS
 10
4.807880
 20
5.708120
  0
VERTEX
  8
0
  6
CONTINUOUS
 10
4.805680
 20
4.962320
  0
VERTEX
  8
0
  6
CONTINUOUS
 10
4.775760
 20
4.961440
  0
SEQEND
  8
0
  0
SOLID
  8
0
 62
    15
 10
4.805680
 20
4.962320
 11
4.807880
 21
5.708120
 12
4.869040
 22
4.970680
 13
4.871240
 23
5.716480
  0
POLYLINE
  8
0
  6
CONTINUOUS
 66
     1
 40
0.000000
 41
0.000000
  0
VERTEX
  8
0
  6
CONTINUOUS
 10
4.805680
 20
4.962320
  0
VERTEX
  8
0
  6
CONTINUOUS
 10
4.807880
 20
5.708120
  0
VERTEX
  8
0
  6
CONTINUOUS
 10
4.871240
 20
5.716480
  0
VERTEX
  8
0
  6
CONTINUOUS
 10
4.869040
 20
4.970680
  0
VERTEX
  8
0
  6
CONTINUOUS
 10
4.805680
 20
4.962320
  0
SEQEND
  8
0
  0
SOLID
  8
0
 62
    15
 10
4.869040
 20
4.970680
 11
4.871240
 21
5.716480
 12
4.901160
 22
4.981240
 13
4.903360
 23
5.727040
  0
POLYLINE
  8
0
  6
CONTINUOUS
 66
     1
 40
0.000000
 41
0.000000
  0
VERTEX
  8
0
  6
CONTINUOUS
 10
4.869040
 20
4.970680
  0
VERTEX
  8
0
  6
CONTINUOUS
 10
4.871240
 20
5.716480
  0
VERTEX
  8
0
  6
CONTINUOUS
 10
4.903360
 20
5.727040
  0
VERTEX
  8
0
  6
CONTINUOUS
 10
4.901160
 20
4.981240
  0
VERTEX
  8
0
  6
CONTINUOUS
 10
4.869040
 20
4.970680
  0
SEQEND
  8
0
  0
SOLID
  8
0
 62
    15
 10
4.901160
 20
4.981240
 11
4.903360
 21
5.727040
 12
4.931960
 22
4.997080
 13
4.934600
 23
5.742880
  0
POLYLINE
  8
0
  6
CONTINUOUS
 66
     1
 40
0.000000
 41
0.000000
  0
VERTEX
  8
0
  6
CONTINUOUS
 10
4.901160
 20
4.981240
  0
VERTEX
  8
0
  6
CONTINUOUS
 10
4.903360
 20
5.727040
  0
VERTEX
  8
0
  6
CONTINUOUS
 10
4.934600
 20
5.742880
  0
VERTEX
  8
0
  6
CONTINUOUS
 10
4.931960
 20
4.997080
  0
VERTEX
  8
0
  6
CONTINUOUS
 10
4.901160
 20
4.981240
  0
SEQEND
  8
0
  0
SOLID
  8
0
 62
    15
 10
4.931960
 20
4.997080
 11
4.934600
 21
5.742880
 12
4.993560
 22
5.032280
 13
4.995760
 23
5.778080
  0
POLYLINE
  8
0
  6
CONTINUOUS
 66
     1
 40
0.000000
 41
0.000000
  0
VERTEX
  8
0
  6
CONTINUOUS
 10
4.931960
 20
4.997080
  0
VERTEX
  8
0
  6
CONTINUOUS
 10
4.934600
 20
5.742880
  0
VERTEX
  8
0
  6
CONTINUOUS
 10
4.995760
 20
5.778080
  0
VERTEX
  8
0
  6
CONTINUOUS
 10
4.993560
 20
5.032280
  0
VERTEX
  8
0
  6
CONTINUOUS
 10
4.931960
 20
4.997080
  0
SEQEND
  8
0
  0
SOLID
  8
0
 62
    15
 10
4.993560
 20
5.032280
 11
4.995760
 21
5.778080
 12
5.024360
 22
5.045040
 13
5.026560
 23
5.790840
  0
POLYLINE
  8
0
  6
CONTINUOUS
 66
     1
 40
0.000000
 41
0.000000
  0
VERTEX
  8
0
  6
CONTINUOUS
 10
4.993560
 20
5.032280
  0
VERTEX
  8
0
  6
CONTINUOUS
 10
4.995760
 20
5.778080
  0
VERTEX
  8
0
  6
CONTINUOUS
 10
5.026560
 20
5.790840
  0
VERTEX
  8
0
  6
CONTINUOUS
 10
5.024360
 20
5.045040
  0
VERTEX
  8
0
  6
CONTINUOUS
 10
4.993560
 20
5.032280
  0
SEQEND
  8
0
  0
SOLID
  8
0
 62
    15
 10
5.024360
 20
5.045040
 11
5.026560
 21
5.790840
 12
5.054720
 22
5.051640
 13
5.056920
 23
5.797440
  0
POLYLINE
  8
0
  6
CONTINUOUS
 66
     1
 40
0.000000
 41
0.000000
  0
VERTEX
  8
0
  6
CONTINUOUS
 10
5.024360
 20
5.045040
  0
VERTEX
  8
0
  6
CONTINUOUS
 10
5.026560
 20
5.790840
  0
VERTEX
  8
0
  6
CONTINUOUS
 10
5.056920
 20
5.797440
  0
VERTEX
  8
0
  6
CONTINUOUS
 10
5.054720
 20
5.051640
  0
VERTEX
  8
0
  6
CONTINUOUS
 10
5.024360
 20
5.045040
  0
SEQEND
  8
0
  0
SOLID
  8
0
 62
    15
 10
5.054720
 20
5.051640
 11
5.056920
 21
5.797440
 12
5.085080
 22
5.050760
 13
5.087280
 23
5.796560
  0
POLYLINE
  8
0
  6
CONTINUOUS
 66
     1
 40
0.000000
 41
0.000000
  0
VERTEX
  8
0
  6
CONTINUOUS
 10
5.054720
 20
5.051640
  0
VERTEX
  8
0
  6
CONTINUOUS
 10
5.056920
 20
5.797440
  0
VERTEX
  8
0
  6
CONTINUOUS
 10
5.087280
 20
5.796560
  0
VERTEX
  8
0
  6
CONTINUOUS
 10
5.085080
 20
5.050760
  0
VERTEX
  8
0
  6
CONTINUOUS
 10
5.054720
 20
5.051640
  0
SEQEND
  8
0
  0
SOLID
  8
0
 62
    15
 10
5.085080
 20
5.050760
 11
5.087280
 21
5.796560
 12
5.114560
 22
5.040200
 13
5.116760
 23
5.786000
  0
POLYLINE
  8
0
  6
CONTINUOUS
 66
     1
 40
0.000000
 41
0.000000
  0
VERTEX
  8
0
  6
CONTINUOUS
 10
5.085080
 20
5.050760
  0
VERTEX
  8
0
  6
CONTINUOUS
 10
5.087280
 20
5.796560
  0
VERTEX
  8
0
  6
CONTINUOUS
 10
5.116760
 20
5.786000
  0
VERTEX
  8
0
  6
CONTINUOUS
 10
5.114560
 20
5.040200
  0
VERTEX
  8
0
  6
CONTINUOUS
 10
5.085080
 20
5.050760
  0
SEQEND
  8
0
  0
SOLID
  8
0
 62
    15
 10
5.114560
 20
5.040200
 11
5.116760
 21
5.786000
 12
5.143600
 22
5.017760
 13
5.145800
 23
5.763560
  0
POLYLINE
  8
0
  6
CONTINUOUS
 66
     1
 40
0.000000
 41
0.000000
  0
VERTEX
  8
0
  6
CONTINUOUS
 10
5.114560
 20
5.040200
  0
VERTEX
  8
0
  6
CONTINUOUS
 10
5.116760
 20
5.786000
  0
VERTEX
  8
0
  6
CONTINUOUS
 10
5.145800
 20
5.763560
  0
VERTEX
  8
0
  6
CONTINUOUS
 10
5.143600
 20
5.017760
  0
VERTEX
  8
0
  6
CONTINUOUS
 10
5.114560
 20
5.040200
  0
SEQEND
  8
0
  0
SOLID
  8
0
 62
    15
 10
5.143600
 20
5.017760
 11
5.145800
 21
5.763560
 12
5.171760
 22
4.982120
 13
5.173960
 23
5.727920
  0
POLYLINE
  8
0
  6
CONTINUOUS
 66
     1
 40
0.000000
 41
0.000000
  0
VERTEX
  8
0
  6
CONTINUOUS
 10
5.143600
 20
5.017760
  0
VERTEX
  8
0
  6
CONTINUOUS
 10
5.145800
 20
5.763560
  0
VERTEX
  8
0
  6
CONTINUOUS
 10
5.173960
 20
5.727920
  0
VERTEX
  8
0
  6
CONTINUOUS
 10
5.171760
 20
4.982120
  0
VERTEX
  8
0
  6
CONTINUOUS
 10
5.143600
 20
5.017760
  0
SEQEND
  8
0
  0
SOLID
  8
0
 62
    15
 10
5.171760
 20
4.982120
 11
5.173960
 21
5.727920
 12
5.196400
 22
4.982120
 13
5.198600
 23
5.727920
  0
POLYLINE
  8
0
  6
CONTINUOUS
 66
     1
 40
0.000000
 41
0.000000
  0
VERTEX
  8
0
  6
CONTINUOUS
 10
5.171760
 20
4.982120
  0
VERTEX
  8
0
  6
CONTINUOUS
 10
5.173960
 20
5.727920
  0
VERTEX
  8
0
  6
CONTINUOUS
 10
5.198600
 20
5.727920
  0
VERTEX
  8
0
  6
CONTINUOUS
 10
5.196400
 20
4.982120
  0
VERTEX
  8
0
  6
CONTINUOUS
 10
5.171760
 20
4.982120
  0
SEQEND
  8
0
  0
SOLID
  8
0
 62
    15
 10
5.196400
 20
4.982120
 11
5.198600
 21
5.727920
 12
5.203000
 22
4.997080
 13
5.205200
 23
5.742880
  0
POLYLINE
  8
0
  6
CONTINUOUS
 66
     1
 40
0.000000
 41
0.000000
  0
VERTEX
  8
0
  6
CONTINUOUS
 10
5.196400
 20
4.982120
  0
VERTEX
  8
0
  6
CONTINUOUS
 10
5.198600
 20
5.727920
  0
VERTEX
  8
0
  6
CONTINUOUS
 10
5.205200
 20
5.742880
  0
VERTEX
  8
0
  6
CONTINUOUS
 10
5.203000
 20
4.997080
  0
VERTEX
  8
0
  6
CONTINUOUS
 10
5.196400
 20
4.982120
  0
SEQEND
  8
0
  0
SOLID
  8
0
 62
    15
 10
5.203000
 20
4.997080
 11
5.205200
 21
5.742880
 12
5.213560
 22
5.009840
 13
5.215760
 23
5.755640
  0
POLYLINE
  8
0
  6
CONTINUOUS
 66
     1
 40
0.000000
 41
0.000000
  0
VERTEX
  8
0
  6
CONTINUOUS
 10
5.203000
 20
4.997080
  0
VERTEX
  8
0
  6
CONTINUOUS
 10
5.205200
 20
5.742880
  0
VERTEX
  8
0
  6
CONTINUOUS
 10
5.215760
 20
5.755640
  0
VERTEX
  8
0
  6
CONTINUOUS
 10
5.213560
 20
5.009840
  0
VERTEX
  8
0
  6
CONTINUOUS
 10
5.203000
 20
4.997080
  0
SEQEND
  8
0
  0
SOLID
  8
0
 62
    15
 10
5.213560
 20
5.009840
 11
5.215760
 21
5.755640
 12
5.243480
 22
5.030080
 13
5.246120
 23
5.775880
  0
POLYLINE
  8
0
  6
CONTINUOUS
 66
     1
 40
0.000000
 41
0.000000
  0
VERTEX
  8
0
  6
CONTINUOUS
 10
5.213560
 20
5.009840
  0
VERTEX
  8
0
  6
CONTINUOUS
 10
5.215760
 20
5.755640
  0
VERTEX
  8
0
  6
CONTINUOUS
 10
5.246120
 20
5.775880
  0
VERTEX
  8
0
  6
CONTINUOUS
 10
5.243480
 20
5.030080
  0
VERTEX
  8
0
  6
CONTINUOUS
 10
5.213560
 20
5.009840
  0
SEQEND
  8
0
  0
SOLID
  8
0
 62
    15
 10
5.243480
 20
5.030080
 11
5.246120
 21
5.775880
 12
5.283080
 22
5.042840
 13
5.285280
 23
5.788200
  0
POLYLINE
  8
0
  6
CONTINUOUS
 66
     1
 40
0.000000
 41
0.000000
  0
VERTEX
  8
0
  6
CONTINUOUS
 10
5.243480
 20
5.030080
  0
VERTEX
  8
0
  6
CONTINUOUS
 10
5.246120
 20
5.775880
  0
VERTEX
  8
0
  6
CONTINUOUS
 10
5.285280
 20
5.788200
  0
VERTEX
  8
0
  6
CONTINUOUS
 10
5.283080
 20
5.042840
  0
VERTEX
  8
0
  6
CONTINUOUS
 10
5.243480
 20
5.030080
  0
SEQEND
  8
0
  0
SOLID
  8
0
 62
    15
 10
5.283080
 20
5.042840
 11
5.285280
 21
5.788200
 12
5.327080
 22
5.046800
 13
5.329280
 23
5.792600
  0
POLYLINE
  8
0
  6
CONTINUOUS
 66
     1
 40
0.000000
 41
0.000000
  0
VERTEX
  8
0
  6
CONTINUOUS
 10
5.283080
 20
5.042840
  0
VERTEX
  8
0
  6
CONTINUOUS
 10
5.285280
 20
5.788200
  0
VERTEX
  8
0
  6
CONTINUOUS
 10
5.329280
 20
5.792600
  0
VERTEX
  8
0
  6
CONTINUOUS
 10
5.327080
 20
5.046800
  0
VERTEX
  8
0
  6
CONTINUOUS
 10
5.283080
 20
5.042840
  0
SEQEND
  8
0
  0
SOLID
  8
0
 62
    15
 10
5.327080
 20
5.046800
 11
5.329280
 21
5.792600
 12
5.371960
 22
5.043280
 13
5.374160
 23
5.789080
  0
POLYLINE
  8
0
  6
CONTINUOUS
 66
     1
 40
0.000000
 41
0.000000
  0
VERTEX
  8
0
  6
CONTINUOUS
 10
5.327080
 20
5.046800
  0
VERTEX
  8
0
  6
CONTINUOUS
 10
5.329280
 20
5.792600
  0
VERTEX
  8
0
  6
CONTINUOUS
 10
5.374160
 20
5.789080
  0
VERTEX
  8
0
  6
CONTINUOUS
 10
5.371960
 20
5.043280
  0
VERTEX
  8
0
  6
CONTINUOUS
 10
5.327080
 20
5.046800
  0
SEQEND
  8
0
  0
SOLID
  8
0
 62
    15
 10
5.371960
 20
5.043280
 11
5.374160
 21
5.789080
 12
5.413760
 22
5.031400
 13
5.415960
 23
5.777200
  0
POLYLINE
  8
0
  6
CONTINUOUS
 66
     1
 40
0.000000
 41
0.000000
  0
VERTEX
  8
0
  6
CONTINUOUS
 10
5.371960
 20
5.043280
  0
VERTEX
  8
0
  6
CONTINUOUS
 10
5.374160
 20
5.789080
  0
VERTEX
  8
0
  6
CONTINUOUS
 10
5.415960
 20
5.777200
  0
VERTEX
  8
0
  6
CONTINUOUS
 10
5.413760
 20
5.031400
  0
VERTEX
  8
0
  6
CONTINUOUS
 10
5.371960
 20
5.043280
  0
SEQEND
  8
0
  0
SOLID
  8
0
 62
    15
 10
5.413760
 20
5.031400
 11
5.415960
 21
5.777200
 12
5.447640
 22
5.010720
 13
5.449840
 23
5.756520
  0
POLYLINE
  8
0
  6
CONTINUOUS
 66
     1
 40
0.000000
 41
0.000000
  0
VERTEX
  8
0
  6
CONTINUOUS
 10
5.413760
 20
5.031400
  0
VERTEX
  8
0
  6
CONTINUOUS
 10
5.415960
 20
5.777200
  0
VERTEX
  8
0
  6
CONTINUOUS
 10
5.449840
 20
5.756520
  0
VERTEX
  8
0
  6
CONTINUOUS
 10
5.447640
 20
5.010720
  0
VERTEX
  8
0
  6
CONTINUOUS
 10
5.413760
 20
5.031400
  0
SEQEND
  8
0
  0
SOLID
  8
0
 62
    15
 10
5.447640
 20
5.010720
 11
5.449840
 21
5.756520
 12
5.460400
 22
4.997520
 13
5.462600
 23
5.743320
  0
POLYLINE
  8
0
  6
CONTINUOUS
 66
     1
 40
0.000000
 41
0.000000
  0
VERTEX
  8
0
  6
CONTINUOUS
 10
5.447640
 20
5.010720
  0
VERTEX
  8
0
  6
CONTINUOUS
 10
5.449840
 20
5.756520
  0
VERTEX
  8
0
  6
CONTINUOUS
 10
5.462600
 20
5.743320
  0
VERTEX
  8
0
  6
CONTINUOUS
 10
5.460400
 20
4.997520
  0
VERTEX
  8
0
  6
CONTINUOUS
 10
5.447640
 20
5.010720
  0
SEQEND
  8
0
  0
SOLID
  8
0
 62
    15
 10
5.460400
 20
4.997520
 11
5.462600
 21
5.743320
 12
5.469640
 22
4.982120
 13
5.471840
 23
5.727920
  0
POLYLINE
  8
0
  6
CONTINUOUS
 66
     1
 40
0.000000
 41
0.000000
  0
VERTEX
  8
0
  6
CONTINUOUS
 10
5.460400
 20
4.997520
  0
VERTEX
  8
0
  6
CONTINUOUS
 10
5.462600
 20
5.743320
  0
VERTEX
  8
0
  6
CONTINUOUS
 10
5.471840
 20
5.727920
  0
VERTEX
  8
0
  6
CONTINUOUS
 10
5.469640
 20
4.982120
  0
VERTEX
  8
0
  6
CONTINUOUS
 10
5.460400
 20
4.997520
  0
SEQEND
  8
0
  0
SOLID
  8
0
 62
    15
 10
5.469640
 20
4.982120
 11
5.471840
 21
5.727920
 12
5.580960
 22
4.982120
 13
5.583160
 23
5.727920
  0
POLYLINE
  8
0
  6
CONTINUOUS
 66
     1
 40
0.000000
 41
0.000000
  0
VERTEX
  8
0
  6
CONTINUOUS
 10
5.469640
 20
4.982120
  0
VERTEX
  8
0
  6
CONTINUOUS
 10
5.471840
 20
5.727920
  0
VERTEX
  8
0
  6
CONTINUOUS
 10
5.583160
 20
5.727920
  0
VERTEX
  8
0
  6
CONTINUOUS
 10
5.580960
 20
4.982120
  0
VERTEX
  8
0
  6
CONTINUOUS
 10
5.469640
 20
4.982120
  0
SEQEND
  8
0
  0
SOLID
  8
0
 62
    15
 10
5.580960
 20
4.982120
 11
5.583160
 21
5.727920
 12
5.656200
 22
5.080240
 13
5.658400
 23
5.825600
  0
POLYLINE
  8
0
  6
CONTINUOUS
 66
     1
 40
0.000000
 41
0.000000
  0
VERTEX
  8
0
  6
CONTINUOUS
 10
5.580960
 20
4.982120
  0
VERTEX
  8
0
  6
CONTINUOUS
 10
5.583160
 20
5.727920
  0
VERTEX
  8
0
  6
CONTINUOUS
 10
5.658400
 20
5.825600
  0
VERTEX
  8
0
  6
CONTINUOUS
 10
5.656200
 20
5.080240
  0
VERTEX
  8
0
  6
CONTINUOUS
 10
5.580960
 20
4.982120
  0
SEQEND
  8
0
  0
SOLID
  8
0
 62
    15
 10
6.732000
 20
5.080240
 11
6.734200
 21
5.825600
 12
6.732000
 22
4.330480
 13
6.734200
 23
5.076280
  0
POLYLINE
  8
0
  6
CONTINUOUS
 66
     1
 40
0.000000
 41
0.000000
  0
VERTEX
  8
0
  6
CONTINUOUS
 10
6.732000
 20
5.080240
  0
VERTEX
  8
0
  6
CONTINUOUS
 10
6.734200
 20
5.825600
  0
VERTEX
  8
0
  6
CONTINUOUS
 10
6.734200
 20
5.076280
  0
VERTEX
  8
0
  6
CONTINUOUS
 10
6.732000
 20
4.330480
  0
VERTEX
  8
0
  6
CONTINUOUS
 10
6.732000
 20
5.080240
  0
SEQEND
  8
0
  0
SOLID
  8
0
 62
    15
 10
5.656200
 20
5.080240
 11
5.658400
 21
5.825600
 12
6.732000
 22
5.080240
 13
6.734200
 23
5.825600
  0
POLYLINE
  8
0
  6
CONTINUOUS
 66
     1
 40
0.000000
 41
0.000000
  0
VERTEX
  8
0
  6
CONTINUOUS
 10
5.656200
 20
5.080240
  0
VERTEX
  8
0
  6
CONTINUOUS
 10
5.658400
 20
5.825600
  0
VERTEX
  8
0
  6
CONTINUOUS
 10
6.734200
 20
5.825600
  0
VERTEX
  8
0
  6
CONTINUOUS
 10
6.732000
 20
5.080240
  0
VERTEX
  8
0
  6
CONTINUOUS
 10
5.656200
 20
5.080240
  0
SEQEND
  8
0
  0
SOLID
  8
0
 62
    15
 10
1.683880
 20
4.330480
 11
1.686080
 21
5.076280
 12
1.684320
 22
4.330480
 13
1.686520
 23
5.076280
  0
POLYLINE
  8
0
  6
CONTINUOUS
 66
     1
 40
0.000000
 41
0.000000
  0
VERTEX
  8
0
  6
CONTINUOUS
 10
1.683880
 20
4.330480
  0
VERTEX
  8
0
  6
CONTINUOUS
 10
1.686080
 20
5.076280
  0
VERTEX
  8
0
  6
CONTINUOUS
 10
1.686520
 20
5.076280
  0
VERTEX
  8
0
  6
CONTINUOUS
 10
1.684320
 20
4.330480
  0
VERTEX
  8
0
  6
CONTINUOUS
 10
1.683880
 20
4.330480
  0
SEQEND
  8
0
  0
POLYLINE
  8
0
  6
CONTINUOUS
 66
     1
 40
0.000000
 41
0.000000
  0
VERTEX
  8
0
  6
CONTINUOUS
 10
1.684320
 20
4.330480
  0
VERTEX
  8
0
  6
CONTINUOUS
 10
1.684320
 20
5.080240
  0
VERTEX
  8
0
  6
CONTINUOUS
 10
2.762760
 20
5.080240
  0
VERTEX
  8
0
  6
CONTINUOUS
 10
2.838000
 20
4.982120
  0
VERTEX
  8
0
  6
CONTINUOUS
 10
2.949320
 20
4.982120
  0
VERTEX
  8
0
  6
CONTINUOUS
 10
2.958560
 20
4.997520
  0
VERTEX
  8
0
  6
CONTINUOUS
 10
2.971320
 20
5.010720
  0
VERTEX
  8
0
  6
CONTINUOUS
 10
3.005200
 20
5.031400
  0
VERTEX
  8
0
  6
CONTINUOUS
 10
3.046560
 20
5.043280
  0
VERTEX
  8
0
  6
CONTINUOUS
 10
3.091440
 20
5.046800
  0
VERTEX
  8
0
  6
CONTINUOUS
 10
3.135880
 20
5.042840
  0
VERTEX
  8
0
  6
CONTINUOUS
 10
3.175040
 20
5.030080
  0
VERTEX
  8
0
  6
CONTINUOUS
 10
3.205400
 20
5.009840
  0
VERTEX
  8
0
  6
CONTINUOUS
 10
3.215960
 20
4.997080
  0
VERTEX
  8
0
  6
CONTINUOUS
 10
3.222560
 20
4.982120
  0
VERTEX
  8
0
  6
CONTINUOUS
 10
3.247200
 20
4.982120
  0
VERTEX
  8
0
  6
CONTINUOUS
 10
3.275360
 20
5.017760
  0
VERTEX
  8
0
  6
CONTINUOUS
 10
3.303960
 20
5.040200
  0
VERTEX
  8
0
  6
CONTINUOUS
 10
3.333880
 20
5.050760
  0
VERTEX
  8
0
  6
CONTINUOUS
 10
3.364240
 20
5.051640
  0
VERTEX
  8
0
  6
CONTINUOUS
 10
3.394600
 20
5.045040
  0
VERTEX
  8
0
  6
CONTINUOUS
 10
3.425400
 20
5.032280
  0
VERTEX
  8
0
  6
CONTINUOUS
 10
3.486560
 20
4.997080
  0
VERTEX
  8
0
  6
CONTINUOUS
 10
3.517800
 20
4.981240
  0
VERTEX
  8
0
  6
CONTINUOUS
 10
3.549480
 20
4.970680
  0
VERTEX
  8
0
  6
CONTINUOUS
 10
3.612840
 20
4.962320
  0
VERTEX
  8
0
  6
CONTINUOUS
 10
3.670480
 20
4.961880
  0
VERTEX
  8
0
  6
CONTINUOUS
 10
3.695560
 20
4.962320
  0
VERTEX
  8
0
  6
CONTINUOUS
 10
3.716680
 20
4.961440
  0
VERTEX
  8
0
  6
CONTINUOUS
 10
3.745720
 20
4.948240
  0
VERTEX
  8
0
  6
CONTINUOUS
 10
3.786640
 20
4.934160
  0
VERTEX
  8
0
  6
CONTINUOUS
 10
3.838560
 20
4.919640
  0
VERTEX
  8
0
  6
CONTINUOUS
 10
3.899280
 20
4.906000
  0
VERTEX
  8
0
  6
CONTINUOUS
 10
3.968360
 20
4.893680
  0
VERTEX
  8
0
  6
CONTINUOUS
 10
4.043600
 20
4.883560
  0
VERTEX
  8
0
  6
CONTINUOUS
 10
4.124560
 20
4.876960
  0
VERTEX
  8
0
  6
CONTINUOUS
 10
4.209480
 20
4.874760
  0
VERTEX
  8
0
  6
CONTINUOUS
 10
4.294400
 20
4.876960
  0
VERTEX
  8
0
  6
CONTINUOUS
 10
4.374920
 20
4.883560
  0
VERTEX
  8
0
  6
CONTINUOUS
 10
4.450600
 20
4.893680
  0
VERTEX
  8
0
  6
CONTINUOUS
 10
4.519240
 20
4.906000
  0
VERTEX
  8
0
  6
CONTINUOUS
 10
4.580400
 20
4.919640
  0
VERTEX
  8
0
  6
CONTINUOUS
 10
4.631880
 20
4.934160
  0
VERTEX
  8
0
  6
CONTINUOUS
 10
4.673240
 20
4.948240
  0
VERTEX
  8
0
  6
CONTINUOUS
 10
4.702280
 20
4.961440
  0
VERTEX
  8
0
  6
CONTINUOUS
 10
4.723400
 20
4.962320
  0
VERTEX
  8
0
  6
CONTINUOUS
 10
4.775760
 20
4.961440
  0
VERTEX
  8
0
  6
CONTINUOUS
 10
4.805680
 20
4.962320
  0
VERTEX
  8
0
  6
CONTINUOUS
 10
4.869040
 20
4.970680
  0
VERTEX
  8
0
  6
CONTINUOUS
 10
4.901160
 20
4.981240
  0
VERTEX
  8
0
  6
CONTINUOUS
 10
4.931960
 20
4.997080
  0
VERTEX
  8
0
  6
CONTINUOUS
 10
4.993560
 20
5.032280
  0
VERTEX
  8
0
  6
CONTINUOUS
 10
5.024360
 20
5.045040
  0
VERTEX
  8
0
  6
CONTINUOUS
 10
5.054720
 20
5.051640
  0
VERTEX
  8
0
  6
CONTINUOUS
 10
5.085080
 20
5.050760
  0
VERTEX
  8
0
  6
CONTINUOUS
 10
5.114560
 20
5.040200
  0
VERTEX
  8
0
  6
CONTINUOUS
 10
5.143600
 20
5.017760
  0
VERTEX
  8
0
  6
CONTINUOUS
 10
5.171760
 20
4.982120
  0
VERTEX
  8
0
  6
CONTINUOUS
 10
5.196400
 20
4.982120
  0
VERTEX
  8
0
  6
CONTINUOUS
 10
5.203000
 20
4.997080
  0
VERTEX
  8
0
  6
CONTINUOUS
 10
5.213560
 20
5.009840
  0
VERTEX
  8
0
  6
CONTINUOUS
 10
5.243480
 20
5.030080
  0
VERTEX
  8
0
  6
CONTINUOUS
 10
5.283080
 20
5.042840
  0
VERTEX
  8
0
  6
CONTINUOUS
 10
5.327080
 20
5.046800
  0
VERTEX
  8
0
  6
CONTINUOUS
 10
5.371960
 20
5.043280
  0
VERTEX
  8
0
  6
CONTINUOUS
 10
5.413760
 20
5.031400
  0
VERTEX
  8
0
  6
CONTINUOUS
 10
5.447640
 20
5.010720
  0
VERTEX
  8
0
  6
CONTINUOUS
 10
5.460400
 20
4.997520
  0
VERTEX
  8
0
  6
CONTINUOUS
 10
5.469640
 20
4.982120
  0
VERTEX
  8
0
  6
CONTINUOUS
 10
5.580960
 20
4.982120
  0
VERTEX
  8
0
  6
CONTINUOUS
 10
5.656200
 20
5.080240
  0
VERTEX
  8
0
  6
CONTINUOUS
 10
6.732000
 20
5.080240
  0
VERTEX
  8
0
  6
CONTINUOUS
 10
6.732000
 20
4.330480
  0
VERTEX
  8
0
  6
CONTINUOUS
 10
1.683880
 20
4.330480
  0
VERTEX
  8
0
  6
CONTINUOUS
 10
1.684320
 20
4.330480
  0
SEQEND
  8
0
  0
TEXT
  8
0
 10
3.867600
 20
4.066480
 40
0.138032
  1
BA  1269
 41
1.000000
  7
SN0
 71
     0
 72
     5
 11
4.550532
 21
4.066480
  0
TEXT
  8
0
 10
3.711840
 20
3.875080
 40
0.138032
  1
3/4" x 5-1/16"
 41
1.000000
  7
SN0
 71
     0
 72
     5
 11
4.704990
 21
3.875080
  0
TEXT
  8
0
 10
3.867600
 20
7.164520
 40
0.138032
  1
BA  1269
 41
1.000000
  7
SN0
 71
     0
 72
     5
 11
4.550532
 21
7.164520
  0
TEXT
  8
0
 10
3.711840
 20
6.972680
 40
0.138032
  1
3/4" x 5-1/16"
 41
1.000000
  7
SN0
 71
     0
 72
     5
 11
4.704990
 21
6.972680
  0
ENDSEC
  0
EOF
