  0
SECTION
  2
HEADER
  9
$ACADVER
  1
AC1006
  9
$EXTMIN
 10
3.501520
 20
0.813120
  9
$EXTMAX
 10
6.426640
 20
10.111640
  9
$LTSCALE
 40
0.044000
  9
$PDMODE
 70
    35
  9
$PDSIZE
 40
0.035200
  0
ENDSEC
  0
SECTION
  2
TABLES
  0
TABLE
  2
LTYPE
 70
     9
  0
LTYPE
  2
CONTINUOUS
 70
    64
  3
Solid line
 72
    65
 73
     0
 40
0.000000
  0
LTYPE
  2
DASHED
 70
    64
  3
__ __ __ __ __ __ __ __ __ __ __ __ __ __ __
 72
    65
 73
     2
 40
0.000330
 49
0.000220
 49
-0.000110
  0
LTYPE
  2
HIDDEN
 70
    64
  3
 _ _ _ _ _ _ _ _ _ _ _ _ _ _ _ _ _ _ _ _ _ _
 72
    65
 73
     2
 40
0.000165
 49
0.000110
 49
-0.000055
  0
LTYPE
  2
CENTER
 70
    64
  3
____ _ ____ _ ____ _ ____ _ ____ _ ____ _ ____
 72
    65
 73
     4
 40
0.000880
 49
0.000550
 49
-0.000110
 49
0.000110
 49
-0.000110
  0
LTYPE
  2
PHANTOM
 70
    64
  3
_____ _ _ _____ _ _ _____ _ _ _____ _ _ ____
 72
    65
 73
     6
 40
0.001100
 49
0.000550
 49
-0.000110
 49
0.000110
 49
-0.000110
 49
0.000110
 49
-0.000110
  0
LTYPE
  2
DOT
 70
    64
  3
...............................................
 72
    65
 73
     2
 40
0.000110
 49
0.000000
 49
-0.000110
  0
LTYPE
  2
DASHDOT
 70
    64
  3
__ . __ . __ . __ . __ . __ . __ . __ . __ . __
 72
    65
 73
     4
 40
0.000440
 49
0.000220
 49
-0.000110
 49
0.000000
 49
-0.000110
  0
LTYPE
  2
BORDER
 70
    64
  3
__ __ . __ __ . __ __ . __ __ . __ __ . __ __
 72
    65
 73
     6
 40
0.000770
 49
0.000220
 49
-0.000110
 49
0.000220
 49
-0.000110
 49
0.000000
 49
-0.000110
  0
LTYPE
  2
DIVIDE
 70
    64
  3
__ . . __ . . __ . . __ . . __ . . __ . . __
 72
    65
 73
     6
 40
0.000550
 49
0.000220
 49
-0.000110
 49
0.000000
 49
-0.000110
 49
0.000000
 49
-0.000110
  0
LTYPE
  2
DOTDOT
 70
    64
  3
 . .  . .  . .  . .  . .  . . 
 72
    65
 73
     5
 40
0.000242
 49
-0.000110
 49
0.000000
 49
-0.000110
 49
0.000000
 49
-0.000110
  0
ENDTAB
  0
TABLE
  2
STYLE
 70
     2
  0
STYLE
 70
     0
  2
SN0
 40
0.000000
 41
0.000440
 50
0.000000
 71
     0
 42
0.000000
  3
ROMAND
  0
STYLE
 70
    68
  2
SV0
 40
0.000000
 41
0.000440
 50
0.000000
 71
     0
 42
0.000000
  3
ROMAND
  0
ENDTAB
  0
TABLE
  2
LAYER
 70
     3
  0
LAYER
  2
FOREGROUND
 70
    64
 62
     7
  6
CONTINUOUS
  0
LAYER
  2
BACKGROUND
 70
    65
 62
    -7
  6
CONTINUOUS
  0
LAYER
  2
0
 70
    64
 62
     7
  6
CONTINUOUS
  0
ENDTAB
  0
ENDSEC
  0
SECTION
  2
ENTITIES
  0
POLYLINE
  8
FOREGROUND
  6
CONTINUOUS
 66
     1
 40
0.000000
 41
0.000000
  0
VERTEX
  8
FOREGROUND
  6
CONTINUOUS
 10
0.000000
 20
10.924760
  0
VERTEX
  8
FOREGROUND
  6
CONTINUOUS
 10
8.499920
 20
10.924760
  0
VERTEX
  8
FOREGROUND
  6
CONTINUOUS
 10
8.499920
 20
-0.075240
  0
VERTEX
  8
FOREGROUND
  6
CONTINUOUS
 10
0.000000
 20
-0.075240
  0
VERTEX
  8
FOREGROUND
  6
CONTINUOUS
 10
0.000000
 20
10.924760
  0
SEQEND
  8
0
  0
POLYLINE
  8
FOREGROUND
  6
CONTINUOUS
 66
     1
 40
0.000000
 41
0.000000
  0
VERTEX
  8
FOREGROUND
  6
CONTINUOUS
 10
0.000000
 20
10.924760
  0
VERTEX
  8
FOREGROUND
  6
CONTINUOUS
 10
8.499920
 20
10.924760
  0
VERTEX
  8
FOREGROUND
  6
CONTINUOUS
 10
8.499920
 20
-0.075240
  0
VERTEX
  8
FOREGROUND
  6
CONTINUOUS
 10
0.000000
 20
-0.075240
  0
VERTEX
  8
FOREGROUND
  6
CONTINUOUS
 10
0.000000
 20
10.924760
  0
SEQEND
  8
0
  0
POLYLINE
  8
0
  6
CONTINUOUS
 66
     1
 40
0.014080
 41
0.014080
  0
VERTEX
  8
0
  6
CONTINUOUS
 10
3.667840
 20
8.437000
  0
VERTEX
  8
0
  6
CONTINUOUS
 10
3.667840
 20
10.103720
  0
VERTEX
  8
0
  6
CONTINUOUS
 10
4.968480
 20
10.103720
  0
VERTEX
  8
0
  6
CONTINUOUS
 10
4.969360
 20
9.721360
  0
VERTEX
  8
0
  6
CONTINUOUS
 10
4.902040
 20
9.698920
  0
VERTEX
  8
0
  6
CONTINUOUS
 10
4.847040
 20
9.673400
  0
VERTEX
  8
0
  6
CONTINUOUS
 10
4.803920
 20
9.645240
  0
VERTEX
  8
0
  6
CONTINUOUS
 10
4.770480
 20
9.615760
  0
VERTEX
  8
0
  6
CONTINUOUS
 10
4.752880
 20
9.595520
  0
VERTEX
  8
0
  6
CONTINUOUS
 10
4.733520
 20
9.564720
  0
VERTEX
  8
0
  6
CONTINUOUS
 10
4.720320
 20
9.533480
  0
VERTEX
  8
0
  6
CONTINUOUS
 10
4.714600
 20
9.513240
  0
VERTEX
  8
0
  6
CONTINUOUS
 10
4.710640
 20
9.493000
  0
VERTEX
  8
0
  6
CONTINUOUS
 10
4.707120
 20
9.454280
  0
VERTEX
  8
0
  6
CONTINUOUS
 10
4.705800
 20
9.402800
  0
VERTEX
  8
0
  6
CONTINUOUS
 10
4.702280
 20
9.385640
  0
VERTEX
  8
0
  6
CONTINUOUS
 10
4.697000
 20
9.368480
  0
VERTEX
  8
0
  6
CONTINUOUS
 10
4.689520
 20
9.350880
  0
VERTEX
  8
0
  6
CONTINUOUS
 10
4.668400
 20
9.317000
  0
VERTEX
  8
0
  6
CONTINUOUS
 10
4.654320
 20
9.301160
  0
VERTEX
  8
0
  6
CONTINUOUS
 10
4.628800
 20
9.278280
  0
VERTEX
  8
0
  6
CONTINUOUS
 10
4.598880
 20
9.258040
  0
VERTEX
  8
0
  6
CONTINUOUS
 10
4.563240
 20
9.241320
  0
VERTEX
  8
0
  6
CONTINUOUS
 10
4.522760
 20
9.228560
  0
VERTEX
  8
0
  6
CONTINUOUS
 10
4.477000
 20
9.220640
  0
VERTEX
  8
0
  6
CONTINUOUS
 10
4.443560
 20
9.218000
  0
VERTEX
  8
0
  6
CONTINUOUS
 10
4.425960
 20
9.218000
  0
VERTEX
  8
0
  6
CONTINUOUS
 10
4.425960
 20
9.072360
  0
VERTEX
  8
0
  6
CONTINUOUS
 10
4.358640
 20
9.053000
  0
VERTEX
  8
0
  6
CONTINUOUS
 10
4.321680
 20
9.039360
  0
VERTEX
  8
0
  6
CONTINUOUS
 10
4.290440
 20
9.023520
  0
VERTEX
  8
0
  6
CONTINUOUS
 10
4.264040
 20
9.003720
  0
VERTEX
  8
0
  6
CONTINUOUS
 10
4.241600
 20
8.978640
  0
VERTEX
  8
0
  6
CONTINUOUS
 10
4.223120
 20
8.946080
  0
VERTEX
  8
0
  6
CONTINUOUS
 10
4.206840
 20
8.904720
  0
VERTEX
  8
0
  6
CONTINUOUS
 10
4.193640
 20
8.854560
  0
VERTEX
  8
0
  6
CONTINUOUS
 10
4.171640
 20
8.752040
  0
VERTEX
  8
0
  6
CONTINUOUS
 10
4.164600
 20
8.727840
  0
VERTEX
  8
0
  6
CONTINUOUS
 10
4.151400
 20
8.693520
  0
VERTEX
  8
0
  6
CONTINUOUS
 10
4.133360
 20
8.661840
  0
VERTEX
  8
0
  6
CONTINUOUS
 10
4.117520
 20
8.642920
  0
VERTEX
  8
0
  6
CONTINUOUS
 10
4.098600
 20
8.625320
  0
VERTEX
  8
0
  6
CONTINUOUS
 10
4.075720
 20
8.610360
  0
VERTEX
  8
0
  6
CONTINUOUS
 10
4.048440
 20
8.597160
  0
VERTEX
  8
0
  6
CONTINUOUS
 10
4.016760
 20
8.586160
  0
VERTEX
  8
0
  6
CONTINUOUS
 10
3.979360
 20
8.578240
  0
VERTEX
  8
0
  6
CONTINUOUS
 10
3.936680
 20
8.572960
  0
VERTEX
  8
0
  6
CONTINUOUS
 10
3.936680
 20
8.437000
  0
VERTEX
  8
0
  6
CONTINUOUS
 10
3.667840
 20
8.437000
  0
SEQEND
  8
0
  0
POLYLINE
  8
0
  6
CONTINUOUS
 66
     1
 40
0.000000
 41
0.000000
  0
VERTEX
  8
0
  6
CONTINUOUS
 10
4.805240
 20
0.813560
  0
VERTEX
  8
0
  6
CONTINUOUS
 10
4.805240
 20
2.480720
  0
VERTEX
  8
0
  6
CONTINUOUS
 10
3.504600
 20
2.480720
  0
VERTEX
  8
0
  6
CONTINUOUS
 10
3.503720
 20
2.098360
  0
VERTEX
  8
0
  6
CONTINUOUS
 10
3.550360
 20
2.083400
  0
VERTEX
  8
0
  6
CONTINUOUS
 10
3.590840
 20
2.067560
  0
VERTEX
  8
0
  6
CONTINUOUS
 10
3.641880
 20
2.041160
  0
VERTEX
  8
0
  6
CONTINUOUS
 10
3.681480
 20
2.012560
  0
VERTEX
  8
0
  6
CONTINUOUS
 10
3.703040
 20
1.992760
  0
VERTEX
  8
0
  6
CONTINUOUS
 10
3.727680
 20
1.961960
  0
VERTEX
  8
0
  6
CONTINUOUS
 10
3.744840
 20
1.931160
  0
VERTEX
  8
0
  6
CONTINUOUS
 10
3.752760
 20
1.910480
  0
VERTEX
  8
0
  6
CONTINUOUS
 10
3.758480
 20
1.889800
  0
VERTEX
  8
0
  6
CONTINUOUS
 10
3.762440
 20
1.869560
  0
VERTEX
  8
0
  6
CONTINUOUS
 10
3.765960
 20
1.831280
  0
VERTEX
  8
0
  6
CONTINUOUS
 10
3.767280
 20
1.779360
  0
VERTEX
  8
0
  6
CONTINUOUS
 10
3.770800
 20
1.762200
  0
VERTEX
  8
0
  6
CONTINUOUS
 10
3.776080
 20
1.745040
  0
VERTEX
  8
0
  6
CONTINUOUS
 10
3.783560
 20
1.727440
  0
VERTEX
  8
0
  6
CONTINUOUS
 10
3.804680
 20
1.693560
  0
VERTEX
  8
0
  6
CONTINUOUS
 10
3.818760
 20
1.677720
  0
VERTEX
  8
0
  6
CONTINUOUS
 10
3.844280
 20
1.654840
  0
VERTEX
  8
0
  6
CONTINUOUS
 10
3.874200
 20
1.634600
  0
VERTEX
  8
0
  6
CONTINUOUS
 10
3.909840
 20
1.617880
  0
VERTEX
  8
0
  6
CONTINUOUS
 10
3.950320
 20
1.605120
  0
VERTEX
  8
0
  6
CONTINUOUS
 10
3.996080
 20
1.597200
  0
VERTEX
  8
0
  6
CONTINUOUS
 10
4.029520
 20
1.594560
  0
VERTEX
  8
0
  6
CONTINUOUS
 10
4.047120
 20
1.594560
  0
VERTEX
  8
0
  6
CONTINUOUS
 10
4.047120
 20
1.448920
  0
VERTEX
  8
0
  6
CONTINUOUS
 10
4.114880
 20
1.429560
  0
VERTEX
  8
0
  6
CONTINUOUS
 10
4.151840
 20
1.416360
  0
VERTEX
  8
0
  6
CONTINUOUS
 10
4.183080
 20
1.400520
  0
VERTEX
  8
0
  6
CONTINUOUS
 10
4.209480
 20
1.380720
  0
VERTEX
  8
0
  6
CONTINUOUS
 10
4.231480
 20
1.355200
  0
VERTEX
  8
0
  6
CONTINUOUS
 10
4.241600
 20
1.339800
  0
VERTEX
  8
0
  6
CONTINUOUS
 10
4.258760
 20
1.303280
  0
VERTEX
  8
0
  6
CONTINUOUS
 10
4.273280
 20
1.257080
  0
VERTEX
  8
0
  6
CONTINUOUS
 10
4.301440
 20
1.129040
  0
VERTEX
  8
0
  6
CONTINUOUS
 10
4.316840
 20
1.081520
  0
VERTEX
  8
0
  6
CONTINUOUS
 10
4.333120
 20
1.048960
  0
VERTEX
  8
0
  6
CONTINUOUS
 10
4.355560
 20
1.019480
  0
VERTEX
  8
0
  6
CONTINUOUS
 10
4.385480
 20
0.994400
  0
VERTEX
  8
0
  6
CONTINUOUS
 10
4.424640
 20
0.973720
  0
VERTEX
  8
0
  6
CONTINUOUS
 10
4.456760
 20
0.963160
  0
VERTEX
  8
0
  6
CONTINUOUS
 10
4.494160
 20
0.955240
  0
VERTEX
  8
0
  6
CONTINUOUS
 10
4.536840
 20
0.949960
  0
VERTEX
  8
0
  6
CONTINUOUS
 10
4.536840
 20
0.813560
  0
VERTEX
  8
0
  6
CONTINUOUS
 10
4.805240
 20
0.813560
  0
SEQEND
  8
0
  0
POLYLINE
  8
0
  6
CONTINUOUS
 66
     1
 40
0.000000
 41
0.000000
  0
VERTEX
  8
0
  6
CONTINUOUS
 10
3.630000
 20
3.020600
  0
VERTEX
  8
0
  6
CONTINUOUS
 10
3.630000
 20
4.687760
  0
VERTEX
  8
0
  6
CONTINUOUS
 10
4.930640
 20
4.687760
  0
VERTEX
  8
0
  6
CONTINUOUS
 10
4.931520
 20
4.305400
  0
VERTEX
  8
0
  6
CONTINUOUS
 10
4.885320
 20
4.290440
  0
VERTEX
  8
0
  6
CONTINUOUS
 10
4.844400
 20
4.274600
  0
VERTEX
  8
0
  6
CONTINUOUS
 10
4.793800
 20
4.248200
  0
VERTEX
  8
0
  6
CONTINUOUS
 10
4.753760
 20
4.219600
  0
VERTEX
  8
0
  6
CONTINUOUS
 10
4.723400
 20
4.189680
  0
VERTEX
  8
0
  6
CONTINUOUS
 10
4.701400
 20
4.158880
  0
VERTEX
  8
0
  6
CONTINUOUS
 10
4.690400
 20
4.138200
  0
VERTEX
  8
0
  6
CONTINUOUS
 10
4.682480
 20
4.117520
  0
VERTEX
  8
0
  6
CONTINUOUS
 10
4.676760
 20
4.096840
  0
VERTEX
  8
0
  6
CONTINUOUS
 10
4.672800
 20
4.076600
  0
VERTEX
  8
0
  6
CONTINUOUS
 10
4.669280
 20
4.038320
  0
VERTEX
  8
0
  6
CONTINUOUS
 10
4.667960
 20
3.986400
  0
VERTEX
  8
0
  6
CONTINUOUS
 10
4.664440
 20
3.969240
  0
VERTEX
  8
0
  6
CONTINUOUS
 10
4.659160
 20
3.952080
  0
VERTEX
  8
0
  6
CONTINUOUS
 10
4.651680
 20
3.934920
  0
VERTEX
  8
0
  6
CONTINUOUS
 10
4.630560
 20
3.901040
  0
VERTEX
  8
0
  6
CONTINUOUS
 10
4.616480
 20
3.884760
  0
VERTEX
  8
0
  6
CONTINUOUS
 10
4.590960
 20
3.861880
  0
VERTEX
  8
0
  6
CONTINUOUS
 10
4.561040
 20
3.842080
  0
VERTEX
  8
0
  6
CONTINUOUS
 10
4.525400
 20
3.825360
  0
VERTEX
  8
0
  6
CONTINUOUS
 10
4.499000
 20
3.816120
  0
VERTEX
  8
0
  6
CONTINUOUS
 10
4.455000
 20
3.806440
  0
VERTEX
  8
0
  6
CONTINUOUS
 10
4.422880
 20
3.802920
  0
VERTEX
  8
0
  6
CONTINUOUS
 10
4.388120
 20
3.801600
  0
VERTEX
  8
0
  6
CONTINUOUS
 10
4.388120
 20
3.655960
  0
VERTEX
  8
0
  6
CONTINUOUS
 10
4.320800
 20
3.636600
  0
VERTEX
  8
0
  6
CONTINUOUS
 10
4.283840
 20
3.623400
  0
VERTEX
  8
0
  6
CONTINUOUS
 10
4.252600
 20
3.607560
  0
VERTEX
  8
0
  6
CONTINUOUS
 10
4.226200
 20
3.587760
  0
VERTEX
  8
0
  6
CONTINUOUS
 10
4.214320
 20
3.575880
  0
VERTEX
  8
0
  6
CONTINUOUS
 10
4.194080
 20
3.546840
  0
VERTEX
  8
0
  6
CONTINUOUS
 10
4.176920
 20
3.510320
  0
VERTEX
  8
0
  6
CONTINUOUS
 10
4.161960
 20
3.464120
  0
VERTEX
  8
0
  6
CONTINUOUS
 10
4.133800
 20
3.336080
  0
VERTEX
  8
0
  6
CONTINUOUS
 10
4.118400
 20
3.288560
  0
VERTEX
  8
0
  6
CONTINUOUS
 10
4.102120
 20
3.256000
  0
VERTEX
  8
0
  6
CONTINUOUS
 10
4.079680
 20
3.226520
  0
VERTEX
  8
0
  6
CONTINUOUS
 10
4.060760
 20
3.209360
  0
VERTEX
  8
0
  6
CONTINUOUS
 10
4.037880
 20
3.193960
  0
VERTEX
  8
0
  6
CONTINUOUS
 10
4.010600
 20
3.180760
  0
VERTEX
  8
0
  6
CONTINUOUS
 10
3.978920
 20
3.170200
  0
VERTEX
  8
0
  6
CONTINUOUS
 10
3.941520
 20
3.162280
  0
VERTEX
  8
0
  6
CONTINUOUS
 10
3.898840
 20
3.157000
  0
VERTEX
  8
0
  6
CONTINUOUS
 10
3.898840
 20
3.020600
  0
VERTEX
  8
0
  6
CONTINUOUS
 10
3.630000
 20
3.020600
  0
SEQEND
  8
0
  0
SOLID
  8
0
 62
    15
 10
4.213440
 20
6.057480
 11
4.865080
 21
5.677760
 12
4.173400
 22
6.044720
 13
4.825040
 23
5.665000
  0
POLYLINE
  8
0
  6
CONTINUOUS
 66
     1
 40
0.000000
 41
0.000000
  0
VERTEX
  8
0
  6
CONTINUOUS
 10
4.213440
 20
6.057480
  0
VERTEX
  8
0
  6
CONTINUOUS
 10
4.865080
 20
5.677760
  0
VERTEX
  8
0
  6
CONTINUOUS
 10
4.825040
 20
5.665000
  0
VERTEX
  8
0
  6
CONTINUOUS
 10
4.173400
 20
6.044720
  0
VERTEX
  8
0
  6
CONTINUOUS
 10
4.213440
 20
6.057480
  0
SEQEND
  8
0
  0
SOLID
  8
0
 62
    15
 10
4.803480
 20
6.719680
 11
5.455120
 21
6.339960
 12
4.716800
 22
6.688880
 13
5.368000
 23
6.308720
  0
POLYLINE
  8
0
  6
CONTINUOUS
 66
     1
 40
0.000000
 41
0.000000
  0
VERTEX
  8
0
  6
CONTINUOUS
 10
4.803480
 20
6.719680
  0
VERTEX
  8
0
  6
CONTINUOUS
 10
5.455120
 20
6.339960
  0
VERTEX
  8
0
  6
CONTINUOUS
 10
5.368000
 20
6.308720
  0
VERTEX
  8
0
  6
CONTINUOUS
 10
4.716800
 20
6.688880
  0
VERTEX
  8
0
  6
CONTINUOUS
 10
4.803480
 20
6.719680
  0
SEQEND
  8
0
  0
SOLID
  8
0
 62
    15
 10
4.716800
 20
6.688880
 11
5.368000
 21
6.308720
 12
4.651240
 22
6.653240
 13
5.302880
 23
6.273080
  0
POLYLINE
  8
0
  6
CONTINUOUS
 66
     1
 40
0.000000
 41
0.000000
  0
VERTEX
  8
0
  6
CONTINUOUS
 10
4.716800
 20
6.688880
  0
VERTEX
  8
0
  6
CONTINUOUS
 10
5.368000
 20
6.308720
  0
VERTEX
  8
0
  6
CONTINUOUS
 10
5.302880
 20
6.273080
  0
VERTEX
  8
0
  6
CONTINUOUS
 10
4.651240
 20
6.653240
  0
VERTEX
  8
0
  6
CONTINUOUS
 10
4.716800
 20
6.688880
  0
SEQEND
  8
0
  0
SOLID
  8
0
 62
    15
 10
4.651240
 20
6.653240
 11
5.302880
 21
6.273080
 12
4.604600
 22
6.614080
 13
5.255800
 23
6.234360
  0
POLYLINE
  8
0
  6
CONTINUOUS
 66
     1
 40
0.000000
 41
0.000000
  0
VERTEX
  8
0
  6
CONTINUOUS
 10
4.651240
 20
6.653240
  0
VERTEX
  8
0
  6
CONTINUOUS
 10
5.302880
 20
6.273080
  0
VERTEX
  8
0
  6
CONTINUOUS
 10
5.255800
 20
6.234360
  0
VERTEX
  8
0
  6
CONTINUOUS
 10
4.604600
 20
6.614080
  0
VERTEX
  8
0
  6
CONTINUOUS
 10
4.651240
 20
6.653240
  0
SEQEND
  8
0
  0
SOLID
  8
0
 62
    15
 10
4.604600
 20
6.614080
 11
5.255800
 21
6.234360
 12
4.573360
 22
6.573160
 13
5.224560
 23
6.193440
  0
POLYLINE
  8
0
  6
CONTINUOUS
 66
     1
 40
0.000000
 41
0.000000
  0
VERTEX
  8
0
  6
CONTINUOUS
 10
4.604600
 20
6.614080
  0
VERTEX
  8
0
  6
CONTINUOUS
 10
5.255800
 20
6.234360
  0
VERTEX
  8
0
  6
CONTINUOUS
 10
5.224560
 20
6.193440
  0
VERTEX
  8
0
  6
CONTINUOUS
 10
4.573360
 20
6.573160
  0
VERTEX
  8
0
  6
CONTINUOUS
 10
4.604600
 20
6.614080
  0
SEQEND
  8
0
  0
SOLID
  8
0
 62
    15
 10
4.573360
 20
6.573160
 11
5.224560
 21
6.193440
 12
4.554440
 22
6.531800
 13
5.206080
 23
6.152080
  0
POLYLINE
  8
0
  6
CONTINUOUS
 66
     1
 40
0.000000
 41
0.000000
  0
VERTEX
  8
0
  6
CONTINUOUS
 10
4.573360
 20
6.573160
  0
VERTEX
  8
0
  6
CONTINUOUS
 10
5.224560
 20
6.193440
  0
VERTEX
  8
0
  6
CONTINUOUS
 10
5.206080
 20
6.152080
  0
VERTEX
  8
0
  6
CONTINUOUS
 10
4.554440
 20
6.531800
  0
VERTEX
  8
0
  6
CONTINUOUS
 10
4.573360
 20
6.573160
  0
SEQEND
  8
0
  0
SOLID
  8
0
 62
    15
 10
4.554440
 20
6.531800
 11
5.206080
 21
6.152080
 12
4.545200
 22
6.491320
 13
5.196400
 23
6.111160
  0
POLYLINE
  8
0
  6
CONTINUOUS
 66
     1
 40
0.000000
 41
0.000000
  0
VERTEX
  8
0
  6
CONTINUOUS
 10
4.554440
 20
6.531800
  0
VERTEX
  8
0
  6
CONTINUOUS
 10
5.206080
 20
6.152080
  0
VERTEX
  8
0
  6
CONTINUOUS
 10
5.196400
 20
6.111160
  0
VERTEX
  8
0
  6
CONTINUOUS
 10
4.545200
 20
6.491320
  0
VERTEX
  8
0
  6
CONTINUOUS
 10
4.554440
 20
6.531800
  0
SEQEND
  8
0
  0
SOLID
  8
0
 62
    15
 10
4.545200
 20
6.491320
 11
5.196400
 21
6.111160
 12
4.541680
 22
6.452600
 13
5.192880
 23
6.072880
  0
POLYLINE
  8
0
  6
CONTINUOUS
 66
     1
 40
0.000000
 41
0.000000
  0
VERTEX
  8
0
  6
CONTINUOUS
 10
4.545200
 20
6.491320
  0
VERTEX
  8
0
  6
CONTINUOUS
 10
5.196400
 20
6.111160
  0
VERTEX
  8
0
  6
CONTINUOUS
 10
5.192880
 20
6.072880
  0
VERTEX
  8
0
  6
CONTINUOUS
 10
4.541680
 20
6.452600
  0
VERTEX
  8
0
  6
CONTINUOUS
 10
4.545200
 20
6.491320
  0
SEQEND
  8
0
  0
SOLID
  8
0
 62
    15
 10
4.541680
 20
6.452600
 11
5.192880
 21
6.072880
 12
4.541240
 22
6.417840
 13
5.192440
 23
6.037680
  0
POLYLINE
  8
0
  6
CONTINUOUS
 66
     1
 40
0.000000
 41
0.000000
  0
VERTEX
  8
0
  6
CONTINUOUS
 10
4.541680
 20
6.452600
  0
VERTEX
  8
0
  6
CONTINUOUS
 10
5.192880
 20
6.072880
  0
VERTEX
  8
0
  6
CONTINUOUS
 10
5.192440
 20
6.037680
  0
VERTEX
  8
0
  6
CONTINUOUS
 10
4.541240
 20
6.417840
  0
VERTEX
  8
0
  6
CONTINUOUS
 10
4.541680
 20
6.452600
  0
SEQEND
  8
0
  0
SOLID
  8
0
 62
    15
 10
4.541240
 20
6.417840
 11
5.192440
 21
6.037680
 12
4.536840
 22
6.383960
 13
5.188040
 23
6.004240
  0
POLYLINE
  8
0
  6
CONTINUOUS
 66
     1
 40
0.000000
 41
0.000000
  0
VERTEX
  8
0
  6
CONTINUOUS
 10
4.541240
 20
6.417840
  0
VERTEX
  8
0
  6
CONTINUOUS
 10
5.192440
 20
6.037680
  0
VERTEX
  8
0
  6
CONTINUOUS
 10
5.188040
 20
6.004240
  0
VERTEX
  8
0
  6
CONTINUOUS
 10
4.536840
 20
6.383960
  0
VERTEX
  8
0
  6
CONTINUOUS
 10
4.541240
 20
6.417840
  0
SEQEND
  8
0
  0
SOLID
  8
0
 62
    15
 10
4.536840
 20
6.383960
 11
5.188040
 21
6.004240
 12
4.524080
 22
6.349200
 13
5.175280
 23
5.969480
  0
POLYLINE
  8
0
  6
CONTINUOUS
 66
     1
 40
0.000000
 41
0.000000
  0
VERTEX
  8
0
  6
CONTINUOUS
 10
4.536840
 20
6.383960
  0
VERTEX
  8
0
  6
CONTINUOUS
 10
5.188040
 20
6.004240
  0
VERTEX
  8
0
  6
CONTINUOUS
 10
5.175280
 20
5.969480
  0
VERTEX
  8
0
  6
CONTINUOUS
 10
4.524080
 20
6.349200
  0
VERTEX
  8
0
  6
CONTINUOUS
 10
4.536840
 20
6.383960
  0
SEQEND
  8
0
  0
SOLID
  8
0
 62
    15
 10
4.524080
 20
6.349200
 11
5.175280
 21
5.969480
 12
4.502520
 22
6.315320
 13
5.153720
 23
5.935600
  0
POLYLINE
  8
0
  6
CONTINUOUS
 66
     1
 40
0.000000
 41
0.000000
  0
VERTEX
  8
0
  6
CONTINUOUS
 10
4.524080
 20
6.349200
  0
VERTEX
  8
0
  6
CONTINUOUS
 10
5.175280
 20
5.969480
  0
VERTEX
  8
0
  6
CONTINUOUS
 10
5.153720
 20
5.935600
  0
VERTEX
  8
0
  6
CONTINUOUS
 10
4.502520
 20
6.315320
  0
VERTEX
  8
0
  6
CONTINUOUS
 10
4.524080
 20
6.349200
  0
SEQEND
  8
0
  0
SOLID
  8
0
 62
    15
 10
4.502520
 20
6.315320
 11
5.153720
 21
5.935600
 12
4.472160
 22
6.283640
 13
5.123800
 23
5.903920
  0
POLYLINE
  8
0
  6
CONTINUOUS
 66
     1
 40
0.000000
 41
0.000000
  0
VERTEX
  8
0
  6
CONTINUOUS
 10
4.502520
 20
6.315320
  0
VERTEX
  8
0
  6
CONTINUOUS
 10
5.153720
 20
5.935600
  0
VERTEX
  8
0
  6
CONTINUOUS
 10
5.123800
 20
5.903920
  0
VERTEX
  8
0
  6
CONTINUOUS
 10
4.472160
 20
6.283640
  0
VERTEX
  8
0
  6
CONTINUOUS
 10
4.502520
 20
6.315320
  0
SEQEND
  8
0
  0
SOLID
  8
0
 62
    15
 10
4.472160
 20
6.283640
 11
5.123800
 21
5.903920
 12
4.433000
 22
6.256360
 13
5.084200
 23
5.876640
  0
POLYLINE
  8
0
  6
CONTINUOUS
 66
     1
 40
0.000000
 41
0.000000
  0
VERTEX
  8
0
  6
CONTINUOUS
 10
4.472160
 20
6.283640
  0
VERTEX
  8
0
  6
CONTINUOUS
 10
5.123800
 20
5.903920
  0
VERTEX
  8
0
  6
CONTINUOUS
 10
5.084200
 20
5.876640
  0
VERTEX
  8
0
  6
CONTINUOUS
 10
4.433000
 20
6.256360
  0
VERTEX
  8
0
  6
CONTINUOUS
 10
4.472160
 20
6.283640
  0
SEQEND
  8
0
  0
SOLID
  8
0
 62
    15
 10
4.433000
 20
6.256360
 11
5.084200
 21
5.876640
 12
4.384600
 22
6.234800
 13
5.036240
 23
5.855080
  0
POLYLINE
  8
0
  6
CONTINUOUS
 66
     1
 40
0.000000
 41
0.000000
  0
VERTEX
  8
0
  6
CONTINUOUS
 10
4.433000
 20
6.256360
  0
VERTEX
  8
0
  6
CONTINUOUS
 10
5.084200
 20
5.876640
  0
VERTEX
  8
0
  6
CONTINUOUS
 10
5.036240
 20
5.855080
  0
VERTEX
  8
0
  6
CONTINUOUS
 10
4.384600
 20
6.234800
  0
VERTEX
  8
0
  6
CONTINUOUS
 10
4.433000
 20
6.256360
  0
SEQEND
  8
0
  0
SOLID
  8
0
 62
    15
 10
4.384600
 20
6.234800
 11
5.036240
 21
5.855080
 12
4.326960
 22
6.220720
 13
4.978600
 23
5.841000
  0
POLYLINE
  8
0
  6
CONTINUOUS
 66
     1
 40
0.000000
 41
0.000000
  0
VERTEX
  8
0
  6
CONTINUOUS
 10
4.384600
 20
6.234800
  0
VERTEX
  8
0
  6
CONTINUOUS
 10
5.036240
 20
5.855080
  0
VERTEX
  8
0
  6
CONTINUOUS
 10
4.978600
 20
5.841000
  0
VERTEX
  8
0
  6
CONTINUOUS
 10
4.326960
 20
6.220720
  0
VERTEX
  8
0
  6
CONTINUOUS
 10
4.384600
 20
6.234800
  0
SEQEND
  8
0
  0
SOLID
  8
0
 62
    15
 10
4.326960
 20
6.220720
 11
4.978600
 21
5.841000
 12
4.260080
 22
6.216320
 13
4.911720
 23
5.836160
  0
POLYLINE
  8
0
  6
CONTINUOUS
 66
     1
 40
0.000000
 41
0.000000
  0
VERTEX
  8
0
  6
CONTINUOUS
 10
4.326960
 20
6.220720
  0
VERTEX
  8
0
  6
CONTINUOUS
 10
4.978600
 20
5.841000
  0
VERTEX
  8
0
  6
CONTINUOUS
 10
4.911720
 20
5.836160
  0
VERTEX
  8
0
  6
CONTINUOUS
 10
4.260080
 20
6.216320
  0
VERTEX
  8
0
  6
CONTINUOUS
 10
4.326960
 20
6.220720
  0
SEQEND
  8
0
  0
SOLID
  8
0
 62
    15
 10
4.260080
 20
6.216320
 11
4.911720
 21
5.836160
 12
4.260080
 22
6.070680
 13
4.911720
 23
5.690520
  0
POLYLINE
  8
0
  6
CONTINUOUS
 66
     1
 40
0.000000
 41
0.000000
  0
VERTEX
  8
0
  6
CONTINUOUS
 10
4.260080
 20
6.216320
  0
VERTEX
  8
0
  6
CONTINUOUS
 10
4.911720
 20
5.836160
  0
VERTEX
  8
0
  6
CONTINUOUS
 10
4.911720
 20
5.690520
  0
VERTEX
  8
0
  6
CONTINUOUS
 10
4.260080
 20
6.070680
  0
VERTEX
  8
0
  6
CONTINUOUS
 10
4.260080
 20
6.216320
  0
SEQEND
  8
0
  0
SOLID
  8
0
 62
    15
 10
4.260080
 20
6.070680
 11
4.911720
 21
5.690520
 12
4.213440
 22
6.057480
 13
4.865080
 23
5.677760
  0
POLYLINE
  8
0
  6
CONTINUOUS
 66
     1
 40
0.000000
 41
0.000000
  0
VERTEX
  8
0
  6
CONTINUOUS
 10
4.260080
 20
6.070680
  0
VERTEX
  8
0
  6
CONTINUOUS
 10
4.911720
 20
5.690520
  0
VERTEX
  8
0
  6
CONTINUOUS
 10
4.865080
 20
5.677760
  0
VERTEX
  8
0
  6
CONTINUOUS
 10
4.213440
 20
6.057480
  0
VERTEX
  8
0
  6
CONTINUOUS
 10
4.260080
 20
6.070680
  0
SEQEND
  8
0
  0
SOLID
  8
0
 62
    15
 10
4.803040
 20
7.102040
 11
5.454240
 21
6.722320
 12
4.803480
 22
6.719680
 13
5.455120
 23
6.339960
  0
POLYLINE
  8
0
  6
CONTINUOUS
 66
     1
 40
0.000000
 41
0.000000
  0
VERTEX
  8
0
  6
CONTINUOUS
 10
4.803040
 20
7.102040
  0
VERTEX
  8
0
  6
CONTINUOUS
 10
5.454240
 20
6.722320
  0
VERTEX
  8
0
  6
CONTINUOUS
 10
5.455120
 20
6.339960
  0
VERTEX
  8
0
  6
CONTINUOUS
 10
4.803480
 20
6.719680
  0
VERTEX
  8
0
  6
CONTINUOUS
 10
4.803040
 20
7.102040
  0
SEQEND
  8
0
  0
SOLID
  8
0
 62
    15
 10
4.173400
 20
6.044720
 11
4.825040
 21
5.665000
 12
4.139520
 22
6.030200
 13
4.790720
 23
5.650480
  0
POLYLINE
  8
0
  6
CONTINUOUS
 66
     1
 40
0.000000
 41
0.000000
  0
VERTEX
  8
0
  6
CONTINUOUS
 10
4.173400
 20
6.044720
  0
VERTEX
  8
0
  6
CONTINUOUS
 10
4.825040
 20
5.665000
  0
VERTEX
  8
0
  6
CONTINUOUS
 10
4.790720
 20
5.650480
  0
VERTEX
  8
0
  6
CONTINUOUS
 10
4.139520
 20
6.030200
  0
VERTEX
  8
0
  6
CONTINUOUS
 10
4.173400
 20
6.044720
  0
SEQEND
  8
0
  0
SOLID
  8
0
 62
    15
 10
4.139520
 20
6.030200
 11
4.790720
 21
5.650480
 12
4.110920
 22
6.012600
 13
4.762120
 23
5.632880
  0
POLYLINE
  8
0
  6
CONTINUOUS
 66
     1
 40
0.000000
 41
0.000000
  0
VERTEX
  8
0
  6
CONTINUOUS
 10
4.139520
 20
6.030200
  0
VERTEX
  8
0
  6
CONTINUOUS
 10
4.790720
 20
5.650480
  0
VERTEX
  8
0
  6
CONTINUOUS
 10
4.762120
 20
5.632880
  0
VERTEX
  8
0
  6
CONTINUOUS
 10
4.110920
 20
6.012600
  0
VERTEX
  8
0
  6
CONTINUOUS
 10
4.139520
 20
6.030200
  0
SEQEND
  8
0
  0
SOLID
  8
0
 62
    15
 10
4.110920
 20
6.012600
 11
4.762120
 21
5.632880
 12
4.086280
 22
5.990160
 13
4.737920
 23
5.610440
  0
POLYLINE
  8
0
  6
CONTINUOUS
 66
     1
 40
0.000000
 41
0.000000
  0
VERTEX
  8
0
  6
CONTINUOUS
 10
4.110920
 20
6.012600
  0
VERTEX
  8
0
  6
CONTINUOUS
 10
4.762120
 20
5.632880
  0
VERTEX
  8
0
  6
CONTINUOUS
 10
4.737920
 20
5.610440
  0
VERTEX
  8
0
  6
CONTINUOUS
 10
4.086280
 20
5.990160
  0
VERTEX
  8
0
  6
CONTINUOUS
 10
4.110920
 20
6.012600
  0
SEQEND
  8
0
  0
SOLID
  8
0
 62
    15
 10
4.086280
 20
5.990160
 11
4.737920
 21
5.610440
 12
4.066040
 22
5.961560
 13
4.717240
 23
5.581840
  0
POLYLINE
  8
0
  6
CONTINUOUS
 66
     1
 40
0.000000
 41
0.000000
  0
VERTEX
  8
0
  6
CONTINUOUS
 10
4.086280
 20
5.990160
  0
VERTEX
  8
0
  6
CONTINUOUS
 10
4.737920
 20
5.610440
  0
VERTEX
  8
0
  6
CONTINUOUS
 10
4.717240
 20
5.581840
  0
VERTEX
  8
0
  6
CONTINUOUS
 10
4.066040
 20
5.961560
  0
VERTEX
  8
0
  6
CONTINUOUS
 10
4.086280
 20
5.990160
  0
SEQEND
  8
0
  0
SOLID
  8
0
 62
    15
 10
4.066040
 20
5.961560
 11
4.717240
 21
5.581840
 12
4.048880
 22
5.925040
 13
4.700080
 23
5.544880
  0
POLYLINE
  8
0
  6
CONTINUOUS
 66
     1
 40
0.000000
 41
0.000000
  0
VERTEX
  8
0
  6
CONTINUOUS
 10
4.066040
 20
5.961560
  0
VERTEX
  8
0
  6
CONTINUOUS
 10
4.717240
 20
5.581840
  0
VERTEX
  8
0
  6
CONTINUOUS
 10
4.700080
 20
5.544880
  0
VERTEX
  8
0
  6
CONTINUOUS
 10
4.048880
 20
5.925040
  0
VERTEX
  8
0
  6
CONTINUOUS
 10
4.066040
 20
5.961560
  0
SEQEND
  8
0
  0
SOLID
  8
0
 62
    15
 10
4.048880
 20
5.925040
 11
4.700080
 21
5.544880
 12
4.033920
 22
5.878840
 13
4.685560
 23
5.498680
  0
POLYLINE
  8
0
  6
CONTINUOUS
 66
     1
 40
0.000000
 41
0.000000
  0
VERTEX
  8
0
  6
CONTINUOUS
 10
4.048880
 20
5.925040
  0
VERTEX
  8
0
  6
CONTINUOUS
 10
4.700080
 20
5.544880
  0
VERTEX
  8
0
  6
CONTINUOUS
 10
4.685560
 20
5.498680
  0
VERTEX
  8
0
  6
CONTINUOUS
 10
4.033920
 20
5.878840
  0
VERTEX
  8
0
  6
CONTINUOUS
 10
4.048880
 20
5.925040
  0
SEQEND
  8
0
  0
SOLID
  8
0
 62
    15
 10
4.033920
 20
5.878840
 11
4.685560
 21
5.498680
 12
4.022040
 22
5.826920
 13
4.673680
 23
5.446760
  0
POLYLINE
  8
0
  6
CONTINUOUS
 66
     1
 40
0.000000
 41
0.000000
  0
VERTEX
  8
0
  6
CONTINUOUS
 10
4.033920
 20
5.878840
  0
VERTEX
  8
0
  6
CONTINUOUS
 10
4.685560
 20
5.498680
  0
VERTEX
  8
0
  6
CONTINUOUS
 10
4.673680
 20
5.446760
  0
VERTEX
  8
0
  6
CONTINUOUS
 10
4.022040
 20
5.826920
  0
VERTEX
  8
0
  6
CONTINUOUS
 10
4.033920
 20
5.878840
  0
SEQEND
  8
0
  0
SOLID
  8
0
 62
    15
 10
4.022040
 20
5.826920
 11
4.673680
 21
5.446760
 12
4.017200
 22
5.800960
 13
4.668400
 23
5.421240
  0
POLYLINE
  8
0
  6
CONTINUOUS
 66
     1
 40
0.000000
 41
0.000000
  0
VERTEX
  8
0
  6
CONTINUOUS
 10
4.022040
 20
5.826920
  0
VERTEX
  8
0
  6
CONTINUOUS
 10
4.673680
 20
5.446760
  0
VERTEX
  8
0
  6
CONTINUOUS
 10
4.668400
 20
5.421240
  0
VERTEX
  8
0
  6
CONTINUOUS
 10
4.017200
 20
5.800960
  0
VERTEX
  8
0
  6
CONTINUOUS
 10
4.022040
 20
5.826920
  0
SEQEND
  8
0
  0
SOLID
  8
0
 62
    15
 10
4.017200
 20
5.800960
 11
4.668400
 21
5.421240
 12
4.011480
 22
5.775440
 13
4.663120
 23
5.395720
  0
POLYLINE
  8
0
  6
CONTINUOUS
 66
     1
 40
0.000000
 41
0.000000
  0
VERTEX
  8
0
  6
CONTINUOUS
 10
4.017200
 20
5.800960
  0
VERTEX
  8
0
  6
CONTINUOUS
 10
4.668400
 20
5.421240
  0
VERTEX
  8
0
  6
CONTINUOUS
 10
4.663120
 20
5.395720
  0
VERTEX
  8
0
  6
CONTINUOUS
 10
4.011480
 20
5.775440
  0
VERTEX
  8
0
  6
CONTINUOUS
 10
4.017200
 20
5.800960
  0
SEQEND
  8
0
  0
SOLID
  8
0
 62
    15
 10
4.011480
 20
5.775440
 11
4.663120
 21
5.395720
 12
3.999160
 22
5.726160
 13
4.650360
 23
5.346440
  0
POLYLINE
  8
0
  6
CONTINUOUS
 66
     1
 40
0.000000
 41
0.000000
  0
VERTEX
  8
0
  6
CONTINUOUS
 10
4.011480
 20
5.775440
  0
VERTEX
  8
0
  6
CONTINUOUS
 10
4.663120
 20
5.395720
  0
VERTEX
  8
0
  6
CONTINUOUS
 10
4.650360
 20
5.346440
  0
VERTEX
  8
0
  6
CONTINUOUS
 10
3.999160
 20
5.726160
  0
VERTEX
  8
0
  6
CONTINUOUS
 10
4.011480
 20
5.775440
  0
SEQEND
  8
0
  0
SOLID
  8
0
 62
    15
 10
3.999160
 20
5.726160
 11
4.650360
 21
5.346440
 12
3.980240
 22
5.680840
 13
4.631440
 23
5.301120
  0
POLYLINE
  8
0
  6
CONTINUOUS
 66
     1
 40
0.000000
 41
0.000000
  0
VERTEX
  8
0
  6
CONTINUOUS
 10
3.999160
 20
5.726160
  0
VERTEX
  8
0
  6
CONTINUOUS
 10
4.650360
 20
5.346440
  0
VERTEX
  8
0
  6
CONTINUOUS
 10
4.631440
 20
5.301120
  0
VERTEX
  8
0
  6
CONTINUOUS
 10
3.980240
 20
5.680840
  0
VERTEX
  8
0
  6
CONTINUOUS
 10
3.999160
 20
5.726160
  0
SEQEND
  8
0
  0
SOLID
  8
0
 62
    15
 10
3.980240
 20
5.680840
 11
4.631440
 21
5.301120
 12
3.951640
 22
5.641240
 13
4.603280
 23
5.261080
  0
POLYLINE
  8
0
  6
CONTINUOUS
 66
     1
 40
0.000000
 41
0.000000
  0
VERTEX
  8
0
  6
CONTINUOUS
 10
3.980240
 20
5.680840
  0
VERTEX
  8
0
  6
CONTINUOUS
 10
4.631440
 20
5.301120
  0
VERTEX
  8
0
  6
CONTINUOUS
 10
4.603280
 20
5.261080
  0
VERTEX
  8
0
  6
CONTINUOUS
 10
3.951640
 20
5.641240
  0
VERTEX
  8
0
  6
CONTINUOUS
 10
3.980240
 20
5.680840
  0
SEQEND
  8
0
  0
SOLID
  8
0
 62
    15
 10
3.951640
 20
5.641240
 11
4.603280
 21
5.261080
 12
3.909840
 22
5.608680
 13
4.561040
 23
5.228520
  0
POLYLINE
  8
0
  6
CONTINUOUS
 66
     1
 40
0.000000
 41
0.000000
  0
VERTEX
  8
0
  6
CONTINUOUS
 10
3.951640
 20
5.641240
  0
VERTEX
  8
0
  6
CONTINUOUS
 10
4.603280
 20
5.261080
  0
VERTEX
  8
0
  6
CONTINUOUS
 10
4.561040
 20
5.228520
  0
VERTEX
  8
0
  6
CONTINUOUS
 10
3.909840
 20
5.608680
  0
VERTEX
  8
0
  6
CONTINUOUS
 10
3.951640
 20
5.641240
  0
SEQEND
  8
0
  0
SOLID
  8
0
 62
    15
 10
3.909840
 20
5.608680
 11
4.561040
 21
5.228520
 12
3.850880
 22
5.584480
 13
4.502080
 23
5.204760
  0
POLYLINE
  8
0
  6
CONTINUOUS
 66
     1
 40
0.000000
 41
0.000000
  0
VERTEX
  8
0
  6
CONTINUOUS
 10
3.909840
 20
5.608680
  0
VERTEX
  8
0
  6
CONTINUOUS
 10
4.561040
 20
5.228520
  0
VERTEX
  8
0
  6
CONTINUOUS
 10
4.502080
 20
5.204760
  0
VERTEX
  8
0
  6
CONTINUOUS
 10
3.850880
 20
5.584480
  0
VERTEX
  8
0
  6
CONTINUOUS
 10
3.909840
 20
5.608680
  0
SEQEND
  8
0
  0
SOLID
  8
0
 62
    15
 10
3.850880
 20
5.584480
 11
4.502080
 21
5.204760
 12
3.813480
 22
5.576560
 13
4.465120
 23
5.196840
  0
POLYLINE
  8
0
  6
CONTINUOUS
 66
     1
 40
0.000000
 41
0.000000
  0
VERTEX
  8
0
  6
CONTINUOUS
 10
3.850880
 20
5.584480
  0
VERTEX
  8
0
  6
CONTINUOUS
 10
4.502080
 20
5.204760
  0
VERTEX
  8
0
  6
CONTINUOUS
 10
4.465120
 20
5.196840
  0
VERTEX
  8
0
  6
CONTINUOUS
 10
3.813480
 20
5.576560
  0
VERTEX
  8
0
  6
CONTINUOUS
 10
3.850880
 20
5.584480
  0
SEQEND
  8
0
  0
SOLID
  8
0
 62
    15
 10
3.813480
 20
5.576560
 11
4.465120
 21
5.196840
 12
3.770800
 22
5.571280
 13
4.422000
 23
5.191560
  0
POLYLINE
  8
0
  6
CONTINUOUS
 66
     1
 40
0.000000
 41
0.000000
  0
VERTEX
  8
0
  6
CONTINUOUS
 10
3.813480
 20
5.576560
  0
VERTEX
  8
0
  6
CONTINUOUS
 10
4.465120
 20
5.196840
  0
VERTEX
  8
0
  6
CONTINUOUS
 10
4.422000
 20
5.191560
  0
VERTEX
  8
0
  6
CONTINUOUS
 10
3.770800
 20
5.571280
  0
VERTEX
  8
0
  6
CONTINUOUS
 10
3.813480
 20
5.576560
  0
SEQEND
  8
0
  0
SOLID
  8
0
 62
     7
 10
3.770800
 20
5.571280
 11
4.422000
 21
5.191560
 12
3.770800
 22
5.434880
 13
4.422000
 23
5.055160
  0
POLYLINE
  8
0
  6
CONTINUOUS
 66
     1
 40
0.000000
 41
0.000000
  0
VERTEX
  8
0
  6
CONTINUOUS
 10
3.770800
 20
5.571280
  0
VERTEX
  8
0
  6
CONTINUOUS
 10
4.422000
 20
5.191560
  0
VERTEX
  8
0
  6
CONTINUOUS
 10
4.422000
 20
5.055160
  0
VERTEX
  8
0
  6
CONTINUOUS
 10
3.770800
 20
5.434880
  0
VERTEX
  8
0
  6
CONTINUOUS
 10
3.770800
 20
5.571280
  0
SEQEND
  8
0
  0
SOLID
  8
0
 62
    15
 10
3.770800
 20
5.434880
 11
4.422000
 21
5.055160
 12
3.505480
 22
5.434880
 13
4.156680
 23
5.055160
  0
POLYLINE
  8
0
  6
CONTINUOUS
 66
     1
 40
0.000000
 41
0.000000
  0
VERTEX
  8
0
  6
CONTINUOUS
 10
3.770800
 20
5.434880
  0
VERTEX
  8
0
  6
CONTINUOUS
 10
4.422000
 20
5.055160
  0
VERTEX
  8
0
  6
CONTINUOUS
 10
4.156680
 20
5.055160
  0
VERTEX
  8
0
  6
CONTINUOUS
 10
3.505480
 20
5.434880
  0
VERTEX
  8
0
  6
CONTINUOUS
 10
3.770800
 20
5.434880
  0
SEQEND
  8
0
  0
SOLID
  8
0
 62
    15
 10
3.505480
 20
5.434880
 11
4.156680
 21
5.055160
 12
3.501960
 22
5.434880
 13
4.153600
 23
5.055160
  0
POLYLINE
  8
0
  6
CONTINUOUS
 66
     1
 40
0.000000
 41
0.000000
  0
VERTEX
  8
0
  6
CONTINUOUS
 10
3.505480
 20
5.434880
  0
VERTEX
  8
0
  6
CONTINUOUS
 10
4.156680
 20
5.055160
  0
VERTEX
  8
0
  6
CONTINUOUS
 10
4.153600
 20
5.055160
  0
VERTEX
  8
0
  6
CONTINUOUS
 10
3.501960
 20
5.434880
  0
VERTEX
  8
0
  6
CONTINUOUS
 10
3.505480
 20
5.434880
  0
SEQEND
  8
0
  0
POLYLINE
  8
0
  6
CONTINUOUS
 66
     1
 40
0.000000
 41
0.000000
  0
VERTEX
  8
0
  6
CONTINUOUS
 10
3.501960
 20
5.434880
  0
VERTEX
  8
0
  6
CONTINUOUS
 10
3.501960
 20
7.102040
  0
VERTEX
  8
0
  6
CONTINUOUS
 10
4.803040
 20
7.102040
  0
VERTEX
  8
0
  6
CONTINUOUS
 10
4.803480
 20
6.719680
  0
VERTEX
  8
0
  6
CONTINUOUS
 10
4.716800
 20
6.688880
  0
VERTEX
  8
0
  6
CONTINUOUS
 10
4.651240
 20
6.653240
  0
VERTEX
  8
0
  6
CONTINUOUS
 10
4.604600
 20
6.614080
  0
VERTEX
  8
0
  6
CONTINUOUS
 10
4.573360
 20
6.573160
  0
VERTEX
  8
0
  6
CONTINUOUS
 10
4.554440
 20
6.531800
  0
VERTEX
  8
0
  6
CONTINUOUS
 10
4.545200
 20
6.491320
  0
VERTEX
  8
0
  6
CONTINUOUS
 10
4.541680
 20
6.452600
  0
VERTEX
  8
0
  6
CONTINUOUS
 10
4.541240
 20
6.417840
  0
VERTEX
  8
0
  6
CONTINUOUS
 10
4.536840
 20
6.383960
  0
VERTEX
  8
0
  6
CONTINUOUS
 10
4.524080
 20
6.349200
  0
VERTEX
  8
0
  6
CONTINUOUS
 10
4.502520
 20
6.315320
  0
VERTEX
  8
0
  6
CONTINUOUS
 10
4.472160
 20
6.283640
  0
VERTEX
  8
0
  6
CONTINUOUS
 10
4.433000
 20
6.256360
  0
VERTEX
  8
0
  6
CONTINUOUS
 10
4.384600
 20
6.234800
  0
VERTEX
  8
0
  6
CONTINUOUS
 10
4.326960
 20
6.220720
  0
VERTEX
  8
0
  6
CONTINUOUS
 10
4.260080
 20
6.216320
  0
VERTEX
  8
0
  6
CONTINUOUS
 10
4.260080
 20
6.070680
  0
VERTEX
  8
0
  6
CONTINUOUS
 10
4.213440
 20
6.057480
  0
VERTEX
  8
0
  6
CONTINUOUS
 10
4.173400
 20
6.044720
  0
VERTEX
  8
0
  6
CONTINUOUS
 10
4.139520
 20
6.030200
  0
VERTEX
  8
0
  6
CONTINUOUS
 10
4.110920
 20
6.012600
  0
VERTEX
  8
0
  6
CONTINUOUS
 10
4.086280
 20
5.990160
  0
VERTEX
  8
0
  6
CONTINUOUS
 10
4.066040
 20
5.961560
  0
VERTEX
  8
0
  6
CONTINUOUS
 10
4.048880
 20
5.925040
  0
VERTEX
  8
0
  6
CONTINUOUS
 10
4.033920
 20
5.878840
  0
VERTEX
  8
0
  6
CONTINUOUS
 10
4.022040
 20
5.826920
  0
VERTEX
  8
0
  6
CONTINUOUS
 10
4.017200
 20
5.800960
  0
VERTEX
  8
0
  6
CONTINUOUS
 10
4.011480
 20
5.775440
  0
VERTEX
  8
0
  6
CONTINUOUS
 10
3.999160
 20
5.726160
  0
VERTEX
  8
0
  6
CONTINUOUS
 10
3.980240
 20
5.680840
  0
VERTEX
  8
0
  6
CONTINUOUS
 10
3.951640
 20
5.641240
  0
VERTEX
  8
0
  6
CONTINUOUS
 10
3.909840
 20
5.608680
  0
VERTEX
  8
0
  6
CONTINUOUS
 10
3.850880
 20
5.584480
  0
VERTEX
  8
0
  6
CONTINUOUS
 10
3.813480
 20
5.576560
  0
VERTEX
  8
0
  6
CONTINUOUS
 10
3.770800
 20
5.571280
  0
VERTEX
  8
0
  6
CONTINUOUS
 10
3.770800
 20
5.434880
  0
VERTEX
  8
0
  6
CONTINUOUS
 10
3.505480
 20
5.434880
  0
VERTEX
  8
0
  6
CONTINUOUS
 10
3.501960
 20
5.434880
  0
SEQEND
  8
0
  0
TEXT
  8
0
 10
5.291440
 20
5.292760
 40
0.138088
  1
BA  1268
 41
1.000000
  7
SN0
 71
     0
 72
     5
 11
5.975811
 21
5.292760
  0
TEXT
  8
0
 10
4.969800
 20
5.100920
 40
0.138088
  1
1-5/16" x 1-11/16"
 41
1.000000
  7
SN0
 71
     0
 72
     5
 11
6.298559
 21
5.100920
  0
TEXT
  8
0
 10
4.664880
 20
8.713320
 40
0.138088
  1
BA  1268
 41
1.000000
  7
SN0
 71
     0
 72
     5
 11
5.349251
 21
8.713320
  0
TEXT
  8
0
 10
4.342800
 20
8.521920
 40
0.138088
  1
1-5/16" x 1-11/16"
 41
1.000000
  7
SN0
 71
     0
 72
     5
 11
5.671559
 21
8.521920
  0
ENDSEC
  0
EOF
