  0
SECTION
  2
HEADER
  9
$ACADVER
  1
AC1006
  9
$EXTMIN
 10
2.002880
 20
1.533840
  9
$EXTMAX
 10
6.600440
 20
8.252200
  9
$LTSCALE
 40
0.044000
  9
$PDMODE
 70
    35
  9
$PDSIZE
 40
0.035200
  0
ENDSEC
  0
SECTION
  2
TABLES
  0
TABLE
  2
LTYPE
 70
     9
  0
LTYPE
  2
CONTINUOUS
 70
    64
  3
Solid line
 72
    65
 73
     0
 40
0.000000
  0
LTYPE
  2
DASHED
 70
    64
  3
__ __ __ __ __ __ __ __ __ __ __ __ __ __ __
 72
    65
 73
     2
 40
0.000330
 49
0.000220
 49
-0.000110
  0
LTYPE
  2
HIDDEN
 70
    64
  3
 _ _ _ _ _ _ _ _ _ _ _ _ _ _ _ _ _ _ _ _ _ _
 72
    65
 73
     2
 40
0.000165
 49
0.000110
 49
-0.000055
  0
LTYPE
  2
CENTER
 70
    64
  3
____ _ ____ _ ____ _ ____ _ ____ _ ____ _ ____
 72
    65
 73
     4
 40
0.000880
 49
0.000550
 49
-0.000110
 49
0.000110
 49
-0.000110
  0
LTYPE
  2
PHANTOM
 70
    64
  3
_____ _ _ _____ _ _ _____ _ _ _____ _ _ ____
 72
    65
 73
     6
 40
0.001100
 49
0.000550
 49
-0.000110
 49
0.000110
 49
-0.000110
 49
0.000110
 49
-0.000110
  0
LTYPE
  2
DOT
 70
    64
  3
...............................................
 72
    65
 73
     2
 40
0.000110
 49
0.000000
 49
-0.000110
  0
LTYPE
  2
DASHDOT
 70
    64
  3
__ . __ . __ . __ . __ . __ . __ . __ . __ . __
 72
    65
 73
     4
 40
0.000440
 49
0.000220
 49
-0.000110
 49
0.000000
 49
-0.000110
  0
LTYPE
  2
BORDER
 70
    64
  3
__ __ . __ __ . __ __ . __ __ . __ __ . __ __
 72
    65
 73
     6
 40
0.000770
 49
0.000220
 49
-0.000110
 49
0.000220
 49
-0.000110
 49
0.000000
 49
-0.000110
  0
LTYPE
  2
DIVIDE
 70
    64
  3
__ . . __ . . __ . . __ . . __ . . __ . . __
 72
    65
 73
     6
 40
0.000550
 49
0.000220
 49
-0.000110
 49
0.000000
 49
-0.000110
 49
0.000000
 49
-0.000110
  0
LTYPE
  2
DOTDOT
 70
    64
  3
 . .  . .  . .  . .  . .  . . 
 72
    65
 73
     5
 40
0.000242
 49
-0.000110
 49
0.000000
 49
-0.000110
 49
0.000000
 49
-0.000110
  0
ENDTAB
  0
TABLE
  2
STYLE
 70
     2
  0
STYLE
 70
     0
  2
SN0
 40
0.000000
 41
0.000440
 50
0.000000
 71
     0
 42
0.000000
  3
ROMAND
  0
STYLE
 70
    68
  2
SV0
 40
0.000000
 41
0.000440
 50
0.000000
 71
     0
 42
0.000000
  3
ROMAND
  0
ENDTAB
  0
TABLE
  2
LAYER
 70
     3
  0
LAYER
  2
FOREGROUND
 70
    64
 62
     7
  6
CONTINUOUS
  0
LAYER
  2
BACKGROUND
 70
    65
 62
    -7
  6
CONTINUOUS
  0
LAYER
  2
0
 70
    64
 62
     7
  6
CONTINUOUS
  0
ENDTAB
  0
ENDSEC
  0
SECTION
  2
ENTITIES
  0
POLYLINE
  8
FOREGROUND
  6
CONTINUOUS
 66
     1
 40
0.000000
 41
0.000000
  0
VERTEX
  8
FOREGROUND
  6
CONTINUOUS
 10
0.000000
 20
9.786040
  0
VERTEX
  8
FOREGROUND
  6
CONTINUOUS
 10
8.499920
 20
9.786040
  0
VERTEX
  8
FOREGROUND
  6
CONTINUOUS
 10
8.499920
 20
-1.213960
  0
VERTEX
  8
FOREGROUND
  6
CONTINUOUS
 10
0.000000
 20
-1.213960
  0
VERTEX
  8
FOREGROUND
  6
CONTINUOUS
 10
0.000000
 20
9.786040
  0
SEQEND
  8
0
  0
POLYLINE
  8
0
  6
CONTINUOUS
 66
     1
 40
0.014080
 41
0.014080
  0
VERTEX
  8
0
  6
CONTINUOUS
 10
2.130920
 20
7.434240
  0
VERTEX
  8
0
  6
CONTINUOUS
 10
2.130920
 20
8.244720
  0
VERTEX
  8
0
  6
CONTINUOUS
 10
2.593360
 20
8.244720
  0
VERTEX
  8
0
  6
CONTINUOUS
 10
2.616240
 20
8.154960
  0
VERTEX
  8
0
  6
CONTINUOUS
 10
2.659360
 20
8.154960
  0
VERTEX
  8
0
  6
CONTINUOUS
 10
2.662880
 20
8.172120
  0
VERTEX
  8
0
  6
CONTINUOUS
 10
2.673000
 20
8.194120
  0
VERTEX
  8
0
  6
CONTINUOUS
 10
2.689280
 20
8.212600
  0
VERTEX
  8
0
  6
CONTINUOUS
 10
2.709960
 20
8.226240
  0
VERTEX
  8
0
  6
CONTINUOUS
 10
2.734600
 20
8.235480
  0
VERTEX
  8
0
  6
CONTINUOUS
 10
2.762760
 20
8.239440
  0
VERTEX
  8
0
  6
CONTINUOUS
 10
2.782560
 20
8.239000
  0
VERTEX
  8
0
  6
CONTINUOUS
 10
2.814240
 20
8.233720
  0
VERTEX
  8
0
  6
CONTINUOUS
 10
2.835800
 20
8.226680
  0
VERTEX
  8
0
  6
CONTINUOUS
 10
2.868360
 20
8.210840
  0
VERTEX
  8
0
  6
CONTINUOUS
 10
2.900480
 20
8.188400
  0
VERTEX
  8
0
  6
CONTINUOUS
 10
2.942280
 20
8.150120
  0
VERTEX
  8
0
  6
CONTINUOUS
 10
2.963840
 20
8.133400
  0
VERTEX
  8
0
  6
CONTINUOUS
 10
3.009160
 20
8.106120
  0
VERTEX
  8
0
  6
CONTINUOUS
 10
3.055360
 20
8.086320
  0
VERTEX
  8
0
  6
CONTINUOUS
 10
3.101120
 20
8.073120
  0
VERTEX
  8
0
  6
CONTINUOUS
 10
3.145120
 20
8.064760
  0
VERTEX
  8
0
  6
CONTINUOUS
 10
3.186040
 20
8.059920
  0
VERTEX
  8
0
  6
CONTINUOUS
 10
3.253800
 20
8.055080
  0
VERTEX
  8
0
  6
CONTINUOUS
 10
3.256880
 20
8.072240
  0
VERTEX
  8
0
  6
CONTINUOUS
 10
3.263920
 20
8.088080
  0
VERTEX
  8
0
  6
CONTINUOUS
 10
3.274040
 20
8.102160
  0
VERTEX
  8
0
  6
CONTINUOUS
 10
3.293840
 20
8.119760
  0
VERTEX
  8
0
  6
CONTINUOUS
 10
3.318480
 20
8.132520
  0
VERTEX
  8
0
  6
CONTINUOUS
 10
3.345760
 20
8.139560
  0
VERTEX
  8
0
  6
CONTINUOUS
 10
3.365120
 20
8.140880
  0
VERTEX
  8
0
  6
CONTINUOUS
 10
3.384480
 20
8.139560
  0
VERTEX
  8
0
  6
CONTINUOUS
 10
3.403400
 20
8.134720
  0
VERTEX
  8
0
  6
CONTINUOUS
 10
3.421880
 20
8.126360
  0
VERTEX
  8
0
  6
CONTINUOUS
 10
3.438600
 20
8.114480
  0
VERTEX
  8
0
  6
CONTINUOUS
 10
3.454000
 20
8.098640
  0
VERTEX
  8
0
  6
CONTINUOUS
 10
3.467200
 20
8.078400
  0
VERTEX
  8
0
  6
CONTINUOUS
 10
3.477760
 20
8.054200
  0
VERTEX
  8
0
  6
CONTINUOUS
 10
3.482160
 20
8.040560
  0
VERTEX
  8
0
  6
CONTINUOUS
 10
3.589080
 20
8.040560
  0
VERTEX
  8
0
  6
CONTINUOUS
 10
3.606680
 20
7.945960
  0
VERTEX
  8
0
  6
CONTINUOUS
 10
5.928120
 20
7.945960
  0
VERTEX
  8
0
  6
CONTINUOUS
 10
5.950560
 20
7.866320
  0
VERTEX
  8
0
  6
CONTINUOUS
 10
5.983560
 20
7.872920
  0
VERTEX
  8
0
  6
CONTINUOUS
 10
6.028880
 20
7.876440
  0
VERTEX
  8
0
  6
CONTINUOUS
 10
6.056160
 20
7.875560
  0
VERTEX
  8
0
  6
CONTINUOUS
 10
6.093120
 20
7.868960
  0
VERTEX
  8
0
  6
CONTINUOUS
 10
6.115560
 20
7.861920
  0
VERTEX
  8
0
  6
CONTINUOUS
 10
6.135800
 20
7.853120
  0
VERTEX
  8
0
  6
CONTINUOUS
 10
6.171880
 20
7.831560
  0
VERTEX
  8
0
  6
CONTINUOUS
 10
6.202240
 20
7.806480
  0
VERTEX
  8
0
  6
CONTINUOUS
 10
6.270880
 20
7.734760
  0
VERTEX
  8
0
  6
CONTINUOUS
 10
6.312680
 20
7.700000
  0
VERTEX
  8
0
  6
CONTINUOUS
 10
6.367680
 20
7.664800
  0
VERTEX
  8
0
  6
CONTINUOUS
 10
6.410800
 20
7.642800
  0
VERTEX
  8
0
  6
CONTINUOUS
 10
6.458320
 20
7.624760
  0
VERTEX
  8
0
  6
CONTINUOUS
 10
6.483840
 20
7.616840
  0
VERTEX
  8
0
  6
CONTINUOUS
 10
6.509800
 20
7.610680
  0
VERTEX
  8
0
  6
CONTINUOUS
 10
6.564800
 20
7.603200
  0
VERTEX
  8
0
  6
CONTINUOUS
 10
6.593400
 20
7.602320
  0
VERTEX
  8
0
  6
CONTINUOUS
 10
6.593400
 20
7.434240
  0
VERTEX
  8
0
  6
CONTINUOUS
 10
2.130920
 20
7.434240
  0
SEQEND
  8
0
  0
POLYLINE
  8
0
  6
CONTINUOUS
 66
     1
 40
0.000000
 41
0.000000
  0
VERTEX
  8
0
  6
CONTINUOUS
 10
6.481200
 20
1.534280
  0
VERTEX
  8
0
  6
CONTINUOUS
 10
6.481200
 20
2.344320
  0
VERTEX
  8
0
  6
CONTINUOUS
 10
6.018320
 20
2.344320
  0
VERTEX
  8
0
  6
CONTINUOUS
 10
5.995440
 20
2.254560
  0
VERTEX
  8
0
  6
CONTINUOUS
 10
5.952320
 20
2.254560
  0
VERTEX
  8
0
  6
CONTINUOUS
 10
5.948800
 20
2.271720
  0
VERTEX
  8
0
  6
CONTINUOUS
 10
5.938680
 20
2.293720
  0
VERTEX
  8
0
  6
CONTINUOUS
 10
5.922400
 20
2.312200
  0
VERTEX
  8
0
  6
CONTINUOUS
 10
5.909200
 20
2.321880
  0
VERTEX
  8
0
  6
CONTINUOUS
 10
5.885880
 20
2.332440
  0
VERTEX
  8
0
  6
CONTINUOUS
 10
5.858600
 20
2.338160
  0
VERTEX
  8
0
  6
CONTINUOUS
 10
5.839240
 20
2.339040
  0
VERTEX
  8
0
  6
CONTINUOUS
 10
5.808440
 20
2.335960
  0
VERTEX
  8
0
  6
CONTINUOUS
 10
5.776320
 20
2.326280
  0
VERTEX
  8
0
  6
CONTINUOUS
 10
5.754320
 20
2.316600
  0
VERTEX
  8
0
  6
CONTINUOUS
 10
5.722200
 20
2.296360
  0
VERTEX
  8
0
  6
CONTINUOUS
 10
5.690520
 20
2.269080
  0
VERTEX
  8
0
  6
CONTINUOUS
 10
5.669400
 20
2.249720
  0
VERTEX
  8
0
  6
CONTINUOUS
 10
5.647840
 20
2.233000
  0
VERTEX
  8
0
  6
CONTINUOUS
 10
5.625840
 20
2.218480
  0
VERTEX
  8
0
  6
CONTINUOUS
 10
5.602960
 20
2.205720
  0
VERTEX
  8
0
  6
CONTINUOUS
 10
5.580080
 20
2.195160
  0
VERTEX
  8
0
  6
CONTINUOUS
 10
5.533880
 20
2.178880
  0
VERTEX
  8
0
  6
CONTINUOUS
 10
5.467000
 20
2.164360
  0
VERTEX
  8
0
  6
CONTINUOUS
 10
5.406720
 20
2.158200
  0
VERTEX
  8
0
  6
CONTINUOUS
 10
5.358320
 20
2.155120
  0
VERTEX
  8
0
  6
CONTINUOUS
 10
5.355240
 20
2.172280
  0
VERTEX
  8
0
  6
CONTINUOUS
 10
5.348200
 20
2.188120
  0
VERTEX
  8
0
  6
CONTINUOUS
 10
5.338080
 20
2.202200
  0
VERTEX
  8
0
  6
CONTINUOUS
 10
5.318280
 20
2.219800
  0
VERTEX
  8
0
  6
CONTINUOUS
 10
5.293640
 20
2.232560
  0
VERTEX
  8
0
  6
CONTINUOUS
 10
5.266360
 20
2.239600
  0
VERTEX
  8
0
  6
CONTINUOUS
 10
5.247000
 20
2.240920
  0
VERTEX
  8
0
  6
CONTINUOUS
 10
5.217960
 20
2.237400
  0
VERTEX
  8
0
  6
CONTINUOUS
 10
5.199480
 20
2.230800
  0
VERTEX
  8
0
  6
CONTINUOUS
 10
5.181440
 20
2.220680
  0
VERTEX
  8
0
  6
CONTINUOUS
 10
5.165160
 20
2.206600
  0
VERTEX
  8
0
  6
CONTINUOUS
 10
5.150640
 20
2.189000
  0
VERTEX
  8
0
  6
CONTINUOUS
 10
5.138760
 20
2.167000
  0
VERTEX
  8
0
  6
CONTINUOUS
 10
5.129520
 20
2.140600
  0
VERTEX
  8
0
  6
CONTINUOUS
 10
5.023040
 20
2.140600
  0
VERTEX
  8
0
  6
CONTINUOUS
 10
5.005000
 20
2.046000
  0
VERTEX
  8
0
  6
CONTINUOUS
 10
2.684000
 20
2.046000
  0
VERTEX
  8
0
  6
CONTINUOUS
 10
2.661120
 20
1.965920
  0
VERTEX
  8
0
  6
CONTINUOUS
 10
2.628120
 20
1.972520
  0
VERTEX
  8
0
  6
CONTINUOUS
 10
2.582800
 20
1.976040
  0
VERTEX
  8
0
  6
CONTINUOUS
 10
2.555520
 20
1.975160
  0
VERTEX
  8
0
  6
CONTINUOUS
 10
2.518560
 20
1.968560
  0
VERTEX
  8
0
  6
CONTINUOUS
 10
2.496560
 20
1.961520
  0
VERTEX
  8
0
  6
CONTINUOUS
 10
2.475880
 20
1.952720
  0
VERTEX
  8
0
  6
CONTINUOUS
 10
2.440240
 20
1.931160
  0
VERTEX
  8
0
  6
CONTINUOUS
 10
2.409880
 20
1.906080
  0
VERTEX
  8
0
  6
CONTINUOUS
 10
2.372480
 20
1.867800
  0
VERTEX
  8
0
  6
CONTINUOUS
 10
2.341240
 20
1.834800
  0
VERTEX
  8
0
  6
CONTINUOUS
 10
2.299440
 20
1.800040
  0
VERTEX
  8
0
  6
CONTINUOUS
 10
2.244440
 20
1.764840
  0
VERTEX
  8
0
  6
CONTINUOUS
 10
2.201320
 20
1.742840
  0
VERTEX
  8
0
  6
CONTINUOUS
 10
2.153800
 20
1.724800
  0
VERTEX
  8
0
  6
CONTINUOUS
 10
2.128280
 20
1.716880
  0
VERTEX
  8
0
  6
CONTINUOUS
 10
2.102320
 20
1.710720
  0
VERTEX
  8
0
  6
CONTINUOUS
 10
2.047320
 20
1.703240
  0
VERTEX
  8
0
  6
CONTINUOUS
 10
2.018720
 20
1.702360
  0
VERTEX
  8
0
  6
CONTINUOUS
 10
2.018720
 20
1.534280
  0
VERTEX
  8
0
  6
CONTINUOUS
 10
6.481200
 20
1.534280
  0
SEQEND
  8
0
  0
POLYLINE
  8
0
  6
CONTINUOUS
 66
     1
 40
0.000000
 41
0.000000
  0
VERTEX
  8
0
  6
CONTINUOUS
 10
2.019160
 20
2.678720
  0
VERTEX
  8
0
  6
CONTINUOUS
 10
2.019160
 20
3.489200
  0
VERTEX
  8
0
  6
CONTINUOUS
 10
2.481600
 20
3.489200
  0
VERTEX
  8
0
  6
CONTINUOUS
 10
2.504480
 20
3.399440
  0
VERTEX
  8
0
  6
CONTINUOUS
 10
2.547600
 20
3.399440
  0
VERTEX
  8
0
  6
CONTINUOUS
 10
2.551120
 20
3.416600
  0
VERTEX
  8
0
  6
CONTINUOUS
 10
2.561240
 20
3.438600
  0
VERTEX
  8
0
  6
CONTINUOUS
 10
2.577520
 20
3.457080
  0
VERTEX
  8
0
  6
CONTINUOUS
 10
2.598200
 20
3.470720
  0
VERTEX
  8
0
  6
CONTINUOUS
 10
2.622840
 20
3.479960
  0
VERTEX
  8
0
  6
CONTINUOUS
 10
2.651000
 20
3.483920
  0
VERTEX
  8
0
  6
CONTINUOUS
 10
2.670800
 20
3.483480
  0
VERTEX
  8
0
  6
CONTINUOUS
 10
2.702040
 20
3.478200
  0
VERTEX
  8
0
  6
CONTINUOUS
 10
2.734600
 20
3.466320
  0
VERTEX
  8
0
  6
CONTINUOUS
 10
2.767160
 20
3.448720
  0
VERTEX
  8
0
  6
CONTINUOUS
 10
2.788720
 20
3.432880
  0
VERTEX
  8
0
  6
CONTINUOUS
 10
2.830520
 20
3.394600
  0
VERTEX
  8
0
  6
CONTINUOUS
 10
2.852080
 20
3.377880
  0
VERTEX
  8
0
  6
CONTINUOUS
 10
2.874080
 20
3.363360
  0
VERTEX
  8
0
  6
CONTINUOUS
 10
2.896960
 20
3.350600
  0
VERTEX
  8
0
  6
CONTINUOUS
 10
2.919840
 20
3.340040
  0
VERTEX
  8
0
  6
CONTINUOUS
 10
2.966040
 20
3.323760
  0
VERTEX
  8
0
  6
CONTINUOUS
 10
3.032920
 20
3.309240
  0
VERTEX
  8
0
  6
CONTINUOUS
 10
3.093200
 20
3.303080
  0
VERTEX
  8
0
  6
CONTINUOUS
 10
3.141600
 20
3.300000
  0
VERTEX
  8
0
  6
CONTINUOUS
 10
3.144680
 20
3.317160
  0
VERTEX
  8
0
  6
CONTINUOUS
 10
3.151720
 20
3.333000
  0
VERTEX
  8
0
  6
CONTINUOUS
 10
3.161840
 20
3.347080
  0
VERTEX
  8
0
  6
CONTINUOUS
 10
3.182080
 20
3.364680
  0
VERTEX
  8
0
  6
CONTINUOUS
 10
3.206280
 20
3.377000
  0
VERTEX
  8
0
  6
CONTINUOUS
 10
3.224320
 20
3.382720
  0
VERTEX
  8
0
  6
CONTINUOUS
 10
3.252920
 20
3.385800
  0
VERTEX
  8
0
  6
CONTINUOUS
 10
3.272280
 20
3.384040
  0
VERTEX
  8
0
  6
CONTINUOUS
 10
3.291640
 20
3.379200
  0
VERTEX
  8
0
  6
CONTINUOUS
 10
3.309680
 20
3.370840
  0
VERTEX
  8
0
  6
CONTINUOUS
 10
3.326840
 20
3.358960
  0
VERTEX
  8
0
  6
CONTINUOUS
 10
3.342240
 20
3.343120
  0
VERTEX
  8
0
  6
CONTINUOUS
 10
3.355440
 20
3.322880
  0
VERTEX
  8
0
  6
CONTINUOUS
 10
3.366000
 20
3.298680
  0
VERTEX
  8
0
  6
CONTINUOUS
 10
3.370400
 20
3.285040
  0
VERTEX
  8
0
  6
CONTINUOUS
 10
3.476880
 20
3.285040
  0
VERTEX
  8
0
  6
CONTINUOUS
 10
3.494920
 20
3.190440
  0
VERTEX
  8
0
  6
CONTINUOUS
 10
5.815920
 20
3.190440
  0
VERTEX
  8
0
  6
CONTINUOUS
 10
5.838800
 20
3.110800
  0
VERTEX
  8
0
  6
CONTINUOUS
 10
5.871800
 20
3.117400
  0
VERTEX
  8
0
  6
CONTINUOUS
 10
5.917120
 20
3.120920
  0
VERTEX
  8
0
  6
CONTINUOUS
 10
5.944400
 20
3.120040
  0
VERTEX
  8
0
  6
CONTINUOUS
 10
5.981360
 20
3.113440
  0
VERTEX
  8
0
  6
CONTINUOUS
 10
6.003360
 20
3.106400
  0
VERTEX
  8
0
  6
CONTINUOUS
 10
6.024040
 20
3.097600
  0
VERTEX
  8
0
  6
CONTINUOUS
 10
6.060120
 20
3.076040
  0
VERTEX
  8
0
  6
CONTINUOUS
 10
6.090480
 20
3.050960
  0
VERTEX
  8
0
  6
CONTINUOUS
 10
6.159120
 20
2.979240
  0
VERTEX
  8
0
  6
CONTINUOUS
 10
6.200920
 20
2.944480
  0
VERTEX
  8
0
  6
CONTINUOUS
 10
6.236120
 20
2.920720
  0
VERTEX
  8
0
  6
CONTINUOUS
 10
6.276600
 20
2.897840
  0
VERTEX
  8
0
  6
CONTINUOUS
 10
6.321920
 20
2.877600
  0
VERTEX
  8
0
  6
CONTINUOUS
 10
6.371640
 20
2.861320
  0
VERTEX
  8
0
  6
CONTINUOUS
 10
6.397600
 20
2.855160
  0
VERTEX
  8
0
  6
CONTINUOUS
 10
6.452600
 20
2.847680
  0
VERTEX
  8
0
  6
CONTINUOUS
 10
6.481200
 20
2.846800
  0
VERTEX
  8
0
  6
CONTINUOUS
 10
6.481200
 20
2.678720
  0
VERTEX
  8
0
  6
CONTINUOUS
 10
2.018720
 20
2.678720
  0
VERTEX
  8
0
  6
CONTINUOUS
 10
2.019160
 20
2.678720
  0
SEQEND
  8
0
  0
SOLID
  8
0
 62
    15
 10
3.303520
 20
6.105440
 11
3.308800
 21
6.851240
 12
3.319800
 22
6.091800
 13
3.325080
 23
6.837160
  0
POLYLINE
  8
0
  6
CONTINUOUS
 66
     1
 40
0.000000
 41
0.000000
  0
VERTEX
  8
0
  6
CONTINUOUS
 10
3.303520
 20
6.105440
  0
VERTEX
  8
0
  6
CONTINUOUS
 10
3.308800
 20
6.851240
  0
VERTEX
  8
0
  6
CONTINUOUS
 10
3.325080
 20
6.837160
  0
VERTEX
  8
0
  6
CONTINUOUS
 10
3.319800
 20
6.091800
  0
VERTEX
  8
0
  6
CONTINUOUS
 10
3.303520
 20
6.105440
  0
SEQEND
  8
0
  0
SOLID
  8
0
 62
    15
 10
2.466200
 20
6.229520
 11
2.471480
 21
6.974880
 12
2.489080
 22
6.139760
 13
2.494360
 23
6.885120
  0
POLYLINE
  8
0
  6
CONTINUOUS
 66
     1
 40
0.000000
 41
0.000000
  0
VERTEX
  8
0
  6
CONTINUOUS
 10
2.466200
 20
6.229520
  0
VERTEX
  8
0
  6
CONTINUOUS
 10
2.471480
 20
6.974880
  0
VERTEX
  8
0
  6
CONTINUOUS
 10
2.494360
 20
6.885120
  0
VERTEX
  8
0
  6
CONTINUOUS
 10
2.489080
 20
6.139760
  0
VERTEX
  8
0
  6
CONTINUOUS
 10
2.466200
 20
6.229520
  0
SEQEND
  8
0
  0
SOLID
  8
0
 62
    15
 10
2.489080
 20
6.139760
 11
2.494360
 21
6.885120
 12
2.532200
 22
6.139760
 13
2.537480
 23
6.885120
  0
POLYLINE
  8
0
  6
CONTINUOUS
 66
     1
 40
0.000000
 41
0.000000
  0
VERTEX
  8
0
  6
CONTINUOUS
 10
2.489080
 20
6.139760
  0
VERTEX
  8
0
  6
CONTINUOUS
 10
2.494360
 20
6.885120
  0
VERTEX
  8
0
  6
CONTINUOUS
 10
2.537480
 20
6.885120
  0
VERTEX
  8
0
  6
CONTINUOUS
 10
2.532200
 20
6.139760
  0
VERTEX
  8
0
  6
CONTINUOUS
 10
2.489080
 20
6.139760
  0
SEQEND
  8
0
  0
SOLID
  8
0
 62
    15
 10
2.532200
 20
6.139760
 11
2.537480
 21
6.885120
 12
2.541880
 22
6.171880
 13
2.547160
 23
6.917680
  0
POLYLINE
  8
0
  6
CONTINUOUS
 66
     1
 40
0.000000
 41
0.000000
  0
VERTEX
  8
0
  6
CONTINUOUS
 10
2.532200
 20
6.139760
  0
VERTEX
  8
0
  6
CONTINUOUS
 10
2.537480
 20
6.885120
  0
VERTEX
  8
0
  6
CONTINUOUS
 10
2.547160
 20
6.917680
  0
VERTEX
  8
0
  6
CONTINUOUS
 10
2.541880
 20
6.171880
  0
VERTEX
  8
0
  6
CONTINUOUS
 10
2.532200
 20
6.139760
  0
SEQEND
  8
0
  0
SOLID
  8
0
 62
    15
 10
2.541880
 20
6.171880
 11
2.547160
 21
6.917680
 12
2.562120
 22
6.197400
 13
2.567400
 23
6.942760
  0
POLYLINE
  8
0
  6
CONTINUOUS
 66
     1
 40
0.000000
 41
0.000000
  0
VERTEX
  8
0
  6
CONTINUOUS
 10
2.541880
 20
6.171880
  0
VERTEX
  8
0
  6
CONTINUOUS
 10
2.547160
 20
6.917680
  0
VERTEX
  8
0
  6
CONTINUOUS
 10
2.567400
 20
6.942760
  0
VERTEX
  8
0
  6
CONTINUOUS
 10
2.562120
 20
6.197400
  0
VERTEX
  8
0
  6
CONTINUOUS
 10
2.541880
 20
6.171880
  0
SEQEND
  8
0
  0
SOLID
  8
0
 62
    15
 10
2.562120
 20
6.197400
 11
2.567400
 21
6.942760
 12
2.590720
 22
6.214560
 13
2.596000
 23
6.960360
  0
POLYLINE
  8
0
  6
CONTINUOUS
 66
     1
 40
0.000000
 41
0.000000
  0
VERTEX
  8
0
  6
CONTINUOUS
 10
2.562120
 20
6.197400
  0
VERTEX
  8
0
  6
CONTINUOUS
 10
2.567400
 20
6.942760
  0
VERTEX
  8
0
  6
CONTINUOUS
 10
2.596000
 20
6.960360
  0
VERTEX
  8
0
  6
CONTINUOUS
 10
2.590720
 20
6.214560
  0
VERTEX
  8
0
  6
CONTINUOUS
 10
2.562120
 20
6.197400
  0
SEQEND
  8
0
  0
SOLID
  8
0
 62
    15
 10
2.590720
 20
6.214560
 11
2.596000
 21
6.960360
 12
2.625920
 22
6.223360
 13
2.631200
 23
6.969160
  0
POLYLINE
  8
0
  6
CONTINUOUS
 66
     1
 40
0.000000
 41
0.000000
  0
VERTEX
  8
0
  6
CONTINUOUS
 10
2.590720
 20
6.214560
  0
VERTEX
  8
0
  6
CONTINUOUS
 10
2.596000
 20
6.960360
  0
VERTEX
  8
0
  6
CONTINUOUS
 10
2.631200
 20
6.969160
  0
VERTEX
  8
0
  6
CONTINUOUS
 10
2.625920
 20
6.223360
  0
VERTEX
  8
0
  6
CONTINUOUS
 10
2.590720
 20
6.214560
  0
SEQEND
  8
0
  0
SOLID
  8
0
 62
    15
 10
2.625920
 20
6.223360
 11
2.631200
 21
6.969160
 12
2.665960
 22
6.222480
 13
2.671240
 23
6.968280
  0
POLYLINE
  8
0
  6
CONTINUOUS
 66
     1
 40
0.000000
 41
0.000000
  0
VERTEX
  8
0
  6
CONTINUOUS
 10
2.625920
 20
6.223360
  0
VERTEX
  8
0
  6
CONTINUOUS
 10
2.631200
 20
6.969160
  0
VERTEX
  8
0
  6
CONTINUOUS
 10
2.671240
 20
6.968280
  0
VERTEX
  8
0
  6
CONTINUOUS
 10
2.665960
 20
6.222480
  0
VERTEX
  8
0
  6
CONTINUOUS
 10
2.625920
 20
6.223360
  0
SEQEND
  8
0
  0
SOLID
  8
0
 62
    15
 10
2.665960
 20
6.222480
 11
2.671240
 21
6.968280
 12
2.708640
 22
6.211480
 13
2.713920
 23
6.956840
  0
POLYLINE
  8
0
  6
CONTINUOUS
 66
     1
 40
0.000000
 41
0.000000
  0
VERTEX
  8
0
  6
CONTINUOUS
 10
2.665960
 20
6.222480
  0
VERTEX
  8
0
  6
CONTINUOUS
 10
2.671240
 20
6.968280
  0
VERTEX
  8
0
  6
CONTINUOUS
 10
2.713920
 20
6.956840
  0
VERTEX
  8
0
  6
CONTINUOUS
 10
2.708640
 20
6.211480
  0
VERTEX
  8
0
  6
CONTINUOUS
 10
2.665960
 20
6.222480
  0
SEQEND
  8
0
  0
SOLID
  8
0
 62
    15
 10
2.708640
 20
6.211480
 11
2.713920
 21
6.956840
 12
2.751760
 22
6.189040
 13
2.757040
 23
6.934400
  0
POLYLINE
  8
0
  6
CONTINUOUS
 66
     1
 40
0.000000
 41
0.000000
  0
VERTEX
  8
0
  6
CONTINUOUS
 10
2.708640
 20
6.211480
  0
VERTEX
  8
0
  6
CONTINUOUS
 10
2.713920
 20
6.956840
  0
VERTEX
  8
0
  6
CONTINUOUS
 10
2.757040
 20
6.934400
  0
VERTEX
  8
0
  6
CONTINUOUS
 10
2.751760
 20
6.189040
  0
VERTEX
  8
0
  6
CONTINUOUS
 10
2.708640
 20
6.211480
  0
SEQEND
  8
0
  0
SOLID
  8
0
 62
    15
 10
2.751760
 20
6.189040
 11
2.757040
 21
6.934400
 12
2.794000
 22
6.154280
 13
2.799280
 23
6.899640
  0
POLYLINE
  8
0
  6
CONTINUOUS
 66
     1
 40
0.000000
 41
0.000000
  0
VERTEX
  8
0
  6
CONTINUOUS
 10
2.751760
 20
6.189040
  0
VERTEX
  8
0
  6
CONTINUOUS
 10
2.757040
 20
6.934400
  0
VERTEX
  8
0
  6
CONTINUOUS
 10
2.799280
 20
6.899640
  0
VERTEX
  8
0
  6
CONTINUOUS
 10
2.794000
 20
6.154280
  0
VERTEX
  8
0
  6
CONTINUOUS
 10
2.751760
 20
6.189040
  0
SEQEND
  8
0
  0
SOLID
  8
0
 62
    15
 10
2.794000
 20
6.154280
 11
2.799280
 21
6.899640
 12
2.836680
 22
6.118200
 13
2.841960
 23
6.864000
  0
POLYLINE
  8
0
  6
CONTINUOUS
 66
     1
 40
0.000000
 41
0.000000
  0
VERTEX
  8
0
  6
CONTINUOUS
 10
2.794000
 20
6.154280
  0
VERTEX
  8
0
  6
CONTINUOUS
 10
2.799280
 20
6.899640
  0
VERTEX
  8
0
  6
CONTINUOUS
 10
2.841960
 20
6.864000
  0
VERTEX
  8
0
  6
CONTINUOUS
 10
2.836680
 20
6.118200
  0
VERTEX
  8
0
  6
CONTINUOUS
 10
2.794000
 20
6.154280
  0
SEQEND
  8
0
  0
SOLID
  8
0
 62
    15
 10
2.836680
 20
6.118200
 11
2.841960
 21
6.864000
 12
2.881560
 22
6.090920
 13
2.886840
 23
6.836720
  0
POLYLINE
  8
0
  6
CONTINUOUS
 66
     1
 40
0.000000
 41
0.000000
  0
VERTEX
  8
0
  6
CONTINUOUS
 10
2.836680
 20
6.118200
  0
VERTEX
  8
0
  6
CONTINUOUS
 10
2.841960
 20
6.864000
  0
VERTEX
  8
0
  6
CONTINUOUS
 10
2.886840
 20
6.836720
  0
VERTEX
  8
0
  6
CONTINUOUS
 10
2.881560
 20
6.090920
  0
VERTEX
  8
0
  6
CONTINUOUS
 10
2.836680
 20
6.118200
  0
SEQEND
  8
0
  0
SOLID
  8
0
 62
    15
 10
2.881560
 20
6.090920
 11
2.886840
 21
6.836720
 12
2.927760
 22
6.071560
 13
2.933040
 23
6.816920
  0
POLYLINE
  8
0
  6
CONTINUOUS
 66
     1
 40
0.000000
 41
0.000000
  0
VERTEX
  8
0
  6
CONTINUOUS
 10
2.881560
 20
6.090920
  0
VERTEX
  8
0
  6
CONTINUOUS
 10
2.886840
 20
6.836720
  0
VERTEX
  8
0
  6
CONTINUOUS
 10
2.933040
 20
6.816920
  0
VERTEX
  8
0
  6
CONTINUOUS
 10
2.927760
 20
6.071560
  0
VERTEX
  8
0
  6
CONTINUOUS
 10
2.881560
 20
6.090920
  0
SEQEND
  8
0
  0
SOLID
  8
0
 62
    15
 10
2.927760
 20
6.071560
 11
2.933040
 21
6.816920
 12
2.973520
 22
6.057920
 13
2.978800
 23
6.803720
  0
POLYLINE
  8
0
  6
CONTINUOUS
 66
     1
 40
0.000000
 41
0.000000
  0
VERTEX
  8
0
  6
CONTINUOUS
 10
2.927760
 20
6.071560
  0
VERTEX
  8
0
  6
CONTINUOUS
 10
2.933040
 20
6.816920
  0
VERTEX
  8
0
  6
CONTINUOUS
 10
2.978800
 20
6.803720
  0
VERTEX
  8
0
  6
CONTINUOUS
 10
2.973520
 20
6.057920
  0
VERTEX
  8
0
  6
CONTINUOUS
 10
2.927760
 20
6.071560
  0
SEQEND
  8
0
  0
SOLID
  8
0
 62
    15
 10
2.973520
 20
6.057920
 11
2.978800
 21
6.803720
 12
3.017960
 22
6.049560
 13
3.023240
 23
6.795360
  0
POLYLINE
  8
0
  6
CONTINUOUS
 66
     1
 40
0.000000
 41
0.000000
  0
VERTEX
  8
0
  6
CONTINUOUS
 10
2.973520
 20
6.057920
  0
VERTEX
  8
0
  6
CONTINUOUS
 10
2.978800
 20
6.803720
  0
VERTEX
  8
0
  6
CONTINUOUS
 10
3.023240
 20
6.795360
  0
VERTEX
  8
0
  6
CONTINUOUS
 10
3.017960
 20
6.049560
  0
VERTEX
  8
0
  6
CONTINUOUS
 10
2.973520
 20
6.057920
  0
SEQEND
  8
0
  0
SOLID
  8
0
 62
    15
 10
3.017960
 20
6.049560
 11
3.023240
 21
6.795360
 12
3.058880
 22
6.044720
 13
3.064160
 23
6.790520
  0
POLYLINE
  8
0
  6
CONTINUOUS
 66
     1
 40
0.000000
 41
0.000000
  0
VERTEX
  8
0
  6
CONTINUOUS
 10
3.017960
 20
6.049560
  0
VERTEX
  8
0
  6
CONTINUOUS
 10
3.023240
 20
6.795360
  0
VERTEX
  8
0
  6
CONTINUOUS
 10
3.064160
 20
6.790520
  0
VERTEX
  8
0
  6
CONTINUOUS
 10
3.058880
 20
6.044720
  0
VERTEX
  8
0
  6
CONTINUOUS
 10
3.017960
 20
6.049560
  0
SEQEND
  8
0
  0
SOLID
  8
0
 62
    15
 10
3.058880
 20
6.044720
 11
3.064160
 21
6.790520
 12
3.095400
 22
6.042080
 13
3.100680
 23
6.787440
  0
POLYLINE
  8
0
  6
CONTINUOUS
 66
     1
 40
0.000000
 41
0.000000
  0
VERTEX
  8
0
  6
CONTINUOUS
 10
3.058880
 20
6.044720
  0
VERTEX
  8
0
  6
CONTINUOUS
 10
3.064160
 20
6.790520
  0
VERTEX
  8
0
  6
CONTINUOUS
 10
3.100680
 20
6.787440
  0
VERTEX
  8
0
  6
CONTINUOUS
 10
3.095400
 20
6.042080
  0
VERTEX
  8
0
  6
CONTINUOUS
 10
3.058880
 20
6.044720
  0
SEQEND
  8
0
  0
SOLID
  8
0
 62
    15
 10
3.095400
 20
6.042080
 11
3.100680
 21
6.787440
 12
3.126640
 22
6.039880
 13
3.131920
 23
6.785680
  0
POLYLINE
  8
0
  6
CONTINUOUS
 66
     1
 40
0.000000
 41
0.000000
  0
VERTEX
  8
0
  6
CONTINUOUS
 10
3.095400
 20
6.042080
  0
VERTEX
  8
0
  6
CONTINUOUS
 10
3.100680
 20
6.787440
  0
VERTEX
  8
0
  6
CONTINUOUS
 10
3.131920
 20
6.785680
  0
VERTEX
  8
0
  6
CONTINUOUS
 10
3.126640
 20
6.039880
  0
VERTEX
  8
0
  6
CONTINUOUS
 10
3.095400
 20
6.042080
  0
SEQEND
  8
0
  0
SOLID
  8
0
 62
    15
 10
3.126640
 20
6.039880
 11
3.131920
 21
6.785680
 12
3.129720
 22
6.057040
 13
3.135000
 23
6.802840
  0
POLYLINE
  8
0
  6
CONTINUOUS
 66
     1
 40
0.000000
 41
0.000000
  0
VERTEX
  8
0
  6
CONTINUOUS
 10
3.126640
 20
6.039880
  0
VERTEX
  8
0
  6
CONTINUOUS
 10
3.131920
 20
6.785680
  0
VERTEX
  8
0
  6
CONTINUOUS
 10
3.135000
 20
6.802840
  0
VERTEX
  8
0
  6
CONTINUOUS
 10
3.129720
 20
6.057040
  0
VERTEX
  8
0
  6
CONTINUOUS
 10
3.126640
 20
6.039880
  0
SEQEND
  8
0
  0
SOLID
  8
0
 62
    15
 10
3.129720
 20
6.057040
 11
3.135000
 21
6.802840
 12
3.136760
 22
6.072880
 13
3.142040
 23
6.818680
  0
POLYLINE
  8
0
  6
CONTINUOUS
 66
     1
 40
0.000000
 41
0.000000
  0
VERTEX
  8
0
  6
CONTINUOUS
 10
3.129720
 20
6.057040
  0
VERTEX
  8
0
  6
CONTINUOUS
 10
3.135000
 20
6.802840
  0
VERTEX
  8
0
  6
CONTINUOUS
 10
3.142040
 20
6.818680
  0
VERTEX
  8
0
  6
CONTINUOUS
 10
3.136760
 20
6.072880
  0
VERTEX
  8
0
  6
CONTINUOUS
 10
3.129720
 20
6.057040
  0
SEQEND
  8
0
  0
SOLID
  8
0
 62
    15
 10
3.136760
 20
6.072880
 11
3.142040
 21
6.818680
 12
3.159640
 22
6.099280
 13
3.164920
 23
6.844640
  0
POLYLINE
  8
0
  6
CONTINUOUS
 66
     1
 40
0.000000
 41
0.000000
  0
VERTEX
  8
0
  6
CONTINUOUS
 10
3.136760
 20
6.072880
  0
VERTEX
  8
0
  6
CONTINUOUS
 10
3.142040
 20
6.818680
  0
VERTEX
  8
0
  6
CONTINUOUS
 10
3.164920
 20
6.844640
  0
VERTEX
  8
0
  6
CONTINUOUS
 10
3.159640
 20
6.099280
  0
VERTEX
  8
0
  6
CONTINUOUS
 10
3.136760
 20
6.072880
  0
SEQEND
  8
0
  0
SOLID
  8
0
 62
    15
 10
3.159640
 20
6.099280
 11
3.164920
 21
6.844640
 12
3.191320
 22
6.117320
 13
3.196600
 23
6.863120
  0
POLYLINE
  8
0
  6
CONTINUOUS
 66
     1
 40
0.000000
 41
0.000000
  0
VERTEX
  8
0
  6
CONTINUOUS
 10
3.159640
 20
6.099280
  0
VERTEX
  8
0
  6
CONTINUOUS
 10
3.164920
 20
6.844640
  0
VERTEX
  8
0
  6
CONTINUOUS
 10
3.196600
 20
6.863120
  0
VERTEX
  8
0
  6
CONTINUOUS
 10
3.191320
 20
6.117320
  0
VERTEX
  8
0
  6
CONTINUOUS
 10
3.159640
 20
6.099280
  0
SEQEND
  8
0
  0
SOLID
  8
0
 62
    15
 10
3.191320
 20
6.117320
 11
3.196600
 21
6.863120
 12
3.228280
 22
6.125680
 13
3.233560
 23
6.871480
  0
POLYLINE
  8
0
  6
CONTINUOUS
 66
     1
 40
0.000000
 41
0.000000
  0
VERTEX
  8
0
  6
CONTINUOUS
 10
3.191320
 20
6.117320
  0
VERTEX
  8
0
  6
CONTINUOUS
 10
3.196600
 20
6.863120
  0
VERTEX
  8
0
  6
CONTINUOUS
 10
3.233560
 20
6.871480
  0
VERTEX
  8
0
  6
CONTINUOUS
 10
3.228280
 20
6.125680
  0
VERTEX
  8
0
  6
CONTINUOUS
 10
3.191320
 20
6.117320
  0
SEQEND
  8
0
  0
SOLID
  8
0
 62
    15
 10
3.228280
 20
6.125680
 11
3.233560
 21
6.871480
 12
3.267000
 22
6.122160
 13
3.272280
 23
6.867960
  0
POLYLINE
  8
0
  6
CONTINUOUS
 66
     1
 40
0.000000
 41
0.000000
  0
VERTEX
  8
0
  6
CONTINUOUS
 10
3.228280
 20
6.125680
  0
VERTEX
  8
0
  6
CONTINUOUS
 10
3.233560
 20
6.871480
  0
VERTEX
  8
0
  6
CONTINUOUS
 10
3.272280
 20
6.867960
  0
VERTEX
  8
0
  6
CONTINUOUS
 10
3.267000
 20
6.122160
  0
VERTEX
  8
0
  6
CONTINUOUS
 10
3.228280
 20
6.125680
  0
SEQEND
  8
0
  0
SOLID
  8
0
 62
    15
 10
3.267000
 20
6.122160
 11
3.272280
 21
6.867960
 12
3.303520
 22
6.105440
 13
3.308800
 23
6.851240
  0
POLYLINE
  8
0
  6
CONTINUOUS
 66
     1
 40
0.000000
 41
0.000000
  0
VERTEX
  8
0
  6
CONTINUOUS
 10
3.267000
 20
6.122160
  0
VERTEX
  8
0
  6
CONTINUOUS
 10
3.272280
 20
6.867960
  0
VERTEX
  8
0
  6
CONTINUOUS
 10
3.308800
 20
6.851240
  0
VERTEX
  8
0
  6
CONTINUOUS
 10
3.303520
 20
6.105440
  0
VERTEX
  8
0
  6
CONTINUOUS
 10
3.267000
 20
6.122160
  0
SEQEND
  8
0
  0
SOLID
  8
0
 62
    15
 10
2.003760
 20
6.229520
 11
2.009040
 21
6.974880
 12
2.466200
 22
6.229520
 13
2.471480
 23
6.974880
  0
POLYLINE
  8
0
  6
CONTINUOUS
 66
     1
 40
0.000000
 41
0.000000
  0
VERTEX
  8
0
  6
CONTINUOUS
 10
2.003760
 20
6.229520
  0
VERTEX
  8
0
  6
CONTINUOUS
 10
2.009040
 20
6.974880
  0
VERTEX
  8
0
  6
CONTINUOUS
 10
2.471480
 20
6.974880
  0
VERTEX
  8
0
  6
CONTINUOUS
 10
2.466200
 20
6.229520
  0
VERTEX
  8
0
  6
CONTINUOUS
 10
2.003760
 20
6.229520
  0
SEQEND
  8
0
  0
SOLID
  8
0
 62
    15
 10
3.319800
 20
6.091800
 11
3.325080
 21
6.837160
 12
3.333880
 22
6.073760
 13
3.339160
 23
6.819560
  0
POLYLINE
  8
0
  6
CONTINUOUS
 66
     1
 40
0.000000
 41
0.000000
  0
VERTEX
  8
0
  6
CONTINUOUS
 10
3.319800
 20
6.091800
  0
VERTEX
  8
0
  6
CONTINUOUS
 10
3.325080
 20
6.837160
  0
VERTEX
  8
0
  6
CONTINUOUS
 10
3.339160
 20
6.819560
  0
VERTEX
  8
0
  6
CONTINUOUS
 10
3.333880
 20
6.073760
  0
VERTEX
  8
0
  6
CONTINUOUS
 10
3.319800
 20
6.091800
  0
SEQEND
  8
0
  0
SOLID
  8
0
 62
    15
 10
3.333880
 20
6.073760
 11
3.339160
 21
6.819560
 12
3.346200
 22
6.051760
 13
3.351480
 23
6.797560
  0
POLYLINE
  8
0
  6
CONTINUOUS
 66
     1
 40
0.000000
 41
0.000000
  0
VERTEX
  8
0
  6
CONTINUOUS
 10
3.333880
 20
6.073760
  0
VERTEX
  8
0
  6
CONTINUOUS
 10
3.339160
 20
6.819560
  0
VERTEX
  8
0
  6
CONTINUOUS
 10
3.351480
 20
6.797560
  0
VERTEX
  8
0
  6
CONTINUOUS
 10
3.346200
 20
6.051760
  0
VERTEX
  8
0
  6
CONTINUOUS
 10
3.333880
 20
6.073760
  0
SEQEND
  8
0
  0
SOLID
  8
0
 62
    15
 10
3.346200
 20
6.051760
 11
3.351480
 21
6.797560
 12
3.355000
 22
6.025360
 13
3.360280
 23
6.771160
  0
POLYLINE
  8
0
  6
CONTINUOUS
 66
     1
 40
0.000000
 41
0.000000
  0
VERTEX
  8
0
  6
CONTINUOUS
 10
3.346200
 20
6.051760
  0
VERTEX
  8
0
  6
CONTINUOUS
 10
3.351480
 20
6.797560
  0
VERTEX
  8
0
  6
CONTINUOUS
 10
3.360280
 20
6.771160
  0
VERTEX
  8
0
  6
CONTINUOUS
 10
3.355000
 20
6.025360
  0
VERTEX
  8
0
  6
CONTINUOUS
 10
3.346200
 20
6.051760
  0
SEQEND
  8
0
  0
SOLID
  8
0
 62
    15
 10
3.355000
 20
6.025360
 11
3.360280
 21
6.771160
 12
3.461920
 22
6.025360
 13
3.467200
 23
6.771160
  0
POLYLINE
  8
0
  6
CONTINUOUS
 66
     1
 40
0.000000
 41
0.000000
  0
VERTEX
  8
0
  6
CONTINUOUS
 10
3.355000
 20
6.025360
  0
VERTEX
  8
0
  6
CONTINUOUS
 10
3.360280
 20
6.771160
  0
VERTEX
  8
0
  6
CONTINUOUS
 10
3.467200
 20
6.771160
  0
VERTEX
  8
0
  6
CONTINUOUS
 10
3.461920
 20
6.025360
  0
VERTEX
  8
0
  6
CONTINUOUS
 10
3.355000
 20
6.025360
  0
SEQEND
  8
0
  0
SOLID
  8
0
 62
    15
 10
3.461920
 20
6.025360
 11
3.467200
 21
6.771160
 12
3.479520
 22
5.930760
 13
3.484800
 23
6.676560
  0
POLYLINE
  8
0
  6
CONTINUOUS
 66
     1
 40
0.000000
 41
0.000000
  0
VERTEX
  8
0
  6
CONTINUOUS
 10
3.461920
 20
6.025360
  0
VERTEX
  8
0
  6
CONTINUOUS
 10
3.467200
 20
6.771160
  0
VERTEX
  8
0
  6
CONTINUOUS
 10
3.484800
 20
6.676560
  0
VERTEX
  8
0
  6
CONTINUOUS
 10
3.479520
 20
5.930760
  0
VERTEX
  8
0
  6
CONTINUOUS
 10
3.461920
 20
6.025360
  0
SEQEND
  8
0
  0
SOLID
  8
0
 62
    15
 10
5.823400
 20
5.851120
 11
5.828680
 21
6.596920
 12
5.856400
 22
5.857720
 13
5.861680
 23
6.603520
  0
POLYLINE
  8
0
  6
CONTINUOUS
 66
     1
 40
0.000000
 41
0.000000
  0
VERTEX
  8
0
  6
CONTINUOUS
 10
5.823400
 20
5.851120
  0
VERTEX
  8
0
  6
CONTINUOUS
 10
5.828680
 20
6.596920
  0
VERTEX
  8
0
  6
CONTINUOUS
 10
5.861680
 20
6.603520
  0
VERTEX
  8
0
  6
CONTINUOUS
 10
5.856400
 20
5.857720
  0
VERTEX
  8
0
  6
CONTINUOUS
 10
5.823400
 20
5.851120
  0
SEQEND
  8
0
  0
SOLID
  8
0
 62
    15
 10
5.800960
 20
5.930760
 11
5.806240
 21
6.676560
 12
5.823400
 22
5.851120
 13
5.828680
 23
6.596920
  0
POLYLINE
  8
0
  6
CONTINUOUS
 66
     1
 40
0.000000
 41
0.000000
  0
VERTEX
  8
0
  6
CONTINUOUS
 10
5.800960
 20
5.930760
  0
VERTEX
  8
0
  6
CONTINUOUS
 10
5.806240
 20
6.676560
  0
VERTEX
  8
0
  6
CONTINUOUS
 10
5.828680
 20
6.596920
  0
VERTEX
  8
0
  6
CONTINUOUS
 10
5.823400
 20
5.851120
  0
VERTEX
  8
0
  6
CONTINUOUS
 10
5.800960
 20
5.930760
  0
SEQEND
  8
0
  0
SOLID
  8
0
 62
    15
 10
3.479520
 20
5.930760
 11
3.484800
 21
6.676560
 12
5.800960
 22
5.930760
 13
5.806240
 23
6.676560
  0
POLYLINE
  8
0
  6
CONTINUOUS
 66
     1
 40
0.000000
 41
0.000000
  0
VERTEX
  8
0
  6
CONTINUOUS
 10
3.479520
 20
5.930760
  0
VERTEX
  8
0
  6
CONTINUOUS
 10
3.484800
 20
6.676560
  0
VERTEX
  8
0
  6
CONTINUOUS
 10
5.806240
 20
6.676560
  0
VERTEX
  8
0
  6
CONTINUOUS
 10
5.800960
 20
5.930760
  0
VERTEX
  8
0
  6
CONTINUOUS
 10
3.479520
 20
5.930760
  0
SEQEND
  8
0
  0
SOLID
  8
0
 62
    15
 10
5.856400
 20
5.857720
 11
5.861680
 21
6.603520
 12
5.887200
 22
5.860800
 13
5.892480
 23
6.606600
  0
POLYLINE
  8
0
  6
CONTINUOUS
 66
     1
 40
0.000000
 41
0.000000
  0
VERTEX
  8
0
  6
CONTINUOUS
 10
5.856400
 20
5.857720
  0
VERTEX
  8
0
  6
CONTINUOUS
 10
5.861680
 20
6.603520
  0
VERTEX
  8
0
  6
CONTINUOUS
 10
5.892480
 20
6.606600
  0
VERTEX
  8
0
  6
CONTINUOUS
 10
5.887200
 20
5.860800
  0
VERTEX
  8
0
  6
CONTINUOUS
 10
5.856400
 20
5.857720
  0
SEQEND
  8
0
  0
SOLID
  8
0
 62
    15
 10
5.887200
 20
5.860800
 11
5.892480
 21
6.606600
 12
5.941760
 22
5.858600
 13
5.947040
 23
6.604400
  0
POLYLINE
  8
0
  6
CONTINUOUS
 66
     1
 40
0.000000
 41
0.000000
  0
VERTEX
  8
0
  6
CONTINUOUS
 10
5.887200
 20
5.860800
  0
VERTEX
  8
0
  6
CONTINUOUS
 10
5.892480
 20
6.606600
  0
VERTEX
  8
0
  6
CONTINUOUS
 10
5.947040
 20
6.604400
  0
VERTEX
  8
0
  6
CONTINUOUS
 10
5.941760
 20
5.858600
  0
VERTEX
  8
0
  6
CONTINUOUS
 10
5.887200
 20
5.860800
  0
SEQEND
  8
0
  0
SOLID
  8
0
 62
    15
 10
5.941760
 20
5.858600
 11
5.947040
 21
6.604400
 12
5.988400
 22
5.846720
 13
5.993680
 23
6.592520
  0
POLYLINE
  8
0
  6
CONTINUOUS
 66
     1
 40
0.000000
 41
0.000000
  0
VERTEX
  8
0
  6
CONTINUOUS
 10
5.941760
 20
5.858600
  0
VERTEX
  8
0
  6
CONTINUOUS
 10
5.947040
 20
6.604400
  0
VERTEX
  8
0
  6
CONTINUOUS
 10
5.993680
 20
6.592520
  0
VERTEX
  8
0
  6
CONTINUOUS
 10
5.988400
 20
5.846720
  0
VERTEX
  8
0
  6
CONTINUOUS
 10
5.941760
 20
5.858600
  0
SEQEND
  8
0
  0
SOLID
  8
0
 62
    15
 10
5.988400
 20
5.846720
 11
5.993680
 21
6.592520
 12
6.027560
 22
5.827800
 13
6.032840
 23
6.573160
  0
POLYLINE
  8
0
  6
CONTINUOUS
 66
     1
 40
0.000000
 41
0.000000
  0
VERTEX
  8
0
  6
CONTINUOUS
 10
5.988400
 20
5.846720
  0
VERTEX
  8
0
  6
CONTINUOUS
 10
5.993680
 20
6.592520
  0
VERTEX
  8
0
  6
CONTINUOUS
 10
6.032840
 20
6.573160
  0
VERTEX
  8
0
  6
CONTINUOUS
 10
6.027560
 20
5.827800
  0
VERTEX
  8
0
  6
CONTINUOUS
 10
5.988400
 20
5.846720
  0
SEQEND
  8
0
  0
SOLID
  8
0
 62
    15
 10
6.027560
 20
5.827800
 11
6.032840
 21
6.573160
 12
6.060560
 22
5.804040
 13
6.065840
 23
6.549840
  0
POLYLINE
  8
0
  6
CONTINUOUS
 66
     1
 40
0.000000
 41
0.000000
  0
VERTEX
  8
0
  6
CONTINUOUS
 10
6.027560
 20
5.827800
  0
VERTEX
  8
0
  6
CONTINUOUS
 10
6.032840
 20
6.573160
  0
VERTEX
  8
0
  6
CONTINUOUS
 10
6.065840
 20
6.549840
  0
VERTEX
  8
0
  6
CONTINUOUS
 10
6.060560
 20
5.804040
  0
VERTEX
  8
0
  6
CONTINUOUS
 10
6.027560
 20
5.827800
  0
SEQEND
  8
0
  0
SOLID
  8
0
 62
    15
 10
6.060560
 20
5.804040
 11
6.065840
 21
6.549840
 12
6.088280
 22
5.778080
 13
6.093560
 23
6.523880
  0
POLYLINE
  8
0
  6
CONTINUOUS
 66
     1
 40
0.000000
 41
0.000000
  0
VERTEX
  8
0
  6
CONTINUOUS
 10
6.060560
 20
5.804040
  0
VERTEX
  8
0
  6
CONTINUOUS
 10
6.065840
 20
6.549840
  0
VERTEX
  8
0
  6
CONTINUOUS
 10
6.093560
 20
6.523880
  0
VERTEX
  8
0
  6
CONTINUOUS
 10
6.088280
 20
5.778080
  0
VERTEX
  8
0
  6
CONTINUOUS
 10
6.060560
 20
5.804040
  0
SEQEND
  8
0
  0
SOLID
  8
0
 62
    15
 10
6.088280
 20
5.778080
 11
6.093560
 21
6.523880
 12
6.112480
 22
5.753000
 13
6.117760
 23
6.498360
  0
POLYLINE
  8
0
  6
CONTINUOUS
 66
     1
 40
0.000000
 41
0.000000
  0
VERTEX
  8
0
  6
CONTINUOUS
 10
6.088280
 20
5.778080
  0
VERTEX
  8
0
  6
CONTINUOUS
 10
6.093560
 20
6.523880
  0
VERTEX
  8
0
  6
CONTINUOUS
 10
6.117760
 20
6.498360
  0
VERTEX
  8
0
  6
CONTINUOUS
 10
6.112480
 20
5.753000
  0
VERTEX
  8
0
  6
CONTINUOUS
 10
6.088280
 20
5.778080
  0
SEQEND
  8
0
  0
SOLID
  8
0
 62
    15
 10
6.112480
 20
5.753000
 11
6.117760
 21
6.498360
 12
6.133160
 22
5.730120
 13
6.138440
 23
6.475920
  0
POLYLINE
  8
0
  6
CONTINUOUS
 66
     1
 40
0.000000
 41
0.000000
  0
VERTEX
  8
0
  6
CONTINUOUS
 10
6.112480
 20
5.753000
  0
VERTEX
  8
0
  6
CONTINUOUS
 10
6.117760
 20
6.498360
  0
VERTEX
  8
0
  6
CONTINUOUS
 10
6.138440
 20
6.475920
  0
VERTEX
  8
0
  6
CONTINUOUS
 10
6.133160
 20
5.730120
  0
VERTEX
  8
0
  6
CONTINUOUS
 10
6.112480
 20
5.753000
  0
SEQEND
  8
0
  0
SOLID
  8
0
 62
    15
 10
6.133160
 20
5.730120
 11
6.138440
 21
6.475920
 12
6.156040
 22
5.708560
 13
6.161320
 23
6.454360
  0
POLYLINE
  8
0
  6
CONTINUOUS
 66
     1
 40
0.000000
 41
0.000000
  0
VERTEX
  8
0
  6
CONTINUOUS
 10
6.133160
 20
5.730120
  0
VERTEX
  8
0
  6
CONTINUOUS
 10
6.138440
 20
6.475920
  0
VERTEX
  8
0
  6
CONTINUOUS
 10
6.161320
 20
6.454360
  0
VERTEX
  8
0
  6
CONTINUOUS
 10
6.156040
 20
5.708560
  0
VERTEX
  8
0
  6
CONTINUOUS
 10
6.133160
 20
5.730120
  0
SEQEND
  8
0
  0
SOLID
  8
0
 62
    15
 10
6.156040
 20
5.708560
 11
6.161320
 21
6.454360
 12
6.185520
 22
5.684800
 13
6.190800
 23
6.430600
  0
POLYLINE
  8
0
  6
CONTINUOUS
 66
     1
 40
0.000000
 41
0.000000
  0
VERTEX
  8
0
  6
CONTINUOUS
 10
6.156040
 20
5.708560
  0
VERTEX
  8
0
  6
CONTINUOUS
 10
6.161320
 20
6.454360
  0
VERTEX
  8
0
  6
CONTINUOUS
 10
6.190800
 20
6.430600
  0
VERTEX
  8
0
  6
CONTINUOUS
 10
6.185520
 20
5.684800
  0
VERTEX
  8
0
  6
CONTINUOUS
 10
6.156040
 20
5.708560
  0
SEQEND
  8
0
  0
SOLID
  8
0
 62
    15
 10
6.185520
 20
5.684800
 11
6.190800
 21
6.430600
 12
6.220720
 22
5.661040
 13
6.226000
 23
6.406840
  0
POLYLINE
  8
0
  6
CONTINUOUS
 66
     1
 40
0.000000
 41
0.000000
  0
VERTEX
  8
0
  6
CONTINUOUS
 10
6.185520
 20
5.684800
  0
VERTEX
  8
0
  6
CONTINUOUS
 10
6.190800
 20
6.430600
  0
VERTEX
  8
0
  6
CONTINUOUS
 10
6.226000
 20
6.406840
  0
VERTEX
  8
0
  6
CONTINUOUS
 10
6.220720
 20
5.661040
  0
VERTEX
  8
0
  6
CONTINUOUS
 10
6.185520
 20
5.684800
  0
SEQEND
  8
0
  0
SOLID
  8
0
 62
    15
 10
6.220720
 20
5.661040
 11
6.226000
 21
6.406840
 12
6.261640
 22
5.638600
 13
6.266920
 23
6.383960
  0
POLYLINE
  8
0
  6
CONTINUOUS
 66
     1
 40
0.000000
 41
0.000000
  0
VERTEX
  8
0
  6
CONTINUOUS
 10
6.220720
 20
5.661040
  0
VERTEX
  8
0
  6
CONTINUOUS
 10
6.226000
 20
6.406840
  0
VERTEX
  8
0
  6
CONTINUOUS
 10
6.266920
 20
6.383960
  0
VERTEX
  8
0
  6
CONTINUOUS
 10
6.261640
 20
5.638600
  0
VERTEX
  8
0
  6
CONTINUOUS
 10
6.220720
 20
5.661040
  0
SEQEND
  8
0
  0
SOLID
  8
0
 62
    15
 10
6.261640
 20
5.638600
 11
6.266920
 21
6.383960
 12
6.306960
 22
5.618360
 13
6.312240
 23
6.363720
  0
POLYLINE
  8
0
  6
CONTINUOUS
 66
     1
 40
0.000000
 41
0.000000
  0
VERTEX
  8
0
  6
CONTINUOUS
 10
6.261640
 20
5.638600
  0
VERTEX
  8
0
  6
CONTINUOUS
 10
6.266920
 20
6.383960
  0
VERTEX
  8
0
  6
CONTINUOUS
 10
6.312240
 20
6.363720
  0
VERTEX
  8
0
  6
CONTINUOUS
 10
6.306960
 20
5.618360
  0
VERTEX
  8
0
  6
CONTINUOUS
 10
6.261640
 20
5.638600
  0
SEQEND
  8
0
  0
SOLID
  8
0
 62
    15
 10
6.306960
 20
5.618360
 11
6.312240
 21
6.363720
 12
6.356240
 22
5.602080
 13
6.361520
 23
6.347440
  0
POLYLINE
  8
0
  6
CONTINUOUS
 66
     1
 40
0.000000
 41
0.000000
  0
VERTEX
  8
0
  6
CONTINUOUS
 10
6.306960
 20
5.618360
  0
VERTEX
  8
0
  6
CONTINUOUS
 10
6.312240
 20
6.363720
  0
VERTEX
  8
0
  6
CONTINUOUS
 10
6.361520
 20
6.347440
  0
VERTEX
  8
0
  6
CONTINUOUS
 10
6.356240
 20
5.602080
  0
VERTEX
  8
0
  6
CONTINUOUS
 10
6.306960
 20
5.618360
  0
SEQEND
  8
0
  0
SOLID
  8
0
 62
    15
 10
6.356240
 20
5.602080
 11
6.361520
 21
6.347440
 12
6.409480
 22
5.591080
 13
6.414760
 23
6.336880
  0
POLYLINE
  8
0
  6
CONTINUOUS
 66
     1
 40
0.000000
 41
0.000000
  0
VERTEX
  8
0
  6
CONTINUOUS
 10
6.356240
 20
5.602080
  0
VERTEX
  8
0
  6
CONTINUOUS
 10
6.361520
 20
6.347440
  0
VERTEX
  8
0
  6
CONTINUOUS
 10
6.414760
 20
6.336880
  0
VERTEX
  8
0
  6
CONTINUOUS
 10
6.409480
 20
5.591080
  0
VERTEX
  8
0
  6
CONTINUOUS
 10
6.356240
 20
5.602080
  0
SEQEND
  8
0
  0
SOLID
  8
0
 62
    15
 10
6.466240
 20
5.587120
 11
6.471520
 21
6.332920
 12
6.466240
 22
5.419040
 13
6.471520
 23
6.164840
  0
POLYLINE
  8
0
  6
CONTINUOUS
 66
     1
 40
0.000000
 41
0.000000
  0
VERTEX
  8
0
  6
CONTINUOUS
 10
6.466240
 20
5.587120
  0
VERTEX
  8
0
  6
CONTINUOUS
 10
6.471520
 20
6.332920
  0
VERTEX
  8
0
  6
CONTINUOUS
 10
6.471520
 20
6.164840
  0
VERTEX
  8
0
  6
CONTINUOUS
 10
6.466240
 20
5.419040
  0
VERTEX
  8
0
  6
CONTINUOUS
 10
6.466240
 20
5.587120
  0
SEQEND
  8
0
  0
SOLID
  8
0
 62
    15
 10
6.409480
 20
5.591080
 11
6.414760
 21
6.336880
 12
6.466240
 22
5.587120
 13
6.471520
 23
6.332920
  0
POLYLINE
  8
0
  6
CONTINUOUS
 66
     1
 40
0.000000
 41
0.000000
  0
VERTEX
  8
0
  6
CONTINUOUS
 10
6.409480
 20
5.591080
  0
VERTEX
  8
0
  6
CONTINUOUS
 10
6.414760
 20
6.336880
  0
VERTEX
  8
0
  6
CONTINUOUS
 10
6.471520
 20
6.332920
  0
VERTEX
  8
0
  6
CONTINUOUS
 10
6.466240
 20
5.587120
  0
VERTEX
  8
0
  6
CONTINUOUS
 10
6.409480
 20
5.591080
  0
SEQEND
  8
0
  0
POLYLINE
  8
0
  6
CONTINUOUS
 66
     1
 40
0.000000
 41
0.000000
  0
VERTEX
  8
0
  6
CONTINUOUS
 10
2.003760
 20
5.419040
  0
VERTEX
  8
0
  6
CONTINUOUS
 10
2.009040
 20
6.164840
  0
VERTEX
  8
0
  6
CONTINUOUS
 10
2.003760
 20
5.419040
  0
SEQEND
  8
0
  0
POLYLINE
  8
0
  6
CONTINUOUS
 66
     1
 40
0.000000
 41
0.000000
  0
VERTEX
  8
0
  6
CONTINUOUS
 10
2.003760
 20
5.419040
  0
VERTEX
  8
0
  6
CONTINUOUS
 10
2.003760
 20
6.229520
  0
VERTEX
  8
0
  6
CONTINUOUS
 10
2.466200
 20
6.229520
  0
VERTEX
  8
0
  6
CONTINUOUS
 10
2.489080
 20
6.139760
  0
VERTEX
  8
0
  6
CONTINUOUS
 10
2.532200
 20
6.139760
  0
VERTEX
  8
0
  6
CONTINUOUS
 10
2.541880
 20
6.171880
  0
VERTEX
  8
0
  6
CONTINUOUS
 10
2.562120
 20
6.197400
  0
VERTEX
  8
0
  6
CONTINUOUS
 10
2.590720
 20
6.214560
  0
VERTEX
  8
0
  6
CONTINUOUS
 10
2.625920
 20
6.223360
  0
VERTEX
  8
0
  6
CONTINUOUS
 10
2.665960
 20
6.222480
  0
VERTEX
  8
0
  6
CONTINUOUS
 10
2.708640
 20
6.211480
  0
VERTEX
  8
0
  6
CONTINUOUS
 10
2.751760
 20
6.189040
  0
VERTEX
  8
0
  6
CONTINUOUS
 10
2.836680
 20
6.118200
  0
VERTEX
  8
0
  6
CONTINUOUS
 10
2.881560
 20
6.090920
  0
VERTEX
  8
0
  6
CONTINUOUS
 10
2.927760
 20
6.071560
  0
VERTEX
  8
0
  6
CONTINUOUS
 10
2.973520
 20
6.057920
  0
VERTEX
  8
0
  6
CONTINUOUS
 10
3.017960
 20
6.049560
  0
VERTEX
  8
0
  6
CONTINUOUS
 10
3.058880
 20
6.044720
  0
VERTEX
  8
0
  6
CONTINUOUS
 10
3.126640
 20
6.039880
  0
VERTEX
  8
0
  6
CONTINUOUS
 10
3.129720
 20
6.057040
  0
VERTEX
  8
0
  6
CONTINUOUS
 10
3.136760
 20
6.072880
  0
VERTEX
  8
0
  6
CONTINUOUS
 10
3.159640
 20
6.099280
  0
VERTEX
  8
0
  6
CONTINUOUS
 10
3.191320
 20
6.117320
  0
VERTEX
  8
0
  6
CONTINUOUS
 10
3.228280
 20
6.125680
  0
VERTEX
  8
0
  6
CONTINUOUS
 10
3.267000
 20
6.122160
  0
VERTEX
  8
0
  6
CONTINUOUS
 10
3.303520
 20
6.105440
  0
VERTEX
  8
0
  6
CONTINUOUS
 10
3.319800
 20
6.091800
  0
VERTEX
  8
0
  6
CONTINUOUS
 10
3.333880
 20
6.073760
  0
VERTEX
  8
0
  6
CONTINUOUS
 10
3.346200
 20
6.051760
  0
VERTEX
  8
0
  6
CONTINUOUS
 10
3.355000
 20
6.025360
  0
VERTEX
  8
0
  6
CONTINUOUS
 10
3.461920
 20
6.025360
  0
VERTEX
  8
0
  6
CONTINUOUS
 10
3.479520
 20
5.930760
  0
VERTEX
  8
0
  6
CONTINUOUS
 10
5.800960
 20
5.930760
  0
VERTEX
  8
0
  6
CONTINUOUS
 10
5.823400
 20
5.851120
  0
VERTEX
  8
0
  6
CONTINUOUS
 10
5.856400
 20
5.857720
  0
VERTEX
  8
0
  6
CONTINUOUS
 10
5.887200
 20
5.860800
  0
VERTEX
  8
0
  6
CONTINUOUS
 10
5.941760
 20
5.858600
  0
VERTEX
  8
0
  6
CONTINUOUS
 10
5.988400
 20
5.846720
  0
VERTEX
  8
0
  6
CONTINUOUS
 10
6.027560
 20
5.827800
  0
VERTEX
  8
0
  6
CONTINUOUS
 10
6.060560
 20
5.804040
  0
VERTEX
  8
0
  6
CONTINUOUS
 10
6.112480
 20
5.753000
  0
VERTEX
  8
0
  6
CONTINUOUS
 10
6.133160
 20
5.730120
  0
VERTEX
  8
0
  6
CONTINUOUS
 10
6.156040
 20
5.708560
  0
VERTEX
  8
0
  6
CONTINUOUS
 10
6.185520
 20
5.684800
  0
VERTEX
  8
0
  6
CONTINUOUS
 10
6.220720
 20
5.661040
  0
VERTEX
  8
0
  6
CONTINUOUS
 10
6.261640
 20
5.638600
  0
VERTEX
  8
0
  6
CONTINUOUS
 10
6.306960
 20
5.618360
  0
VERTEX
  8
0
  6
CONTINUOUS
 10
6.356240
 20
5.602080
  0
VERTEX
  8
0
  6
CONTINUOUS
 10
6.409480
 20
5.591080
  0
VERTEX
  8
0
  6
CONTINUOUS
 10
6.466240
 20
5.587120
  0
VERTEX
  8
0
  6
CONTINUOUS
 10
6.466240
 20
5.419040
  0
VERTEX
  8
0
  6
CONTINUOUS
 10
2.003760
 20
5.419040
  0
SEQEND
  8
0
  0
TEXT
  8
0
 10
3.896200
 20
5.145360
 40
0.137955
  1
BA  1267
 41
1.000000
  7
SN0
 71
     0
 72
     5
 11
4.577778
 21
5.145360
  0
TEXT
  8
0
 10
3.648040
 20
4.953520
 40
0.137955
  1
13/16" x 4-7/16"
 41
1.000000
  7
SN0
 71
     0
 72
     5
 11
4.824425
 21
4.953520
  0
TEXT
  8
0
 10
3.985080
 20
7.725960
 40
0.137955
  1
BA  1267
 41
1.000000
  7
SN0
 71
     0
 72
     5
 11
4.666658
 21
7.725960
  0
TEXT
  8
0
 10
3.736920
 20
7.534120
 40
0.137955
  1
13/16" x 4-7/16"
 41
1.000000
  7
SN0
 71
     0
 72
     5
 11
4.913305
 21
7.534120
  0
ENDSEC
  0
EOF
