  0
SECTION
  2
HEADER
  9
$ACADVER
  1
AC1006
  9
$EXTMIN
 10
1.716440
 20
0.503800
  9
$EXTMAX
 10
7.489240
 20
9.319640
  9
$LTSCALE
 40
0.044000
  9
$PDMODE
 70
    35
  9
$PDSIZE
 40
0.035200
  0
ENDSEC
  0
SECTION
  2
TABLES
  0
TABLE
  2
LTYPE
 70
     9
  0
LTYPE
  2
CONTINUOUS
 70
    64
  3
Solid line
 72
    65
 73
     0
 40
0.000000
  0
LTYPE
  2
DASHED
 70
    64
  3
__ __ __ __ __ __ __ __ __ __ __ __ __ __ __
 72
    65
 73
     2
 40
0.000330
 49
0.000220
 49
-0.000110
  0
LTYPE
  2
HIDDEN
 70
    64
  3
 _ _ _ _ _ _ _ _ _ _ _ _ _ _ _ _ _ _ _ _ _ _
 72
    65
 73
     2
 40
0.000165
 49
0.000110
 49
-0.000055
  0
LTYPE
  2
CENTER
 70
    64
  3
____ _ ____ _ ____ _ ____ _ ____ _ ____ _ ____
 72
    65
 73
     4
 40
0.000880
 49
0.000550
 49
-0.000110
 49
0.000110
 49
-0.000110
  0
LTYPE
  2
PHANTOM
 70
    64
  3
_____ _ _ _____ _ _ _____ _ _ _____ _ _ ____
 72
    65
 73
     6
 40
0.001100
 49
0.000550
 49
-0.000110
 49
0.000110
 49
-0.000110
 49
0.000110
 49
-0.000110
  0
LTYPE
  2
DOT
 70
    64
  3
...............................................
 72
    65
 73
     2
 40
0.000110
 49
0.000000
 49
-0.000110
  0
LTYPE
  2
DASHDOT
 70
    64
  3
__ . __ . __ . __ . __ . __ . __ . __ . __ . __
 72
    65
 73
     4
 40
0.000440
 49
0.000220
 49
-0.000110
 49
0.000000
 49
-0.000110
  0
LTYPE
  2
BORDER
 70
    64
  3
__ __ . __ __ . __ __ . __ __ . __ __ . __ __
 72
    65
 73
     6
 40
0.000770
 49
0.000220
 49
-0.000110
 49
0.000220
 49
-0.000110
 49
0.000000
 49
-0.000110
  0
LTYPE
  2
DIVIDE
 70
    64
  3
__ . . __ . . __ . . __ . . __ . . __ . . __
 72
    65
 73
     6
 40
0.000550
 49
0.000220
 49
-0.000110
 49
0.000000
 49
-0.000110
 49
0.000000
 49
-0.000110
  0
LTYPE
  2
DOTDOT
 70
    64
  3
 . .  . .  . .  . .  . .  . . 
 72
    65
 73
     5
 40
0.000242
 49
-0.000110
 49
0.000000
 49
-0.000110
 49
0.000000
 49
-0.000110
  0
ENDTAB
  0
TABLE
  2
STYLE
 70
     2
  0
STYLE
 70
     0
  2
SN0
 40
0.000000
 41
0.000440
 50
0.000000
 71
     0
 42
0.000000
  3
ROMAND
  0
STYLE
 70
    68
  2
SV0
 40
0.000000
 41
0.000440
 50
0.000000
 71
     0
 42
0.000000
  3
ROMAND
  0
ENDTAB
  0
TABLE
  2
LAYER
 70
     3
  0
LAYER
  2
FOREGROUND
 70
    64
 62
     7
  6
CONTINUOUS
  0
LAYER
  2
BACKGROUND
 70
    65
 62
    -7
  6
CONTINUOUS
  0
LAYER
  2
0
 70
    64
 62
     7
  6
CONTINUOUS
  0
ENDTAB
  0
ENDSEC
  0
SECTION
  2
ENTITIES
  0
POLYLINE
  8
FOREGROUND
  6
CONTINUOUS
 66
     1
 40
0.000000
 41
0.000000
  0
VERTEX
  8
FOREGROUND
  6
CONTINUOUS
 10
0.000000
 20
9.823440
  0
VERTEX
  8
FOREGROUND
  6
CONTINUOUS
 10
8.499920
 20
9.823440
  0
VERTEX
  8
FOREGROUND
  6
CONTINUOUS
 10
8.499920
 20
-1.176560
  0
VERTEX
  8
FOREGROUND
  6
CONTINUOUS
 10
0.000000
 20
-1.176560
  0
VERTEX
  8
FOREGROUND
  6
CONTINUOUS
 10
0.000000
 20
9.823440
  0
SEQEND
  8
0
  0
POLYLINE
  8
FOREGROUND
  6
CONTINUOUS
 66
     1
 40
0.000000
 41
0.000000
  0
VERTEX
  8
FOREGROUND
  6
CONTINUOUS
 10
0.000000
 20
9.823440
  0
VERTEX
  8
FOREGROUND
  6
CONTINUOUS
 10
8.499920
 20
9.823440
  0
VERTEX
  8
FOREGROUND
  6
CONTINUOUS
 10
8.499920
 20
-1.176560
  0
VERTEX
  8
FOREGROUND
  6
CONTINUOUS
 10
0.000000
 20
-1.176560
  0
VERTEX
  8
FOREGROUND
  6
CONTINUOUS
 10
0.000000
 20
9.823440
  0
SEQEND
  8
0
  0
POLYLINE
  8
0
  6
CONTINUOUS
 66
     1
 40
0.014080
 41
0.014080
  0
VERTEX
  8
0
  6
CONTINUOUS
 10
3.843840
 20
9.312160
  0
VERTEX
  8
0
  6
CONTINUOUS
 10
2.646600
 20
9.312160
  0
VERTEX
  8
0
  6
CONTINUOUS
 10
2.646600
 20
7.053640
  0
VERTEX
  8
0
  6
CONTINUOUS
 10
2.646600
 20
7.056720
  0
VERTEX
  8
0
  6
CONTINUOUS
 10
3.843400
 20
7.056720
  0
VERTEX
  8
0
  6
CONTINUOUS
 10
5.346440
 20
7.056720
  0
VERTEX
  8
0
  6
CONTINUOUS
 10
5.346440
 20
8.311160
  0
VERTEX
  8
0
  6
CONTINUOUS
 10
3.843400
 20
8.559760
  0
VERTEX
  8
0
  6
CONTINUOUS
 10
3.843400
 20
9.311280
  0
VERTEX
  8
0
  6
CONTINUOUS
 10
3.843400
 20
9.100080
  0
VERTEX
  8
0
  6
CONTINUOUS
 10
3.843840
 20
9.312160
  0
SEQEND
  8
0
  0
POLYLINE
  8
0
  6
CONTINUOUS
 66
     1
 40
0.000000
 41
0.000000
  0
VERTEX
  8
0
  6
CONTINUOUS
 10
3.219920
 20
2.762320
  0
VERTEX
  8
0
  6
CONTINUOUS
 10
4.417160
 20
2.762320
  0
VERTEX
  8
0
  6
CONTINUOUS
 10
4.417160
 20
0.504240
  0
VERTEX
  8
0
  6
CONTINUOUS
 10
4.417160
 20
0.507320
  0
VERTEX
  8
0
  6
CONTINUOUS
 10
3.220360
 20
0.507320
  0
VERTEX
  8
0
  6
CONTINUOUS
 10
1.717320
 20
0.507320
  0
VERTEX
  8
0
  6
CONTINUOUS
 10
1.717320
 20
1.761320
  0
VERTEX
  8
0
  6
CONTINUOUS
 10
3.220360
 20
2.009920
  0
VERTEX
  8
0
  6
CONTINUOUS
 10
3.220360
 20
2.761440
  0
VERTEX
  8
0
  6
CONTINUOUS
 10
3.220360
 20
2.550240
  0
VERTEX
  8
0
  6
CONTINUOUS
 10
3.219920
 20
2.762320
  0
SEQEND
  8
0
  0
POLYLINE
  8
0
  6
CONTINUOUS
 66
     1
 40
0.000000
 41
0.000000
  0
VERTEX
  8
0
  6
CONTINUOUS
 10
5.986200
 20
2.800600
  0
VERTEX
  8
0
  6
CONTINUOUS
 10
4.788960
 20
2.800600
  0
VERTEX
  8
0
  6
CONTINUOUS
 10
4.788960
 20
0.542080
  0
VERTEX
  8
0
  6
CONTINUOUS
 10
4.788960
 20
0.545160
  0
VERTEX
  8
0
  6
CONTINUOUS
 10
5.985760
 20
0.545160
  0
VERTEX
  8
0
  6
CONTINUOUS
 10
7.488800
 20
0.545160
  0
VERTEX
  8
0
  6
CONTINUOUS
 10
7.488800
 20
1.799600
  0
VERTEX
  8
0
  6
CONTINUOUS
 10
5.985760
 20
2.048200
  0
VERTEX
  8
0
  6
CONTINUOUS
 10
5.985760
 20
2.799720
  0
VERTEX
  8
0
  6
CONTINUOUS
 10
5.985760
 20
2.588520
  0
VERTEX
  8
0
  6
CONTINUOUS
 10
5.986200
 20
2.800600
  0
SEQEND
  8
0
  0
SOLID
  8
0
 62
    15
 10
3.830200
 20
5.516720
 11
4.480520
 21
5.903040
 12
5.333240
 22
5.268120
 13
5.983560
 23
5.654440
  0
POLYLINE
  8
0
  6
CONTINUOUS
 66
     1
 40
0.000000
 41
0.000000
  0
VERTEX
  8
0
  6
CONTINUOUS
 10
3.830200
 20
5.516720
  0
VERTEX
  8
0
  6
CONTINUOUS
 10
4.480520
 20
5.903040
  0
VERTEX
  8
0
  6
CONTINUOUS
 10
5.983560
 20
5.654440
  0
VERTEX
  8
0
  6
CONTINUOUS
 10
5.333240
 20
5.268120
  0
VERTEX
  8
0
  6
CONTINUOUS
 10
3.830200
 20
5.516720
  0
SEQEND
  8
0
  0
SOLID
  8
0
 62
    15
 10
5.333240
 20
5.268120
 11
5.983560
 21
5.654440
 12
5.333240
 22
4.013680
 13
5.983560
 23
4.400440
  0
POLYLINE
  8
0
  6
CONTINUOUS
 66
     1
 40
0.000000
 41
0.000000
  0
VERTEX
  8
0
  6
CONTINUOUS
 10
5.333240
 20
5.268120
  0
VERTEX
  8
0
  6
CONTINUOUS
 10
5.983560
 20
5.654440
  0
VERTEX
  8
0
  6
CONTINUOUS
 10
5.983560
 20
4.400440
  0
VERTEX
  8
0
  6
CONTINUOUS
 10
5.333240
 20
4.013680
  0
VERTEX
  8
0
  6
CONTINUOUS
 10
5.333240
 20
5.268120
  0
SEQEND
  8
0
  0
SOLID
  8
0
 62
    15
 10
2.633400
 20
6.269120
 11
3.283720
 21
6.655440
 12
3.830640
 22
6.269120
 13
4.480960
 23
6.655440
  0
POLYLINE
  8
0
  6
CONTINUOUS
 66
     1
 40
0.000000
 41
0.000000
  0
VERTEX
  8
0
  6
CONTINUOUS
 10
2.633400
 20
6.269120
  0
VERTEX
  8
0
  6
CONTINUOUS
 10
3.283720
 20
6.655440
  0
VERTEX
  8
0
  6
CONTINUOUS
 10
4.480960
 20
6.655440
  0
VERTEX
  8
0
  6
CONTINUOUS
 10
3.830640
 20
6.269120
  0
VERTEX
  8
0
  6
CONTINUOUS
 10
2.633400
 20
6.269120
  0
SEQEND
  8
0
  0
SOLID
  8
0
 62
    15
 10
3.830640
 20
6.269120
 11
4.480960
 21
6.655440
 12
3.830200
 22
6.057040
 13
4.480520
 23
6.443360
  0
POLYLINE
  8
0
  6
CONTINUOUS
 66
     1
 40
0.000000
 41
0.000000
  0
VERTEX
  8
0
  6
CONTINUOUS
 10
3.830640
 20
6.269120
  0
VERTEX
  8
0
  6
CONTINUOUS
 10
4.480960
 20
6.655440
  0
VERTEX
  8
0
  6
CONTINUOUS
 10
4.480520
 20
6.443360
  0
VERTEX
  8
0
  6
CONTINUOUS
 10
3.830200
 20
6.057040
  0
VERTEX
  8
0
  6
CONTINUOUS
 10
3.830640
 20
6.269120
  0
SEQEND
  8
0
  0
SOLID
  8
0
 62
    15
 10
3.830200
 20
6.057040
 11
4.480520
 21
6.443360
 12
3.830200
 22
5.516720
 13
4.480520
 23
5.903040
  0
POLYLINE
  8
0
  6
CONTINUOUS
 66
     1
 40
0.000000
 41
0.000000
  0
VERTEX
  8
0
  6
CONTINUOUS
 10
3.830200
 20
6.057040
  0
VERTEX
  8
0
  6
CONTINUOUS
 10
4.480520
 20
6.443360
  0
VERTEX
  8
0
  6
CONTINUOUS
 10
4.480520
 20
5.903040
  0
VERTEX
  8
0
  6
CONTINUOUS
 10
3.830200
 20
5.516720
  0
VERTEX
  8
0
  6
CONTINUOUS
 10
3.830200
 20
6.057040
  0
SEQEND
  8
0
  0
POLYLINE
  8
0
  6
CONTINUOUS
 66
     1
 40
0.000000
 41
0.000000
  0
VERTEX
  8
0
  6
CONTINUOUS
 10
3.830200
 20
6.057040
  0
VERTEX
  8
0
  6
CONTINUOUS
 10
3.830200
 20
5.516720
  0
VERTEX
  8
0
  6
CONTINUOUS
 10
5.333240
 20
5.268120
  0
VERTEX
  8
0
  6
CONTINUOUS
 10
5.333240
 20
4.013680
  0
VERTEX
  8
0
  6
CONTINUOUS
 10
2.633400
 20
4.013680
  0
VERTEX
  8
0
  6
CONTINUOUS
 10
2.633400
 20
6.269120
  0
VERTEX
  8
0
  6
CONTINUOUS
 10
3.830640
 20
6.269120
  0
VERTEX
  8
0
  6
CONTINUOUS
 10
3.830200
 20
6.057040
  0
SEQEND
  8
0
  0
TEXT
  8
0
 10
3.670480
 20
3.728560
 40
0.138193
  1
BA  1266
 41
1.000000
  7
SN0
 71
     0
 72
     5
 11
4.355471
 21
3.728560
  0
TEXT
  8
0
 10
3.670480
 20
3.536720
 40
0.138193
  1
2-1/4" x 2-3/4"
 41
1.000000
  7
SN0
 71
     0
 72
     5
 11
4.723532
 21
3.536720
  0
TEXT
  8
0
 10
3.362920
 20
7.381880
 40
0.138193
  1
BA  1266
 41
1.000000
  7
SN0
 71
     0
 72
     5
 11
4.047911
 21
7.381880
  0
TEXT
  8
0
 10
3.362920
 20
7.190040
 40
0.138193
  1
2-1/4" x 2-3/4"
 41
1.000000
  7
SN0
 71
     0
 72
     5
 11
4.415972
 21
7.190040
  0
ENDSEC
  0
EOF
