  0
SECTION
  2
HEADER
  9
$ACADVER
  1
AC1006
  9
$EXTMIN
 10
3.515160
 20
1.437480
  9
$EXTMAX
 10
5.120280
 20
7.564480
  9
$LTSCALE
 40
0.044000
  9
$PDMODE
 70
    35
  9
$PDSIZE
 40
0.035200
  0
ENDSEC
  0
SECTION
  2
TABLES
  0
TABLE
  2
LTYPE
 70
     9
  0
LTYPE
  2
CONTINUOUS
 70
    64
  3
Solid line
 72
    65
 73
     0
 40
0.000000
  0
LTYPE
  2
DASHED
 70
    64
  3
__ __ __ __ __ __ __ __ __ __ __ __ __ __ __
 72
    65
 73
     2
 40
0.000330
 49
0.000220
 49
-0.000110
  0
LTYPE
  2
HIDDEN
 70
    64
  3
 _ _ _ _ _ _ _ _ _ _ _ _ _ _ _ _ _ _ _ _ _ _
 72
    65
 73
     2
 40
0.000165
 49
0.000110
 49
-0.000055
  0
LTYPE
  2
CENTER
 70
    64
  3
____ _ ____ _ ____ _ ____ _ ____ _ ____ _ ____
 72
    65
 73
     4
 40
0.000880
 49
0.000550
 49
-0.000110
 49
0.000110
 49
-0.000110
  0
LTYPE
  2
PHANTOM
 70
    64
  3
_____ _ _ _____ _ _ _____ _ _ _____ _ _ ____
 72
    65
 73
     6
 40
0.001100
 49
0.000550
 49
-0.000110
 49
0.000110
 49
-0.000110
 49
0.000110
 49
-0.000110
  0
LTYPE
  2
DOT
 70
    64
  3
...............................................
 72
    65
 73
     2
 40
0.000110
 49
0.000000
 49
-0.000110
  0
LTYPE
  2
DASHDOT
 70
    64
  3
__ . __ . __ . __ . __ . __ . __ . __ . __ . __
 72
    65
 73
     4
 40
0.000440
 49
0.000220
 49
-0.000110
 49
0.000000
 49
-0.000110
  0
LTYPE
  2
BORDER
 70
    64
  3
__ __ . __ __ . __ __ . __ __ . __ __ . __ __
 72
    65
 73
     6
 40
0.000770
 49
0.000220
 49
-0.000110
 49
0.000220
 49
-0.000110
 49
0.000000
 49
-0.000110
  0
LTYPE
  2
DIVIDE
 70
    64
  3
__ . . __ . . __ . . __ . . __ . . __ . . __
 72
    65
 73
     6
 40
0.000550
 49
0.000220
 49
-0.000110
 49
0.000000
 49
-0.000110
 49
0.000000
 49
-0.000110
  0
LTYPE
  2
DOTDOT
 70
    64
  3
 . .  . .  . .  . .  . .  . . 
 72
    65
 73
     5
 40
0.000242
 49
-0.000110
 49
0.000000
 49
-0.000110
 49
0.000000
 49
-0.000110
  0
ENDTAB
  0
TABLE
  2
STYLE
 70
     2
  0
STYLE
 70
     0
  2
SN0
 40
0.000000
 41
0.000440
 50
0.000000
 71
     0
 42
0.000000
  3
ROMAND
  0
STYLE
 70
    68
  2
SV0
 40
0.000000
 41
0.000440
 50
0.000000
 71
     0
 42
0.000000
  3
ROMAND
  0
ENDTAB
  0
TABLE
  2
LAYER
 70
     3
  0
LAYER
  2
FOREGROUND
 70
    64
 62
     7
  6
CONTINUOUS
  0
LAYER
  2
BACKGROUND
 70
    65
 62
    -7
  6
CONTINUOUS
  0
LAYER
  2
0
 70
    64
 62
     7
  6
CONTINUOUS
  0
ENDTAB
  0
ENDSEC
  0
SECTION
  2
ENTITIES
  0
POLYLINE
  8
FOREGROUND
  6
CONTINUOUS
 66
     1
 40
0.000000
 41
0.000000
  0
VERTEX
  8
FOREGROUND
  6
CONTINUOUS
 10
0.000000
 20
9.001960
  0
VERTEX
  8
FOREGROUND
  6
CONTINUOUS
 10
8.499920
 20
9.001960
  0
VERTEX
  8
FOREGROUND
  6
CONTINUOUS
 10
8.499920
 20
-1.998040
  0
VERTEX
  8
FOREGROUND
  6
CONTINUOUS
 10
0.000000
 20
-1.998040
  0
VERTEX
  8
FOREGROUND
  6
CONTINUOUS
 10
0.000000
 20
9.001960
  0
SEQEND
  8
0
  0
POLYLINE
  8
FOREGROUND
  6
CONTINUOUS
 66
     1
 40
0.000000
 41
0.000000
  0
VERTEX
  8
FOREGROUND
  6
CONTINUOUS
 10
0.000000
 20
9.001960
  0
VERTEX
  8
FOREGROUND
  6
CONTINUOUS
 10
8.499920
 20
9.001960
  0
VERTEX
  8
FOREGROUND
  6
CONTINUOUS
 10
8.499920
 20
-1.998040
  0
VERTEX
  8
FOREGROUND
  6
CONTINUOUS
 10
0.000000
 20
-1.998040
  0
VERTEX
  8
FOREGROUND
  6
CONTINUOUS
 10
0.000000
 20
9.001960
  0
SEQEND
  8
0
  0
POLYLINE
  8
0
  6
CONTINUOUS
 66
     1
 40
0.014080
 41
0.014080
  0
VERTEX
  8
0
  6
CONTINUOUS
 10
5.112800
 20
6.706920
  0
VERTEX
  8
0
  6
CONTINUOUS
 10
3.522640
 20
6.706920
  0
VERTEX
  8
0
  6
CONTINUOUS
 10
3.522640
 20
7.557000
  0
VERTEX
  8
0
  6
CONTINUOUS
 10
4.277240
 20
7.557000
  0
VERTEX
  8
0
  6
CONTINUOUS
 10
4.288240
 20
7.388480
  0
VERTEX
  8
0
  6
CONTINUOUS
 10
4.308040
 20
7.385840
  0
VERTEX
  8
0
  6
CONTINUOUS
 10
4.367880
 20
7.408280
  0
VERTEX
  8
0
  6
CONTINUOUS
 10
4.418920
 20
7.421920
  0
VERTEX
  8
0
  6
CONTINUOUS
 10
4.448400
 20
7.426320
  0
VERTEX
  8
0
  6
CONTINUOUS
 10
4.475240
 20
7.427200
  0
VERTEX
  8
0
  6
CONTINUOUS
 10
4.499440
 20
7.424120
  0
VERTEX
  8
0
  6
CONTINUOUS
 10
4.521880
 20
7.417960
  0
VERTEX
  8
0
  6
CONTINUOUS
 10
4.551800
 20
7.401680
  0
VERTEX
  8
0
  6
CONTINUOUS
 10
4.579080
 20
7.377480
  0
VERTEX
  8
0
  6
CONTINUOUS
 10
4.605040
 20
7.346240
  0
VERTEX
  8
0
  6
CONTINUOUS
 10
4.640240
 20
7.293000
  0
VERTEX
  8
0
  6
CONTINUOUS
 10
4.710200
 20
7.172440
  0
VERTEX
  8
0
  6
CONTINUOUS
 10
4.763000
 20
7.075640
  0
VERTEX
  8
0
  6
CONTINUOUS
 10
4.779720
 20
7.047480
  0
VERTEX
  8
0
  6
CONTINUOUS
 10
4.815360
 20
6.997320
  0
VERTEX
  8
0
  6
CONTINUOUS
 10
4.845720
 20
6.966080
  0
VERTEX
  8
0
  6
CONTINUOUS
 10
4.868600
 20
6.948040
  0
VERTEX
  8
0
  6
CONTINUOUS
 10
4.908640
 20
6.925600
  0
VERTEX
  8
0
  6
CONTINUOUS
 10
4.939880
 20
6.913720
  0
VERTEX
  8
0
  6
CONTINUOUS
 10
4.994880
 20
6.900520
  0
VERTEX
  8
0
  6
CONTINUOUS
 10
5.038000
 20
6.895240
  0
VERTEX
  8
0
  6
CONTINUOUS
 10
5.086400
 20
6.892600
  0
VERTEX
  8
0
  6
CONTINUOUS
 10
5.112800
 20
6.892160
  0
VERTEX
  8
0
  6
CONTINUOUS
 10
5.112800
 20
6.707360
  0
SEQEND
  8
0
  0
POLYLINE
  8
0
  6
CONTINUOUS
 66
     1
 40
0.000000
 41
0.000000
  0
VERTEX
  8
0
  6
CONTINUOUS
 10
5.112800
 20
2.638240
  0
VERTEX
  8
0
  6
CONTINUOUS
 10
3.522640
 20
2.638240
  0
VERTEX
  8
0
  6
CONTINUOUS
 10
3.522640
 20
3.488320
  0
VERTEX
  8
0
  6
CONTINUOUS
 10
4.277240
 20
3.488320
  0
VERTEX
  8
0
  6
CONTINUOUS
 10
4.288240
 20
3.319800
  0
VERTEX
  8
0
  6
CONTINUOUS
 10
4.308040
 20
3.317160
  0
VERTEX
  8
0
  6
CONTINUOUS
 10
4.367880
 20
3.339600
  0
VERTEX
  8
0
  6
CONTINUOUS
 10
4.402640
 20
3.349720
  0
VERTEX
  8
0
  6
CONTINUOUS
 10
4.448400
 20
3.357640
  0
VERTEX
  8
0
  6
CONTINUOUS
 10
4.475240
 20
3.358520
  0
VERTEX
  8
0
  6
CONTINUOUS
 10
4.499440
 20
3.355880
  0
VERTEX
  8
0
  6
CONTINUOUS
 10
4.521880
 20
3.349280
  0
VERTEX
  8
0
  6
CONTINUOUS
 10
4.542120
 20
3.339160
  0
VERTEX
  8
0
  6
CONTINUOUS
 10
4.570280
 20
3.318040
  0
VERTEX
  8
0
  6
CONTINUOUS
 10
4.596680
 20
3.289000
  0
VERTEX
  8
0
  6
CONTINUOUS
 10
4.631440
 20
3.238840
  0
VERTEX
  8
0
  6
CONTINUOUS
 10
4.710200
 20
3.103760
  0
VERTEX
  8
0
  6
CONTINUOUS
 10
4.763000
 20
3.006960
  0
VERTEX
  8
0
  6
CONTINUOUS
 10
4.779720
 20
2.978800
  0
VERTEX
  8
0
  6
CONTINUOUS
 10
4.815360
 20
2.928640
  0
VERTEX
  8
0
  6
CONTINUOUS
 10
4.845720
 20
2.897400
  0
VERTEX
  8
0
  6
CONTINUOUS
 10
4.868600
 20
2.879360
  0
VERTEX
  8
0
  6
CONTINUOUS
 10
4.908640
 20
2.856920
  0
VERTEX
  8
0
  6
CONTINUOUS
 10
4.939880
 20
2.845040
  0
VERTEX
  8
0
  6
CONTINUOUS
 10
4.994880
 20
2.831840
  0
VERTEX
  8
0
  6
CONTINUOUS
 10
5.038000
 20
2.826560
  0
VERTEX
  8
0
  6
CONTINUOUS
 10
5.086400
 20
2.823920
  0
VERTEX
  8
0
  6
CONTINUOUS
 10
5.112800
 20
2.823480
  0
VERTEX
  8
0
  6
CONTINUOUS
 10
5.112800
 20
2.638680
  0
SEQEND
  8
0
  0
POLYLINE
  8
0
  6
CONTINUOUS
 66
     1
 40
0.000000
 41
0.000000
  0
VERTEX
  8
0
  6
CONTINUOUS
 10
3.522640
 20
1.437920
  0
VERTEX
  8
0
  6
CONTINUOUS
 10
5.112800
 20
1.437920
  0
VERTEX
  8
0
  6
CONTINUOUS
 10
5.112800
 20
2.287560
  0
VERTEX
  8
0
  6
CONTINUOUS
 10
4.358640
 20
2.287560
  0
VERTEX
  8
0
  6
CONTINUOUS
 10
4.347200
 20
2.119040
  0
VERTEX
  8
0
  6
CONTINUOUS
 10
4.327840
 20
2.116400
  0
VERTEX
  8
0
  6
CONTINUOUS
 10
4.268000
 20
2.138840
  0
VERTEX
  8
0
  6
CONTINUOUS
 10
4.233240
 20
2.148960
  0
VERTEX
  8
0
  6
CONTINUOUS
 10
4.187480
 20
2.156880
  0
VERTEX
  8
0
  6
CONTINUOUS
 10
4.160640
 20
2.157760
  0
VERTEX
  8
0
  6
CONTINUOUS
 10
4.136440
 20
2.155120
  0
VERTEX
  8
0
  6
CONTINUOUS
 10
4.114000
 20
2.148520
  0
VERTEX
  8
0
  6
CONTINUOUS
 10
4.093760
 20
2.138400
  0
VERTEX
  8
0
  6
CONTINUOUS
 10
4.065600
 20
2.117280
  0
VERTEX
  8
0
  6
CONTINUOUS
 10
4.039200
 20
2.088240
  0
VERTEX
  8
0
  6
CONTINUOUS
 10
4.013240
 20
2.052160
  0
VERTEX
  8
0
  6
CONTINUOUS
 10
3.956920
 20
1.958440
  0
VERTEX
  8
0
  6
CONTINUOUS
 10
3.872440
 20
1.806200
  0
VERTEX
  8
0
  6
CONTINUOUS
 10
3.838560
 20
1.752080
  0
VERTEX
  8
0
  6
CONTINUOUS
 10
3.810840
 20
1.716880
  0
VERTEX
  8
0
  6
CONTINUOUS
 10
3.778720
 20
1.687400
  0
VERTEX
  8
0
  6
CONTINUOUS
 10
3.754520
 20
1.670680
  0
VERTEX
  8
0
  6
CONTINUOUS
 10
3.726800
 20
1.656160
  0
VERTEX
  8
0
  6
CONTINUOUS
 10
3.695560
 20
1.644280
  0
VERTEX
  8
0
  6
CONTINUOUS
 10
3.640560
 20
1.631080
  0
VERTEX
  8
0
  6
CONTINUOUS
 10
3.597880
 20
1.625800
  0
VERTEX
  8
0
  6
CONTINUOUS
 10
3.549040
 20
1.623160
  0
VERTEX
  8
0
  6
CONTINUOUS
 10
3.522640
 20
1.622720
  0
VERTEX
  8
0
  6
CONTINUOUS
 10
3.522640
 20
1.437920
  0
SEQEND
  8
0
  0
SOLID
  8
0
 62
    15
 10
4.106080
 20
5.532120
 11
4.755960
 21
5.899080
 12
4.138640
 22
5.512760
 13
4.788520
 23
5.879720
  0
POLYLINE
  8
0
  6
CONTINUOUS
 66
     1
 40
0.000000
 41
0.000000
  0
VERTEX
  8
0
  6
CONTINUOUS
 10
4.106080
 20
5.532120
  0
VERTEX
  8
0
  6
CONTINUOUS
 10
4.755960
 20
5.899080
  0
VERTEX
  8
0
  6
CONTINUOUS
 10
4.788520
 20
5.879720
  0
VERTEX
  8
0
  6
CONTINUOUS
 10
4.138640
 20
5.512760
  0
VERTEX
  8
0
  6
CONTINUOUS
 10
4.106080
 20
5.532120
  0
SEQEND
  8
0
  0
SOLID
  8
0
 62
    15
 10
3.753200
 20
5.976080
 11
4.403080
 21
6.343480
 12
3.754520
 22
5.924600
 13
4.404400
 23
6.291560
  0
POLYLINE
  8
0
  6
CONTINUOUS
 66
     1
 40
0.000000
 41
0.000000
  0
VERTEX
  8
0
  6
CONTINUOUS
 10
3.753200
 20
5.976080
  0
VERTEX
  8
0
  6
CONTINUOUS
 10
4.403080
 20
6.343480
  0
VERTEX
  8
0
  6
CONTINUOUS
 10
4.404400
 20
6.291560
  0
VERTEX
  8
0
  6
CONTINUOUS
 10
3.754520
 20
5.924600
  0
VERTEX
  8
0
  6
CONTINUOUS
 10
3.753200
 20
5.976080
  0
SEQEND
  8
0
  0
SOLID
  8
0
 62
    15
 10
3.754520
 20
5.924600
 11
4.404400
 21
6.291560
 12
3.758480
 22
5.878840
 13
4.408360
 23
6.246240
  0
POLYLINE
  8
0
  6
CONTINUOUS
 66
     1
 40
0.000000
 41
0.000000
  0
VERTEX
  8
0
  6
CONTINUOUS
 10
3.754520
 20
5.924600
  0
VERTEX
  8
0
  6
CONTINUOUS
 10
4.404400
 20
6.291560
  0
VERTEX
  8
0
  6
CONTINUOUS
 10
4.408360
 20
6.246240
  0
VERTEX
  8
0
  6
CONTINUOUS
 10
3.758480
 20
5.878840
  0
VERTEX
  8
0
  6
CONTINUOUS
 10
3.754520
 20
5.924600
  0
SEQEND
  8
0
  0
SOLID
  8
0
 62
    15
 10
3.758480
 20
5.878840
 11
4.408360
 21
6.246240
 12
3.765520
 22
5.838800
 13
4.414960
 23
6.205760
  0
POLYLINE
  8
0
  6
CONTINUOUS
 66
     1
 40
0.000000
 41
0.000000
  0
VERTEX
  8
0
  6
CONTINUOUS
 10
3.758480
 20
5.878840
  0
VERTEX
  8
0
  6
CONTINUOUS
 10
4.408360
 20
6.246240
  0
VERTEX
  8
0
  6
CONTINUOUS
 10
4.414960
 20
6.205760
  0
VERTEX
  8
0
  6
CONTINUOUS
 10
3.765520
 20
5.838800
  0
VERTEX
  8
0
  6
CONTINUOUS
 10
3.758480
 20
5.878840
  0
SEQEND
  8
0
  0
SOLID
  8
0
 62
    15
 10
3.765520
 20
5.838800
 11
4.414960
 21
6.205760
 12
3.774760
 22
5.803160
 13
4.424640
 23
6.170120
  0
POLYLINE
  8
0
  6
CONTINUOUS
 66
     1
 40
0.000000
 41
0.000000
  0
VERTEX
  8
0
  6
CONTINUOUS
 10
3.765520
 20
5.838800
  0
VERTEX
  8
0
  6
CONTINUOUS
 10
4.414960
 20
6.205760
  0
VERTEX
  8
0
  6
CONTINUOUS
 10
4.424640
 20
6.170120
  0
VERTEX
  8
0
  6
CONTINUOUS
 10
3.774760
 20
5.803160
  0
VERTEX
  8
0
  6
CONTINUOUS
 10
3.765520
 20
5.838800
  0
SEQEND
  8
0
  0
SOLID
  8
0
 62
    15
 10
3.774760
 20
5.803160
 11
4.424640
 21
6.170120
 12
3.786640
 22
5.771920
 13
4.436520
 23
6.138880
  0
POLYLINE
  8
0
  6
CONTINUOUS
 66
     1
 40
0.000000
 41
0.000000
  0
VERTEX
  8
0
  6
CONTINUOUS
 10
3.774760
 20
5.803160
  0
VERTEX
  8
0
  6
CONTINUOUS
 10
4.424640
 20
6.170120
  0
VERTEX
  8
0
  6
CONTINUOUS
 10
4.436520
 20
6.138880
  0
VERTEX
  8
0
  6
CONTINUOUS
 10
3.786640
 20
5.771920
  0
VERTEX
  8
0
  6
CONTINUOUS
 10
3.774760
 20
5.803160
  0
SEQEND
  8
0
  0
SOLID
  8
0
 62
    15
 10
3.786640
 20
5.771920
 11
4.436520
 21
6.138880
 12
3.801160
 22
5.744200
 13
4.450600
 23
6.111600
  0
POLYLINE
  8
0
  6
CONTINUOUS
 66
     1
 40
0.000000
 41
0.000000
  0
VERTEX
  8
0
  6
CONTINUOUS
 10
3.786640
 20
5.771920
  0
VERTEX
  8
0
  6
CONTINUOUS
 10
4.436520
 20
6.138880
  0
VERTEX
  8
0
  6
CONTINUOUS
 10
4.450600
 20
6.111600
  0
VERTEX
  8
0
  6
CONTINUOUS
 10
3.801160
 20
5.744200
  0
VERTEX
  8
0
  6
CONTINUOUS
 10
3.786640
 20
5.771920
  0
SEQEND
  8
0
  0
SOLID
  8
0
 62
    15
 10
3.801160
 20
5.744200
 11
4.450600
 21
6.111600
 12
3.836800
 22
5.698000
 13
4.486680
 23
6.065400
  0
POLYLINE
  8
0
  6
CONTINUOUS
 66
     1
 40
0.000000
 41
0.000000
  0
VERTEX
  8
0
  6
CONTINUOUS
 10
3.801160
 20
5.744200
  0
VERTEX
  8
0
  6
CONTINUOUS
 10
4.450600
 20
6.111600
  0
VERTEX
  8
0
  6
CONTINUOUS
 10
4.486680
 20
6.065400
  0
VERTEX
  8
0
  6
CONTINUOUS
 10
3.836800
 20
5.698000
  0
VERTEX
  8
0
  6
CONTINUOUS
 10
3.801160
 20
5.744200
  0
SEQEND
  8
0
  0
SOLID
  8
0
 62
    15
 10
3.836800
 20
5.698000
 11
4.486680
 21
6.065400
 12
3.882560
 22
5.660160
 13
4.532000
 23
6.027560
  0
POLYLINE
  8
0
  6
CONTINUOUS
 66
     1
 40
0.000000
 41
0.000000
  0
VERTEX
  8
0
  6
CONTINUOUS
 10
3.836800
 20
5.698000
  0
VERTEX
  8
0
  6
CONTINUOUS
 10
4.486680
 20
6.065400
  0
VERTEX
  8
0
  6
CONTINUOUS
 10
4.532000
 20
6.027560
  0
VERTEX
  8
0
  6
CONTINUOUS
 10
3.882560
 20
5.660160
  0
VERTEX
  8
0
  6
CONTINUOUS
 10
3.836800
 20
5.698000
  0
SEQEND
  8
0
  0
SOLID
  8
0
 62
    15
 10
3.882560
 20
5.660160
 11
4.532000
 21
6.027560
 12
3.936680
 22
5.626280
 13
4.586120
 23
5.993680
  0
POLYLINE
  8
0
  6
CONTINUOUS
 66
     1
 40
0.000000
 41
0.000000
  0
VERTEX
  8
0
  6
CONTINUOUS
 10
3.882560
 20
5.660160
  0
VERTEX
  8
0
  6
CONTINUOUS
 10
4.532000
 20
6.027560
  0
VERTEX
  8
0
  6
CONTINUOUS
 10
4.586120
 20
5.993680
  0
VERTEX
  8
0
  6
CONTINUOUS
 10
3.936680
 20
5.626280
  0
VERTEX
  8
0
  6
CONTINUOUS
 10
3.882560
 20
5.660160
  0
SEQEND
  8
0
  0
SOLID
  8
0
 62
    15
 10
3.936680
 20
5.626280
 11
4.586120
 21
5.993680
 12
3.967040
 22
5.609560
 13
4.616480
 23
5.976520
  0
POLYLINE
  8
0
  6
CONTINUOUS
 66
     1
 40
0.000000
 41
0.000000
  0
VERTEX
  8
0
  6
CONTINUOUS
 10
3.936680
 20
5.626280
  0
VERTEX
  8
0
  6
CONTINUOUS
 10
4.586120
 20
5.993680
  0
VERTEX
  8
0
  6
CONTINUOUS
 10
4.616480
 20
5.976520
  0
VERTEX
  8
0
  6
CONTINUOUS
 10
3.967040
 20
5.609560
  0
VERTEX
  8
0
  6
CONTINUOUS
 10
3.936680
 20
5.626280
  0
SEQEND
  8
0
  0
SOLID
  8
0
 62
    15
 10
3.967040
 20
5.609560
 11
4.616480
 21
5.976520
 12
3.982880
 22
5.600760
 13
4.632760
 23
5.968160
  0
POLYLINE
  8
0
  6
CONTINUOUS
 66
     1
 40
0.000000
 41
0.000000
  0
VERTEX
  8
0
  6
CONTINUOUS
 10
3.967040
 20
5.609560
  0
VERTEX
  8
0
  6
CONTINUOUS
 10
4.616480
 20
5.976520
  0
VERTEX
  8
0
  6
CONTINUOUS
 10
4.632760
 20
5.968160
  0
VERTEX
  8
0
  6
CONTINUOUS
 10
3.982880
 20
5.600760
  0
VERTEX
  8
0
  6
CONTINUOUS
 10
3.967040
 20
5.609560
  0
SEQEND
  8
0
  0
SOLID
  8
0
 62
    15
 10
3.982880
 20
5.600760
 11
4.632760
 21
5.968160
 12
3.999160
 22
5.591960
 13
4.649040
 23
5.958920
  0
POLYLINE
  8
0
  6
CONTINUOUS
 66
     1
 40
0.000000
 41
0.000000
  0
VERTEX
  8
0
  6
CONTINUOUS
 10
3.982880
 20
5.600760
  0
VERTEX
  8
0
  6
CONTINUOUS
 10
4.632760
 20
5.968160
  0
VERTEX
  8
0
  6
CONTINUOUS
 10
4.649040
 20
5.958920
  0
VERTEX
  8
0
  6
CONTINUOUS
 10
3.999160
 20
5.591960
  0
VERTEX
  8
0
  6
CONTINUOUS
 10
3.982880
 20
5.600760
  0
SEQEND
  8
0
  0
SOLID
  8
0
 62
    15
 10
3.999160
 20
5.591960
 11
4.649040
 21
5.958920
 12
4.070000
 22
5.552800
 13
4.719880
 23
5.919760
  0
POLYLINE
  8
0
  6
CONTINUOUS
 66
     1
 40
0.000000
 41
0.000000
  0
VERTEX
  8
0
  6
CONTINUOUS
 10
3.999160
 20
5.591960
  0
VERTEX
  8
0
  6
CONTINUOUS
 10
4.649040
 20
5.958920
  0
VERTEX
  8
0
  6
CONTINUOUS
 10
4.719880
 20
5.919760
  0
VERTEX
  8
0
  6
CONTINUOUS
 10
4.070000
 20
5.552800
  0
VERTEX
  8
0
  6
CONTINUOUS
 10
3.999160
 20
5.591960
  0
SEQEND
  8
0
  0
SOLID
  8
0
 62
    15
 10
4.070000
 20
5.552800
 11
4.719880
 21
5.919760
 12
4.106080
 22
5.532120
 13
4.755960
 23
5.899080
  0
POLYLINE
  8
0
  6
CONTINUOUS
 66
     1
 40
0.000000
 41
0.000000
  0
VERTEX
  8
0
  6
CONTINUOUS
 10
4.070000
 20
5.552800
  0
VERTEX
  8
0
  6
CONTINUOUS
 10
4.719880
 20
5.919760
  0
VERTEX
  8
0
  6
CONTINUOUS
 10
4.755960
 20
5.899080
  0
VERTEX
  8
0
  6
CONTINUOUS
 10
4.106080
 20
5.532120
  0
VERTEX
  8
0
  6
CONTINUOUS
 10
4.070000
 20
5.552800
  0
SEQEND
  8
0
  0
SOLID
  8
0
 62
    15
 10
3.568400
 20
5.976080
 11
4.217840
 21
6.343480
 12
3.753200
 22
5.976080
 13
4.403080
 23
6.343480
  0
POLYLINE
  8
0
  6
CONTINUOUS
 66
     1
 40
0.000000
 41
0.000000
  0
VERTEX
  8
0
  6
CONTINUOUS
 10
3.568400
 20
5.976080
  0
VERTEX
  8
0
  6
CONTINUOUS
 10
4.217840
 20
6.343480
  0
VERTEX
  8
0
  6
CONTINUOUS
 10
4.403080
 20
6.343480
  0
VERTEX
  8
0
  6
CONTINUOUS
 10
3.753200
 20
5.976080
  0
VERTEX
  8
0
  6
CONTINUOUS
 10
3.568400
 20
5.976080
  0
SEQEND
  8
0
  0
SOLID
  8
0
 62
    15
 10
4.138640
 20
5.512760
 11
4.788520
 21
5.879720
 12
4.195400
 22
5.476680
 13
4.844840
 23
5.844080
  0
POLYLINE
  8
0
  6
CONTINUOUS
 66
     1
 40
0.000000
 41
0.000000
  0
VERTEX
  8
0
  6
CONTINUOUS
 10
4.138640
 20
5.512760
  0
VERTEX
  8
0
  6
CONTINUOUS
 10
4.788520
 20
5.879720
  0
VERTEX
  8
0
  6
CONTINUOUS
 10
4.844840
 20
5.844080
  0
VERTEX
  8
0
  6
CONTINUOUS
 10
4.195400
 20
5.476680
  0
VERTEX
  8
0
  6
CONTINUOUS
 10
4.138640
 20
5.512760
  0
SEQEND
  8
0
  0
SOLID
  8
0
 62
    15
 10
4.195400
 20
5.476680
 11
4.844840
 21
5.844080
 12
4.238520
 22
5.441920
 13
4.888400
 23
5.809320
  0
POLYLINE
  8
0
  6
CONTINUOUS
 66
     1
 40
0.000000
 41
0.000000
  0
VERTEX
  8
0
  6
CONTINUOUS
 10
4.195400
 20
5.476680
  0
VERTEX
  8
0
  6
CONTINUOUS
 10
4.844840
 20
5.844080
  0
VERTEX
  8
0
  6
CONTINUOUS
 10
4.888400
 20
5.809320
  0
VERTEX
  8
0
  6
CONTINUOUS
 10
4.238520
 20
5.441920
  0
VERTEX
  8
0
  6
CONTINUOUS
 10
4.195400
 20
5.476680
  0
SEQEND
  8
0
  0
SOLID
  8
0
 62
    15
 10
4.238520
 20
5.441920
 11
4.888400
 21
5.809320
 12
4.268880
 22
5.404960
 13
4.918760
 23
5.772360
  0
POLYLINE
  8
0
  6
CONTINUOUS
 66
     1
 40
0.000000
 41
0.000000
  0
VERTEX
  8
0
  6
CONTINUOUS
 10
4.238520
 20
5.441920
  0
VERTEX
  8
0
  6
CONTINUOUS
 10
4.888400
 20
5.809320
  0
VERTEX
  8
0
  6
CONTINUOUS
 10
4.918760
 20
5.772360
  0
VERTEX
  8
0
  6
CONTINUOUS
 10
4.268880
 20
5.404960
  0
VERTEX
  8
0
  6
CONTINUOUS
 10
4.238520
 20
5.441920
  0
SEQEND
  8
0
  0
SOLID
  8
0
 62
    15
 10
4.268880
 20
5.404960
 11
4.918760
 21
5.772360
 12
4.279000
 22
5.384720
 13
4.928440
 23
5.752120
  0
POLYLINE
  8
0
  6
CONTINUOUS
 66
     1
 40
0.000000
 41
0.000000
  0
VERTEX
  8
0
  6
CONTINUOUS
 10
4.268880
 20
5.404960
  0
VERTEX
  8
0
  6
CONTINUOUS
 10
4.918760
 20
5.772360
  0
VERTEX
  8
0
  6
CONTINUOUS
 10
4.928440
 20
5.752120
  0
VERTEX
  8
0
  6
CONTINUOUS
 10
4.279000
 20
5.384720
  0
VERTEX
  8
0
  6
CONTINUOUS
 10
4.268880
 20
5.404960
  0
SEQEND
  8
0
  0
SOLID
  8
0
 62
    15
 10
4.279000
 20
5.384720
 11
4.928440
 21
5.752120
 12
4.285160
 22
5.362720
 13
4.935040
 23
5.729680
  0
POLYLINE
  8
0
  6
CONTINUOUS
 66
     1
 40
0.000000
 41
0.000000
  0
VERTEX
  8
0
  6
CONTINUOUS
 10
4.279000
 20
5.384720
  0
VERTEX
  8
0
  6
CONTINUOUS
 10
4.928440
 20
5.752120
  0
VERTEX
  8
0
  6
CONTINUOUS
 10
4.935040
 20
5.729680
  0
VERTEX
  8
0
  6
CONTINUOUS
 10
4.285160
 20
5.362720
  0
VERTEX
  8
0
  6
CONTINUOUS
 10
4.279000
 20
5.384720
  0
SEQEND
  8
0
  0
SOLID
  8
0
 62
    15
 10
4.285160
 20
5.362720
 11
4.935040
 21
5.729680
 12
4.288240
 22
5.338520
 13
4.938120
 23
5.705480
  0
POLYLINE
  8
0
  6
CONTINUOUS
 66
     1
 40
0.000000
 41
0.000000
  0
VERTEX
  8
0
  6
CONTINUOUS
 10
4.285160
 20
5.362720
  0
VERTEX
  8
0
  6
CONTINUOUS
 10
4.935040
 20
5.729680
  0
VERTEX
  8
0
  6
CONTINUOUS
 10
4.938120
 20
5.705480
  0
VERTEX
  8
0
  6
CONTINUOUS
 10
4.288240
 20
5.338520
  0
VERTEX
  8
0
  6
CONTINUOUS
 10
4.285160
 20
5.362720
  0
SEQEND
  8
0
  0
SOLID
  8
0
 62
    15
 10
4.288240
 20
5.338520
 11
4.938120
 21
5.705480
 12
4.287360
 22
5.311680
 13
4.937240
 23
5.678640
  0
POLYLINE
  8
0
  6
CONTINUOUS
 66
     1
 40
0.000000
 41
0.000000
  0
VERTEX
  8
0
  6
CONTINUOUS
 10
4.288240
 20
5.338520
  0
VERTEX
  8
0
  6
CONTINUOUS
 10
4.938120
 20
5.705480
  0
VERTEX
  8
0
  6
CONTINUOUS
 10
4.937240
 20
5.678640
  0
VERTEX
  8
0
  6
CONTINUOUS
 10
4.287360
 20
5.311680
  0
VERTEX
  8
0
  6
CONTINUOUS
 10
4.288240
 20
5.338520
  0
SEQEND
  8
0
  0
SOLID
  8
0
 62
    15
 10
4.287360
 20
5.311680
 11
4.937240
 21
5.678640
 12
4.282960
 22
5.281760
 13
4.932840
 23
5.649160
  0
POLYLINE
  8
0
  6
CONTINUOUS
 66
     1
 40
0.000000
 41
0.000000
  0
VERTEX
  8
0
  6
CONTINUOUS
 10
4.287360
 20
5.311680
  0
VERTEX
  8
0
  6
CONTINUOUS
 10
4.937240
 20
5.678640
  0
VERTEX
  8
0
  6
CONTINUOUS
 10
4.932840
 20
5.649160
  0
VERTEX
  8
0
  6
CONTINUOUS
 10
4.282960
 20
5.281760
  0
VERTEX
  8
0
  6
CONTINUOUS
 10
4.287360
 20
5.311680
  0
SEQEND
  8
0
  0
SOLID
  8
0
 62
    15
 10
4.282960
 20
5.281760
 11
4.932840
 21
5.649160
 12
4.274600
 22
5.248760
 13
4.924480
 23
5.616160
  0
POLYLINE
  8
0
  6
CONTINUOUS
 66
     1
 40
0.000000
 41
0.000000
  0
VERTEX
  8
0
  6
CONTINUOUS
 10
4.282960
 20
5.281760
  0
VERTEX
  8
0
  6
CONTINUOUS
 10
4.932840
 20
5.649160
  0
VERTEX
  8
0
  6
CONTINUOUS
 10
4.924480
 20
5.616160
  0
VERTEX
  8
0
  6
CONTINUOUS
 10
4.274600
 20
5.248760
  0
VERTEX
  8
0
  6
CONTINUOUS
 10
4.282960
 20
5.281760
  0
SEQEND
  8
0
  0
SOLID
  8
0
 62
    15
 10
4.274600
 20
5.248760
 11
4.924480
 21
5.616160
 12
4.262720
 22
5.212240
 13
4.912600
 23
5.579200
  0
POLYLINE
  8
0
  6
CONTINUOUS
 66
     1
 40
0.000000
 41
0.000000
  0
VERTEX
  8
0
  6
CONTINUOUS
 10
4.274600
 20
5.248760
  0
VERTEX
  8
0
  6
CONTINUOUS
 10
4.924480
 20
5.616160
  0
VERTEX
  8
0
  6
CONTINUOUS
 10
4.912600
 20
5.579200
  0
VERTEX
  8
0
  6
CONTINUOUS
 10
4.262720
 20
5.212240
  0
VERTEX
  8
0
  6
CONTINUOUS
 10
4.274600
 20
5.248760
  0
SEQEND
  8
0
  0
SOLID
  8
0
 62
    15
 10
4.262720
 20
5.212240
 11
4.912600
 21
5.579200
 12
4.246880
 22
5.171320
 13
4.896760
 23
5.538280
  0
POLYLINE
  8
0
  6
CONTINUOUS
 66
     1
 40
0.000000
 41
0.000000
  0
VERTEX
  8
0
  6
CONTINUOUS
 10
4.262720
 20
5.212240
  0
VERTEX
  8
0
  6
CONTINUOUS
 10
4.912600
 20
5.579200
  0
VERTEX
  8
0
  6
CONTINUOUS
 10
4.896760
 20
5.538280
  0
VERTEX
  8
0
  6
CONTINUOUS
 10
4.246880
 20
5.171320
  0
VERTEX
  8
0
  6
CONTINUOUS
 10
4.262720
 20
5.212240
  0
SEQEND
  8
0
  0
SOLID
  8
0
 62
    15
 10
4.246880
 20
5.171320
 11
4.896760
 21
5.538280
 12
4.249520
 22
5.151520
 13
4.899400
 23
5.518920
  0
POLYLINE
  8
0
  6
CONTINUOUS
 66
     1
 40
0.000000
 41
0.000000
  0
VERTEX
  8
0
  6
CONTINUOUS
 10
4.246880
 20
5.171320
  0
VERTEX
  8
0
  6
CONTINUOUS
 10
4.896760
 20
5.538280
  0
VERTEX
  8
0
  6
CONTINUOUS
 10
4.899400
 20
5.518920
  0
VERTEX
  8
0
  6
CONTINUOUS
 10
4.249520
 20
5.151520
  0
VERTEX
  8
0
  6
CONTINUOUS
 10
4.246880
 20
5.171320
  0
SEQEND
  8
0
  0
SOLID
  8
0
 62
    15
 10
4.249520
 20
5.151520
 11
4.899400
 21
5.518920
 12
4.418040
 22
5.140520
 13
5.067480
 23
5.507480
  0
POLYLINE
  8
0
  6
CONTINUOUS
 66
     1
 40
0.000000
 41
0.000000
  0
VERTEX
  8
0
  6
CONTINUOUS
 10
4.249520
 20
5.151520
  0
VERTEX
  8
0
  6
CONTINUOUS
 10
4.899400
 20
5.518920
  0
VERTEX
  8
0
  6
CONTINUOUS
 10
5.067480
 20
5.507480
  0
VERTEX
  8
0
  6
CONTINUOUS
 10
4.418040
 20
5.140520
  0
VERTEX
  8
0
  6
CONTINUOUS
 10
4.249520
 20
5.151520
  0
SEQEND
  8
0
  0
SOLID
  8
0
 62
    15
 10
4.418040
 20
5.140520
 11
5.067480
 21
5.507480
 12
4.418040
 22
4.385920
 13
5.067480
 23
4.753320
  0
POLYLINE
  8
0
  6
CONTINUOUS
 66
     1
 40
0.000000
 41
0.000000
  0
VERTEX
  8
0
  6
CONTINUOUS
 10
4.418040
 20
5.140520
  0
VERTEX
  8
0
  6
CONTINUOUS
 10
5.067480
 20
5.507480
  0
VERTEX
  8
0
  6
CONTINUOUS
 10
5.067480
 20
4.753320
  0
VERTEX
  8
0
  6
CONTINUOUS
 10
4.418040
 20
4.385920
  0
VERTEX
  8
0
  6
CONTINUOUS
 10
4.418040
 20
5.140520
  0
SEQEND
  8
0
  0
SOLID
  8
0
 62
    15
 10
3.567960
 20
5.976080
 11
4.217840
 21
6.343480
 12
3.567960
 22
5.976080
 13
3.568400
 23
5.976080
  0
POLYLINE
  8
0
  6
CONTINUOUS
 66
     1
 40
0.000000
 41
0.000000
  0
VERTEX
  8
0
  6
CONTINUOUS
 10
3.567960
 20
5.976080
  0
VERTEX
  8
0
  6
CONTINUOUS
 10
4.217840
 20
6.343480
  0
VERTEX
  8
0
  6
CONTINUOUS
 10
3.568400
 20
5.976080
  0
VERTEX
  8
0
  6
CONTINUOUS
 10
3.567960
 20
5.976080
  0
SEQEND
  8
0
  0
POLYLINE
  8
0
  6
CONTINUOUS
 66
     1
 40
0.000000
 41
0.000000
  0
VERTEX
  8
0
  6
CONTINUOUS
 10
3.568400
 20
5.976080
  0
VERTEX
  8
0
  6
CONTINUOUS
 10
3.753200
 20
5.976080
  0
VERTEX
  8
0
  6
CONTINUOUS
 10
3.754520
 20
5.924600
  0
VERTEX
  8
0
  6
CONTINUOUS
 10
3.758480
 20
5.878840
  0
VERTEX
  8
0
  6
CONTINUOUS
 10
3.765520
 20
5.838800
  0
VERTEX
  8
0
  6
CONTINUOUS
 10
3.774760
 20
5.803160
  0
VERTEX
  8
0
  6
CONTINUOUS
 10
3.786640
 20
5.771920
  0
VERTEX
  8
0
  6
CONTINUOUS
 10
3.801160
 20
5.744200
  0
VERTEX
  8
0
  6
CONTINUOUS
 10
3.836800
 20
5.698000
  0
VERTEX
  8
0
  6
CONTINUOUS
 10
3.882560
 20
5.660160
  0
VERTEX
  8
0
  6
CONTINUOUS
 10
3.936680
 20
5.626280
  0
VERTEX
  8
0
  6
CONTINUOUS
 10
3.967040
 20
5.609560
  0
VERTEX
  8
0
  6
CONTINUOUS
 10
3.982880
 20
5.600760
  0
VERTEX
  8
0
  6
CONTINUOUS
 10
3.999160
 20
5.591960
  0
VERTEX
  8
0
  6
CONTINUOUS
 10
4.070000
 20
5.552800
  0
VERTEX
  8
0
  6
CONTINUOUS
 10
4.106080
 20
5.532120
  0
VERTEX
  8
0
  6
CONTINUOUS
 10
4.138640
 20
5.512760
  0
VERTEX
  8
0
  6
CONTINUOUS
 10
4.195400
 20
5.476680
  0
VERTEX
  8
0
  6
CONTINUOUS
 10
4.238520
 20
5.441920
  0
VERTEX
  8
0
  6
CONTINUOUS
 10
4.268880
 20
5.404960
  0
VERTEX
  8
0
  6
CONTINUOUS
 10
4.279000
 20
5.384720
  0
VERTEX
  8
0
  6
CONTINUOUS
 10
4.285160
 20
5.362720
  0
VERTEX
  8
0
  6
CONTINUOUS
 10
4.288240
 20
5.338520
  0
VERTEX
  8
0
  6
CONTINUOUS
 10
4.287360
 20
5.311680
  0
VERTEX
  8
0
  6
CONTINUOUS
 10
4.282960
 20
5.281760
  0
VERTEX
  8
0
  6
CONTINUOUS
 10
4.274600
 20
5.248760
  0
VERTEX
  8
0
  6
CONTINUOUS
 10
4.262720
 20
5.212240
  0
VERTEX
  8
0
  6
CONTINUOUS
 10
4.246880
 20
5.171320
  0
VERTEX
  8
0
  6
CONTINUOUS
 10
4.249520
 20
5.151520
  0
VERTEX
  8
0
  6
CONTINUOUS
 10
4.418040
 20
5.140520
  0
VERTEX
  8
0
  6
CONTINUOUS
 10
4.418040
 20
4.385920
  0
VERTEX
  8
0
  6
CONTINUOUS
 10
3.567960
 20
4.385920
  0
VERTEX
  8
0
  6
CONTINUOUS
 10
3.567960
 20
5.976080
  0
VERTEX
  8
0
  6
CONTINUOUS
 10
3.568400
 20
5.976080
  0
SEQEND
  8
0
  0
TEXT
  8
0
 10
3.976720
 20
4.109160
 40
0.138169
  1
BA  1265
 41
1.000000
  7
SN0
 71
     0
 72
     5
 11
4.658961
 21
4.109160
  0
TEXT
  8
0
 10
3.820960
 20
3.917320
 40
0.138169
  1
7/8" x 1-9/16"
 41
1.000000
  7
SN0
 71
     0
 72
     5
 11
4.814147
 21
3.917320
  0
TEXT
  8
0
 10
3.874640
 20
7.028560
 40
0.138169
  1
BA  1265
 41
1.000000
  7
SN0
 71
     0
 72
     5
 11
4.556881
 21
7.028560
  0
TEXT
  8
0
 10
3.718880
 20
6.836720
 40
0.138169
  1
7/8" x 1-9/16"
 41
1.000000
  7
SN0
 71
     0
 72
     5
 11
4.712067
 21
6.836720
  0
ENDSEC
  0
EOF
