  0
SECTION
  2
HEADER
  9
$ACADVER
  1
AC1006
  9
$EXTMIN
 10
2.374240
 20
3.541120
  9
$EXTMAX
 10
6.388800
 20
9.070600
  9
$LTSCALE
 40
0.044000
  9
$PDMODE
 70
    35
  9
$PDSIZE
 40
0.035200
  0
ENDSEC
  0
SECTION
  2
TABLES
  0
TABLE
  2
LTYPE
 70
     9
  0
LTYPE
  2
CONTINUOUS
 70
    64
  3
Solid line
 72
    65
 73
     0
 40
0.000000
  0
LTYPE
  2
DASHED
 70
    64
  3
__ __ __ __ __ __ __ __ __ __ __ __ __ __ __
 72
    65
 73
     2
 40
0.000330
 49
0.000220
 49
-0.000110
  0
LTYPE
  2
HIDDEN
 70
    64
  3
 _ _ _ _ _ _ _ _ _ _ _ _ _ _ _ _ _ _ _ _ _ _
 72
    65
 73
     2
 40
0.000165
 49
0.000110
 49
-0.000055
  0
LTYPE
  2
CENTER
 70
    64
  3
____ _ ____ _ ____ _ ____ _ ____ _ ____ _ ____
 72
    65
 73
     4
 40
0.000880
 49
0.000550
 49
-0.000110
 49
0.000110
 49
-0.000110
  0
LTYPE
  2
PHANTOM
 70
    64
  3
_____ _ _ _____ _ _ _____ _ _ _____ _ _ ____
 72
    65
 73
     6
 40
0.001100
 49
0.000550
 49
-0.000110
 49
0.000110
 49
-0.000110
 49
0.000110
 49
-0.000110
  0
LTYPE
  2
DOT
 70
    64
  3
...............................................
 72
    65
 73
     2
 40
0.000110
 49
0.000000
 49
-0.000110
  0
LTYPE
  2
DASHDOT
 70
    64
  3
__ . __ . __ . __ . __ . __ . __ . __ . __ . __
 72
    65
 73
     4
 40
0.000440
 49
0.000220
 49
-0.000110
 49
0.000000
 49
-0.000110
  0
LTYPE
  2
BORDER
 70
    64
  3
__ __ . __ __ . __ __ . __ __ . __ __ . __ __
 72
    65
 73
     6
 40
0.000770
 49
0.000220
 49
-0.000110
 49
0.000220
 49
-0.000110
 49
0.000000
 49
-0.000110
  0
LTYPE
  2
DIVIDE
 70
    64
  3
__ . . __ . . __ . . __ . . __ . . __ . . __
 72
    65
 73
     6
 40
0.000550
 49
0.000220
 49
-0.000110
 49
0.000000
 49
-0.000110
 49
0.000000
 49
-0.000110
  0
LTYPE
  2
DOTDOT
 70
    64
  3
 . .  . .  . .  . .  . .  . . 
 72
    65
 73
     5
 40
0.000242
 49
-0.000110
 49
0.000000
 49
-0.000110
 49
0.000000
 49
-0.000110
  0
ENDTAB
  0
TABLE
  2
STYLE
 70
     2
  0
STYLE
 70
     0
  2
SN0
 40
0.000000
 41
0.000440
 50
0.000000
 71
     0
 42
0.000000
  3
ROMAND
  0
STYLE
 70
    68
  2
SV0
 40
0.000000
 41
0.000440
 50
0.000000
 71
     0
 42
0.000000
  3
ROMAND
  0
ENDTAB
  0
TABLE
  2
LAYER
 70
     3
  0
LAYER
  2
FOREGROUND
 70
    64
 62
     7
  6
CONTINUOUS
  0
LAYER
  2
BACKGROUND
 70
    65
 62
    -7
  6
CONTINUOUS
  0
LAYER
  2
0
 70
    64
 62
     7
  6
CONTINUOUS
  0
ENDTAB
  0
ENDSEC
  0
SECTION
  2
ENTITIES
  0
POLYLINE
  8
FOREGROUND
  6
CONTINUOUS
 66
     1
 40
0.000000
 41
0.000000
  0
VERTEX
  8
FOREGROUND
  6
CONTINUOUS
 10
0.000000
 20
12.611720
  0
VERTEX
  8
FOREGROUND
  6
CONTINUOUS
 10
8.499920
 20
12.611720
  0
VERTEX
  8
FOREGROUND
  6
CONTINUOUS
 10
8.499920
 20
1.611720
  0
VERTEX
  8
FOREGROUND
  6
CONTINUOUS
 10
0.000000
 20
1.611720
  0
VERTEX
  8
FOREGROUND
  6
CONTINUOUS
 10
0.000000
 20
12.611720
  0
SEQEND
  8
0
  0
POLYLINE
  8
FOREGROUND
  6
CONTINUOUS
 66
     1
 40
0.000000
 41
0.000000
  0
VERTEX
  8
FOREGROUND
  6
CONTINUOUS
 10
0.000000
 20
12.611720
  0
VERTEX
  8
FOREGROUND
  6
CONTINUOUS
 10
8.499920
 20
12.611720
  0
VERTEX
  8
FOREGROUND
  6
CONTINUOUS
 10
8.499920
 20
1.611720
  0
VERTEX
  8
FOREGROUND
  6
CONTINUOUS
 10
0.000000
 20
1.611720
  0
VERTEX
  8
FOREGROUND
  6
CONTINUOUS
 10
0.000000
 20
12.611720
  0
SEQEND
  8
0
  0
TEXT
  8
0
 10
3.273600
 20
8.443600
 40
0.138127
  1
BA  1264  3/8" x 3-3/4"
 41
1.000000
  7
SN0
 71
     0
 72
     5
 11
4.949585
 21
8.443600
  0
TEXT
  8
0
 10
3.273600
 20
8.251760
 40
0.138127
  1
BA  1058 Sides
 41
1.000000
  7
SN0
 71
     0
 72
     5
 11
4.417926
 21
8.251760
  0
POLYLINE
  8
0
  6
CONTINUOUS
 66
     1
 40
0.014080
 41
0.014080
  0
VERTEX
  8
0
  6
CONTINUOUS
 10
5.820760
 20
8.677240
  0
VERTEX
  8
0
  6
CONTINUOUS
 10
2.381720
 20
8.677240
  0
VERTEX
  8
0
  6
CONTINUOUS
 10
2.381720
 20
8.869080
  0
VERTEX
  8
0
  6
CONTINUOUS
 10
2.624160
 20
8.869080
  0
VERTEX
  8
0
  6
CONTINUOUS
 10
2.624160
 20
9.000640
  0
VERTEX
  8
0
  6
CONTINUOUS
 10
2.712160
 20
9.063120
  0
VERTEX
  8
0
  6
CONTINUOUS
 10
4.220480
 20
9.063120
  0
VERTEX
  8
0
  6
CONTINUOUS
 10
4.244240
 20
9.063120
  0
VERTEX
  8
0
  6
CONTINUOUS
 10
4.276800
 20
9.063120
  0
VERTEX
  8
0
  6
CONTINUOUS
 10
4.369200
 20
8.994040
  0
VERTEX
  8
0
  6
CONTINUOUS
 10
4.459840
 20
9.062680
  0
VERTEX
  8
0
  6
CONTINUOUS
 10
5.969920
 20
9.062680
  0
VERTEX
  8
0
  6
CONTINUOUS
 10
6.030640
 20
9.062680
  0
VERTEX
  8
0
  6
CONTINUOUS
 10
6.121280
 20
8.994480
  0
VERTEX
  8
0
  6
CONTINUOUS
 10
6.121280
 20
8.869520
  0
VERTEX
  8
0
  6
CONTINUOUS
 10
5.820760
 20
8.869520
  0
VERTEX
  8
0
  6
CONTINUOUS
 10
5.820760
 20
8.676360
  0
VERTEX
  8
0
  6
CONTINUOUS
 10
5.820760
 20
8.677240
  0
SEQEND
  8
0
  0
POLYLINE
  8
0
  6
CONTINUOUS
 66
     1
 40
0.000000
 41
0.000000
  0
VERTEX
  8
0
  6
CONTINUOUS
 10
2.949760
 20
3.542000
  0
VERTEX
  8
0
  6
CONTINUOUS
 10
6.388360
 20
3.542000
  0
VERTEX
  8
0
  6
CONTINUOUS
 10
6.388360
 20
3.734280
  0
VERTEX
  8
0
  6
CONTINUOUS
 10
6.146360
 20
3.734280
  0
VERTEX
  8
0
  6
CONTINUOUS
 10
6.146360
 20
3.865400
  0
VERTEX
  8
0
  6
CONTINUOUS
 10
6.057920
 20
3.927880
  0
VERTEX
  8
0
  6
CONTINUOUS
 10
4.550040
 20
3.927880
  0
VERTEX
  8
0
  6
CONTINUOUS
 10
4.526280
 20
3.927880
  0
VERTEX
  8
0
  6
CONTINUOUS
 10
4.493720
 20
3.927880
  0
VERTEX
  8
0
  6
CONTINUOUS
 10
4.401320
 20
3.859240
  0
VERTEX
  8
0
  6
CONTINUOUS
 10
4.310680
 20
3.927880
  0
VERTEX
  8
0
  6
CONTINUOUS
 10
2.800600
 20
3.927880
  0
VERTEX
  8
0
  6
CONTINUOUS
 10
2.739440
 20
3.927880
  0
VERTEX
  8
0
  6
CONTINUOUS
 10
2.648800
 20
3.859680
  0
VERTEX
  8
0
  6
CONTINUOUS
 10
2.648800
 20
3.734720
  0
VERTEX
  8
0
  6
CONTINUOUS
 10
2.949760
 20
3.734720
  0
VERTEX
  8
0
  6
CONTINUOUS
 10
2.949760
 20
3.541120
  0
VERTEX
  8
0
  6
CONTINUOUS
 10
2.949760
 20
3.542000
  0
SEQEND
  8
0
  0
POLYLINE
  8
0
  6
CONTINUOUS
 66
     1
 40
0.000000
 41
0.000000
  0
VERTEX
  8
0
  6
CONTINUOUS
 10
6.087840
 20
4.419800
  0
VERTEX
  8
0
  6
CONTINUOUS
 10
2.648800
 20
4.419800
  0
VERTEX
  8
0
  6
CONTINUOUS
 10
2.648800
 20
4.611640
  0
VERTEX
  8
0
  6
CONTINUOUS
 10
2.891240
 20
4.611640
  0
VERTEX
  8
0
  6
CONTINUOUS
 10
2.891240
 20
4.743200
  0
VERTEX
  8
0
  6
CONTINUOUS
 10
2.979240
 20
4.805680
  0
VERTEX
  8
0
  6
CONTINUOUS
 10
4.487560
 20
4.805680
  0
VERTEX
  8
0
  6
CONTINUOUS
 10
4.511320
 20
4.805680
  0
VERTEX
  8
0
  6
CONTINUOUS
 10
4.543880
 20
4.805680
  0
VERTEX
  8
0
  6
CONTINUOUS
 10
4.636280
 20
4.737040
  0
VERTEX
  8
0
  6
CONTINUOUS
 10
4.726920
 20
4.805240
  0
VERTEX
  8
0
  6
CONTINUOUS
 10
6.237000
 20
4.805240
  0
VERTEX
  8
0
  6
CONTINUOUS
 10
6.297720
 20
4.805240
  0
VERTEX
  8
0
  6
CONTINUOUS
 10
6.388360
 20
4.737480
  0
VERTEX
  8
0
  6
CONTINUOUS
 10
6.388360
 20
4.612080
  0
VERTEX
  8
0
  6
CONTINUOUS
 10
6.087840
 20
4.612080
  0
VERTEX
  8
0
  6
CONTINUOUS
 10
6.087840
 20
4.418920
  0
VERTEX
  8
0
  6
CONTINUOUS
 10
6.087840
 20
4.419800
  0
SEQEND
  8
0
  0
TEXT
  8
0
 10
3.273600
 20
6.358440
 40
0.138127
  1
BA  1264  3/8" x 3-3/4"
 41
1.000000
  7
SN0
 71
     0
 72
     5
 11
4.949585
 21
6.358440
  0
TEXT
  8
0
 10
3.273600
 20
6.166600
 40
0.138127
  1
BA  1058 Sides
 41
1.000000
  7
SN0
 71
     0
 72
     5
 11
4.417926
 21
6.166600
  0
SOLID
  8
0
 62
    15
 10
4.368320
 20
6.923840
 11
4.369640
 21
7.668320
 12
4.459400
 22
6.992040
 13
4.460720
 23
7.736960
  0
POLYLINE
  8
0
  6
CONTINUOUS
 66
     1
 40
0.000000
 41
0.000000
  0
VERTEX
  8
0
  6
CONTINUOUS
 10
4.368320
 20
6.923840
  0
VERTEX
  8
0
  6
CONTINUOUS
 10
4.369640
 20
7.668320
  0
VERTEX
  8
0
  6
CONTINUOUS
 10
4.460720
 20
7.736960
  0
VERTEX
  8
0
  6
CONTINUOUS
 10
4.459400
 20
6.992040
  0
VERTEX
  8
0
  6
CONTINUOUS
 10
4.368320
 20
6.923840
  0
SEQEND
  8
0
  0
SOLID
  8
0
 62
    15
 10
2.381280
 20
6.798880
 11
2.382600
 21
7.543360
 12
2.623280
 22
6.798880
 13
2.624600
 23
7.543360
  0
POLYLINE
  8
0
  6
CONTINUOUS
 66
     1
 40
0.000000
 41
0.000000
  0
VERTEX
  8
0
  6
CONTINUOUS
 10
2.381280
 20
6.798880
  0
VERTEX
  8
0
  6
CONTINUOUS
 10
2.382600
 20
7.543360
  0
VERTEX
  8
0
  6
CONTINUOUS
 10
2.624600
 20
7.543360
  0
VERTEX
  8
0
  6
CONTINUOUS
 10
2.623280
 20
6.798880
  0
VERTEX
  8
0
  6
CONTINUOUS
 10
2.381280
 20
6.798880
  0
SEQEND
  8
0
  0
SOLID
  8
0
 62
    15
 10
2.711720
 20
6.992480
 11
2.713040
 21
7.737400
 12
4.276360
 22
6.992480
 13
4.277680
 23
7.737400
  0
POLYLINE
  8
0
  6
CONTINUOUS
 66
     1
 40
0.000000
 41
0.000000
  0
VERTEX
  8
0
  6
CONTINUOUS
 10
2.711720
 20
6.992480
  0
VERTEX
  8
0
  6
CONTINUOUS
 10
2.713040
 20
7.737400
  0
VERTEX
  8
0
  6
CONTINUOUS
 10
4.277680
 20
7.737400
  0
VERTEX
  8
0
  6
CONTINUOUS
 10
4.276360
 20
6.992480
  0
VERTEX
  8
0
  6
CONTINUOUS
 10
2.711720
 20
6.992480
  0
SEQEND
  8
0
  0
SOLID
  8
0
 62
    15
 10
4.276360
 20
6.992480
 11
4.277680
 21
7.737400
 12
4.368320
 22
6.923840
 13
4.369640
 23
7.668320
  0
POLYLINE
  8
0
  6
CONTINUOUS
 66
     1
 40
0.000000
 41
0.000000
  0
VERTEX
  8
0
  6
CONTINUOUS
 10
4.276360
 20
6.992480
  0
VERTEX
  8
0
  6
CONTINUOUS
 10
4.277680
 20
7.737400
  0
VERTEX
  8
0
  6
CONTINUOUS
 10
4.369640
 20
7.668320
  0
VERTEX
  8
0
  6
CONTINUOUS
 10
4.368320
 20
6.923840
  0
VERTEX
  8
0
  6
CONTINUOUS
 10
4.276360
 20
6.992480
  0
SEQEND
  8
0
  0
SOLID
  8
0
 62
    15
 10
2.623280
 20
6.930000
 11
2.624600
 21
7.674480
 12
2.711720
 22
6.992480
 13
2.713040
 23
7.737400
  0
POLYLINE
  8
0
  6
CONTINUOUS
 66
     1
 40
0.000000
 41
0.000000
  0
VERTEX
  8
0
  6
CONTINUOUS
 10
2.623280
 20
6.930000
  0
VERTEX
  8
0
  6
CONTINUOUS
 10
2.624600
 20
7.674480
  0
VERTEX
  8
0
  6
CONTINUOUS
 10
2.713040
 20
7.737400
  0
VERTEX
  8
0
  6
CONTINUOUS
 10
2.711720
 20
6.992480
  0
VERTEX
  8
0
  6
CONTINUOUS
 10
2.623280
 20
6.930000
  0
SEQEND
  8
0
  0
SOLID
  8
0
 62
    15
 10
5.819880
 20
6.798880
 11
5.821200
 21
7.543800
 12
5.819880
 22
6.605720
 13
5.821200
 23
7.350200
  0
POLYLINE
  8
0
  6
CONTINUOUS
 66
     1
 40
0.000000
 41
0.000000
  0
VERTEX
  8
0
  6
CONTINUOUS
 10
5.819880
 20
6.798880
  0
VERTEX
  8
0
  6
CONTINUOUS
 10
5.821200
 20
7.543800
  0
VERTEX
  8
0
  6
CONTINUOUS
 10
5.821200
 20
7.350200
  0
VERTEX
  8
0
  6
CONTINUOUS
 10
5.819880
 20
6.605720
  0
VERTEX
  8
0
  6
CONTINUOUS
 10
5.819880
 20
6.798880
  0
SEQEND
  8
0
  0
SOLID
  8
0
 62
    15
 10
6.120840
 20
6.924280
 11
6.122160
 21
7.668760
 12
6.120840
 22
6.798880
 13
6.122160
 23
7.543800
  0
POLYLINE
  8
0
  6
CONTINUOUS
 66
     1
 40
0.000000
 41
0.000000
  0
VERTEX
  8
0
  6
CONTINUOUS
 10
6.120840
 20
6.924280
  0
VERTEX
  8
0
  6
CONTINUOUS
 10
6.122160
 20
7.668760
  0
VERTEX
  8
0
  6
CONTINUOUS
 10
6.122160
 20
7.543800
  0
VERTEX
  8
0
  6
CONTINUOUS
 10
6.120840
 20
6.798880
  0
VERTEX
  8
0
  6
CONTINUOUS
 10
6.120840
 20
6.924280
  0
SEQEND
  8
0
  0
SOLID
  8
0
 62
    15
 10
6.030200
 20
6.992040
 11
6.031520
 21
7.736960
 12
6.120840
 22
6.924280
 13
6.122160
 23
7.668760
  0
POLYLINE
  8
0
  6
CONTINUOUS
 66
     1
 40
0.000000
 41
0.000000
  0
VERTEX
  8
0
  6
CONTINUOUS
 10
6.030200
 20
6.992040
  0
VERTEX
  8
0
  6
CONTINUOUS
 10
6.031520
 20
7.736960
  0
VERTEX
  8
0
  6
CONTINUOUS
 10
6.122160
 20
7.668760
  0
VERTEX
  8
0
  6
CONTINUOUS
 10
6.120840
 20
6.924280
  0
VERTEX
  8
0
  6
CONTINUOUS
 10
6.030200
 20
6.992040
  0
SEQEND
  8
0
  0
SOLID
  8
0
 62
    15
 10
4.459400
 20
6.992040
 11
4.460720
 21
7.736960
 12
6.030200
 22
6.992040
 13
6.031520
 23
7.736960
  0
POLYLINE
  8
0
  6
CONTINUOUS
 66
     1
 40
0.000000
 41
0.000000
  0
VERTEX
  8
0
  6
CONTINUOUS
 10
4.459400
 20
6.992040
  0
VERTEX
  8
0
  6
CONTINUOUS
 10
4.460720
 20
7.736960
  0
VERTEX
  8
0
  6
CONTINUOUS
 10
6.031520
 20
7.736960
  0
VERTEX
  8
0
  6
CONTINUOUS
 10
6.030200
 20
6.992040
  0
VERTEX
  8
0
  6
CONTINUOUS
 10
4.459400
 20
6.992040
  0
SEQEND
  8
0
  0
POLYLINE
  8
0
  6
CONTINUOUS
 66
     1
 40
0.000000
 41
0.000000
  0
VERTEX
  8
0
  6
CONTINUOUS
 10
5.819880
 20
6.606600
  0
VERTEX
  8
0
  6
CONTINUOUS
 10
2.381280
 20
6.606600
  0
VERTEX
  8
0
  6
CONTINUOUS
 10
2.381280
 20
6.798880
  0
VERTEX
  8
0
  6
CONTINUOUS
 10
2.623280
 20
6.798880
  0
VERTEX
  8
0
  6
CONTINUOUS
 10
2.623280
 20
6.930000
  0
VERTEX
  8
0
  6
CONTINUOUS
 10
2.711720
 20
6.992480
  0
VERTEX
  8
0
  6
CONTINUOUS
 10
4.276360
 20
6.992480
  0
VERTEX
  8
0
  6
CONTINUOUS
 10
4.368320
 20
6.923840
  0
VERTEX
  8
0
  6
CONTINUOUS
 10
4.459400
 20
6.992040
  0
VERTEX
  8
0
  6
CONTINUOUS
 10
6.030200
 20
6.992040
  0
VERTEX
  8
0
  6
CONTINUOUS
 10
6.120840
 20
6.924280
  0
VERTEX
  8
0
  6
CONTINUOUS
 10
6.120840
 20
6.798880
  0
VERTEX
  8
0
  6
CONTINUOUS
 10
5.819880
 20
6.798880
  0
VERTEX
  8
0
  6
CONTINUOUS
 10
5.819880
 20
6.605720
  0
VERTEX
  8
0
  6
CONTINUOUS
 10
5.819880
 20
6.606600
  0
SEQEND
  8
0
  0
ENDSEC
  0
EOF
