  0
SECTION
  2
HEADER
  9
$ACADVER
  1
AC1006
  9
$EXTMIN
 10
1.586200
 20
1.641640
  9
$EXTMAX
 10
6.608360
 20
9.560320
  9
$LTSCALE
 40
0.044000
  9
$PDMODE
 70
    35
  9
$PDSIZE
 40
0.035200
  0
ENDSEC
  0
SECTION
  2
TABLES
  0
TABLE
  2
LTYPE
 70
     9
  0
LTYPE
  2
CONTINUOUS
 70
    64
  3
Solid line
 72
    65
 73
     0
 40
0.000000
  0
LTYPE
  2
DASHED
 70
    64
  3
__ __ __ __ __ __ __ __ __ __ __ __ __ __ __
 72
    65
 73
     2
 40
0.000330
 49
0.000220
 49
-0.000110
  0
LTYPE
  2
HIDDEN
 70
    64
  3
 _ _ _ _ _ _ _ _ _ _ _ _ _ _ _ _ _ _ _ _ _ _
 72
    65
 73
     2
 40
0.000165
 49
0.000110
 49
-0.000055
  0
LTYPE
  2
CENTER
 70
    64
  3
____ _ ____ _ ____ _ ____ _ ____ _ ____ _ ____
 72
    65
 73
     4
 40
0.000880
 49
0.000550
 49
-0.000110
 49
0.000110
 49
-0.000110
  0
LTYPE
  2
PHANTOM
 70
    64
  3
_____ _ _ _____ _ _ _____ _ _ _____ _ _ ____
 72
    65
 73
     6
 40
0.001100
 49
0.000550
 49
-0.000110
 49
0.000110
 49
-0.000110
 49
0.000110
 49
-0.000110
  0
LTYPE
  2
DOT
 70
    64
  3
...............................................
 72
    65
 73
     2
 40
0.000110
 49
0.000000
 49
-0.000110
  0
LTYPE
  2
DASHDOT
 70
    64
  3
__ . __ . __ . __ . __ . __ . __ . __ . __ . __
 72
    65
 73
     4
 40
0.000440
 49
0.000220
 49
-0.000110
 49
0.000000
 49
-0.000110
  0
LTYPE
  2
BORDER
 70
    64
  3
__ __ . __ __ . __ __ . __ __ . __ __ . __ __
 72
    65
 73
     6
 40
0.000770
 49
0.000220
 49
-0.000110
 49
0.000220
 49
-0.000110
 49
0.000000
 49
-0.000110
  0
LTYPE
  2
DIVIDE
 70
    64
  3
__ . . __ . . __ . . __ . . __ . . __ . . __
 72
    65
 73
     6
 40
0.000550
 49
0.000220
 49
-0.000110
 49
0.000000
 49
-0.000110
 49
0.000000
 49
-0.000110
  0
LTYPE
  2
DOTDOT
 70
    64
  3
 . .  . .  . .  . .  . .  . . 
 72
    65
 73
     5
 40
0.000242
 49
-0.000110
 49
0.000000
 49
-0.000110
 49
0.000000
 49
-0.000110
  0
ENDTAB
  0
TABLE
  2
STYLE
 70
     2
  0
STYLE
 70
     0
  2
SN0
 40
0.000000
 41
0.000440
 50
0.000000
 71
     0
 42
0.000000
  3
ROMAND
  0
STYLE
 70
    68
  2
SV0
 40
0.000000
 41
0.000440
 50
0.000000
 71
     0
 42
0.000000
  3
ROMAND
  0
ENDTAB
  0
TABLE
  2
LAYER
 70
     3
  0
LAYER
  2
FOREGROUND
 70
    64
 62
     7
  6
CONTINUOUS
  0
LAYER
  2
BACKGROUND
 70
    65
 62
    -7
  6
CONTINUOUS
  0
LAYER
  2
0
 70
    64
 62
     7
  6
CONTINUOUS
  0
ENDTAB
  0
ENDSEC
  0
SECTION
  2
ENTITIES
  0
POLYLINE
  8
FOREGROUND
  6
CONTINUOUS
 66
     1
 40
0.000000
 41
0.000000
  0
VERTEX
  8
FOREGROUND
  6
CONTINUOUS
 10
0.000000
 20
11.201960
  0
VERTEX
  8
FOREGROUND
  6
CONTINUOUS
 10
8.499920
 20
11.201960
  0
VERTEX
  8
FOREGROUND
  6
CONTINUOUS
 10
8.499920
 20
0.201960
  0
VERTEX
  8
FOREGROUND
  6
CONTINUOUS
 10
0.000000
 20
0.201960
  0
VERTEX
  8
FOREGROUND
  6
CONTINUOUS
 10
0.000000
 20
11.201960
  0
SEQEND
  8
0
  0
POLYLINE
  8
FOREGROUND
  6
CONTINUOUS
 66
     1
 40
0.000000
 41
0.000000
  0
VERTEX
  8
FOREGROUND
  6
CONTINUOUS
 10
0.000000
 20
11.201960
  0
VERTEX
  8
FOREGROUND
  6
CONTINUOUS
 10
8.499920
 20
11.201960
  0
VERTEX
  8
FOREGROUND
  6
CONTINUOUS
 10
8.499920
 20
0.201960
  0
VERTEX
  8
FOREGROUND
  6
CONTINUOUS
 10
0.000000
 20
0.201960
  0
VERTEX
  8
FOREGROUND
  6
CONTINUOUS
 10
0.000000
 20
11.201960
  0
SEQEND
  8
0
  0
POLYLINE
  8
0
  6
CONTINUOUS
 66
     1
 40
0.014080
 41
0.014080
  0
VERTEX
  8
0
  6
CONTINUOUS
 10
3.753200
 20
7.864120
  0
VERTEX
  8
0
  6
CONTINUOUS
 10
3.738680
 20
7.870280
  0
VERTEX
  8
0
  6
CONTINUOUS
 10
3.728120
 20
7.879080
  0
VERTEX
  8
0
  6
CONTINUOUS
 10
3.717120
 20
7.896240
  0
VERTEX
  8
0
  6
CONTINUOUS
 10
3.711840
 20
7.916920
  0
VERTEX
  8
0
  6
CONTINUOUS
 10
3.710080
 20
7.931880
  0
VERTEX
  8
0
  6
CONTINUOUS
 10
3.709200
 20
7.962680
  0
VERTEX
  8
0
  6
CONTINUOUS
 10
3.709200
 20
8.307640
  0
VERTEX
  8
0
  6
CONTINUOUS
 10
3.088360
 20
8.307640
  0
VERTEX
  8
0
  6
CONTINUOUS
 10
3.088360
 20
9.552840
  0
VERTEX
  8
0
  6
CONTINUOUS
 10
4.216080
 20
9.552840
  0
VERTEX
  8
0
  6
CONTINUOUS
 10
5.136120
 20
9.376840
  0
VERTEX
  8
0
  6
CONTINUOUS
 10
5.173080
 20
9.365400
  0
VERTEX
  8
0
  6
CONTINUOUS
 10
5.190680
 20
9.355280
  0
VERTEX
  8
0
  6
CONTINUOUS
 10
5.203000
 20
9.341640
  0
VERTEX
  8
0
  6
CONTINUOUS
 10
5.210920
 20
9.323600
  0
VERTEX
  8
0
  6
CONTINUOUS
 10
5.214000
 20
9.312600
  0
VERTEX
  8
0
  6
CONTINUOUS
 10
5.217960
 20
9.269040
  0
VERTEX
  8
0
  6
CONTINUOUS
 10
5.217960
 20
7.653360
  0
VERTEX
  8
0
  6
CONTINUOUS
 10
5.214880
 20
7.619040
  0
VERTEX
  8
0
  6
CONTINUOUS
 10
5.211800
 20
7.603640
  0
VERTEX
  8
0
  6
CONTINUOUS
 10
5.201240
 20
7.576360
  0
VERTEX
  8
0
  6
CONTINUOUS
 10
5.187160
 20
7.553480
  0
VERTEX
  8
0
  6
CONTINUOUS
 10
5.170000
 20
7.535440
  0
VERTEX
  8
0
  6
CONTINUOUS
 10
5.149760
 20
7.521800
  0
VERTEX
  8
0
  6
CONTINUOUS
 10
5.128200
 20
7.512560
  0
VERTEX
  8
0
  6
CONTINUOUS
 10
5.105320
 20
7.508160
  0
VERTEX
  8
0
  6
CONTINUOUS
 10
5.082000
 20
7.508160
  0
VERTEX
  8
0
  6
CONTINUOUS
 10
5.059560
 20
7.513000
  0
VERTEX
  8
0
  6
CONTINUOUS
 10
5.037560
 20
7.522240
  0
VERTEX
  8
0
  6
CONTINUOUS
 10
5.017760
 20
7.535880
  0
VERTEX
  8
0
  6
CONTINUOUS
 10
5.000600
 20
7.554360
  0
VERTEX
  8
0
  6
CONTINUOUS
 10
4.986520
 20
7.577680
  0
VERTEX
  8
0
  6
CONTINUOUS
 10
4.976400
 20
7.604960
  0
VERTEX
  8
0
  6
CONTINUOUS
 10
4.972880
 20
7.620800
  0
VERTEX
  8
0
  6
CONTINUOUS
 10
4.970240
 20
7.655120
  0
VERTEX
  8
0
  6
CONTINUOUS
 10
4.867280
 20
7.655120
  0
VERTEX
  8
0
  6
CONTINUOUS
 10
4.867280
 20
7.579880
  0
VERTEX
  8
0
  6
CONTINUOUS
 10
4.817560
 20
7.579880
  0
VERTEX
  8
0
  6
CONTINUOUS
 10
3.753200
 20
7.864120
  0
SEQEND
  8
0
  0
TEXT
  8
0
 10
3.896640
 20
8.771400
 40
0.137922
  1
BA  1263
 41
1.000000
  7
SN0
 71
     0
 72
     5
 11
4.578834
 21
8.771400
  0
TEXT
  8
0
 10
3.666960
 20
8.579560
 40
0.137922
  1
2-1/16" x 2-1/8"
 41
1.000000
  7
SN0
 71
     0
 72
     5
 11
4.806854
 21
8.579560
  0
SOLID
  8
0
 62
    15
 10
4.986520
 20
6.369440
 11
5.628920
 21
6.743000
 12
4.990480
 22
6.307840
 13
5.633320
 23
6.681400
  0
POLYLINE
  8
0
  6
CONTINUOUS
 66
     1
 40
0.000000
 41
0.000000
  0
VERTEX
  8
0
  6
CONTINUOUS
 10
4.986520
 20
6.369440
  0
VERTEX
  8
0
  6
CONTINUOUS
 10
5.628920
 20
6.743000
  0
VERTEX
  8
0
  6
CONTINUOUS
 10
5.633320
 20
6.681400
  0
VERTEX
  8
0
  6
CONTINUOUS
 10
4.990480
 20
6.307840
  0
VERTEX
  8
0
  6
CONTINUOUS
 10
4.986520
 20
6.369440
  0
SEQEND
  8
0
  0
SOLID
  8
0
 62
    15
 10
3.988600
 20
6.610120
 11
4.631000
 21
6.983680
 12
4.875200
 22
6.440280
 13
5.518040
 23
6.813840
  0
POLYLINE
  8
0
  6
CONTINUOUS
 66
     1
 40
0.000000
 41
0.000000
  0
VERTEX
  8
0
  6
CONTINUOUS
 10
3.988600
 20
6.610120
  0
VERTEX
  8
0
  6
CONTINUOUS
 10
4.631000
 20
6.983680
  0
VERTEX
  8
0
  6
CONTINUOUS
 10
5.518040
 20
6.813840
  0
VERTEX
  8
0
  6
CONTINUOUS
 10
4.875200
 20
6.440280
  0
VERTEX
  8
0
  6
CONTINUOUS
 10
3.988600
 20
6.610120
  0
SEQEND
  8
0
  0
SOLID
  8
0
 62
    15
 10
4.875200
 20
6.440280
 11
5.518040
 21
6.813840
 12
4.935040
 22
6.426640
 13
5.577440
 23
6.800200
  0
POLYLINE
  8
0
  6
CONTINUOUS
 66
     1
 40
0.000000
 41
0.000000
  0
VERTEX
  8
0
  6
CONTINUOUS
 10
4.875200
 20
6.440280
  0
VERTEX
  8
0
  6
CONTINUOUS
 10
5.518040
 20
6.813840
  0
VERTEX
  8
0
  6
CONTINUOUS
 10
5.577440
 20
6.800200
  0
VERTEX
  8
0
  6
CONTINUOUS
 10
4.935040
 20
6.426640
  0
VERTEX
  8
0
  6
CONTINUOUS
 10
4.875200
 20
6.440280
  0
SEQEND
  8
0
  0
SOLID
  8
0
 62
    15
 10
4.935040
 20
6.426640
 11
5.577440
 21
6.800200
 12
4.969800
 22
6.405960
 13
5.612640
 23
6.779520
  0
POLYLINE
  8
0
  6
CONTINUOUS
 66
     1
 40
0.000000
 41
0.000000
  0
VERTEX
  8
0
  6
CONTINUOUS
 10
4.935040
 20
6.426640
  0
VERTEX
  8
0
  6
CONTINUOUS
 10
5.577440
 20
6.800200
  0
VERTEX
  8
0
  6
CONTINUOUS
 10
5.612640
 20
6.779520
  0
VERTEX
  8
0
  6
CONTINUOUS
 10
4.969800
 20
6.405960
  0
VERTEX
  8
0
  6
CONTINUOUS
 10
4.935040
 20
6.426640
  0
SEQEND
  8
0
  0
SOLID
  8
0
 62
    15
 10
4.969800
 20
6.405960
 11
5.612640
 21
6.779520
 12
4.986520
 22
6.369440
 13
5.628920
 23
6.743000
  0
POLYLINE
  8
0
  6
CONTINUOUS
 66
     1
 40
0.000000
 41
0.000000
  0
VERTEX
  8
0
  6
CONTINUOUS
 10
4.969800
 20
6.405960
  0
VERTEX
  8
0
  6
CONTINUOUS
 10
5.612640
 20
6.779520
  0
VERTEX
  8
0
  6
CONTINUOUS
 10
5.628920
 20
6.743000
  0
VERTEX
  8
0
  6
CONTINUOUS
 10
4.986520
 20
6.369440
  0
VERTEX
  8
0
  6
CONTINUOUS
 10
4.969800
 20
6.405960
  0
SEQEND
  8
0
  0
SOLID
  8
0
 62
    15
 10
2.860880
 20
6.610120
 11
3.503280
 21
6.983680
 12
3.988600
 22
6.610120
 13
4.631000
 23
6.983680
  0
POLYLINE
  8
0
  6
CONTINUOUS
 66
     1
 40
0.000000
 41
0.000000
  0
VERTEX
  8
0
  6
CONTINUOUS
 10
2.860880
 20
6.610120
  0
VERTEX
  8
0
  6
CONTINUOUS
 10
3.503280
 20
6.983680
  0
VERTEX
  8
0
  6
CONTINUOUS
 10
4.631000
 20
6.983680
  0
VERTEX
  8
0
  6
CONTINUOUS
 10
3.988600
 20
6.610120
  0
VERTEX
  8
0
  6
CONTINUOUS
 10
2.860880
 20
6.610120
  0
SEQEND
  8
0
  0
SOLID
  8
0
 62
    15
 10
4.639360
 20
4.711960
 11
5.282200
 21
5.085520
 12
4.639360
 22
4.637160
 13
5.282200
 23
5.010720
  0
POLYLINE
  8
0
  6
CONTINUOUS
 66
     1
 40
0.000000
 41
0.000000
  0
VERTEX
  8
0
  6
CONTINUOUS
 10
4.639360
 20
4.711960
  0
VERTEX
  8
0
  6
CONTINUOUS
 10
5.282200
 20
5.085520
  0
VERTEX
  8
0
  6
CONTINUOUS
 10
5.282200
 20
5.010720
  0
VERTEX
  8
0
  6
CONTINUOUS
 10
4.639360
 20
4.637160
  0
VERTEX
  8
0
  6
CONTINUOUS
 10
4.639360
 20
4.711960
  0
SEQEND
  8
0
  0
SOLID
  8
0
 62
    15
 10
4.990480
 20
4.710640
 11
5.632880
 21
5.084200
 12
4.979480
 22
4.646840
 13
5.621880
 23
5.020400
  0
POLYLINE
  8
0
  6
CONTINUOUS
 66
     1
 40
0.000000
 41
0.000000
  0
VERTEX
  8
0
  6
CONTINUOUS
 10
4.990480
 20
4.710640
  0
VERTEX
  8
0
  6
CONTINUOUS
 10
5.632880
 20
5.084200
  0
VERTEX
  8
0
  6
CONTINUOUS
 10
5.621880
 20
5.020400
  0
VERTEX
  8
0
  6
CONTINUOUS
 10
4.979480
 20
4.646840
  0
VERTEX
  8
0
  6
CONTINUOUS
 10
4.990480
 20
4.710640
  0
SEQEND
  8
0
  0
SOLID
  8
0
 62
    15
 10
4.951320
 20
4.601080
 11
5.593720
 21
4.974640
 12
4.911720
 22
4.573800
 13
5.554120
 23
4.947360
  0
POLYLINE
  8
0
  6
CONTINUOUS
 66
     1
 40
0.000000
 41
0.000000
  0
VERTEX
  8
0
  6
CONTINUOUS
 10
4.951320
 20
4.601080
  0
VERTEX
  8
0
  6
CONTINUOUS
 10
5.593720
 20
4.974640
  0
VERTEX
  8
0
  6
CONTINUOUS
 10
5.554120
 20
4.947360
  0
VERTEX
  8
0
  6
CONTINUOUS
 10
4.911720
 20
4.573800
  0
VERTEX
  8
0
  6
CONTINUOUS
 10
4.951320
 20
4.601080
  0
SEQEND
  8
0
  0
SOLID
  8
0
 62
    15
 10
4.979480
 20
4.646840
 11
5.621880
 21
5.020400
 12
4.951320
 22
4.601080
 13
5.593720
 23
4.974640
  0
POLYLINE
  8
0
  6
CONTINUOUS
 66
     1
 40
0.000000
 41
0.000000
  0
VERTEX
  8
0
  6
CONTINUOUS
 10
4.979480
 20
4.646840
  0
VERTEX
  8
0
  6
CONTINUOUS
 10
5.621880
 20
5.020400
  0
VERTEX
  8
0
  6
CONTINUOUS
 10
5.593720
 20
4.974640
  0
VERTEX
  8
0
  6
CONTINUOUS
 10
4.951320
 20
4.601080
  0
VERTEX
  8
0
  6
CONTINUOUS
 10
4.979480
 20
4.646840
  0
SEQEND
  8
0
  0
SOLID
  8
0
 62
    15
 10
4.990480
 20
6.307840
 11
5.633320
 21
6.681400
 12
4.990480
 22
4.710640
 13
5.632880
 23
5.084200
  0
POLYLINE
  8
0
  6
CONTINUOUS
 66
     1
 40
0.000000
 41
0.000000
  0
VERTEX
  8
0
  6
CONTINUOUS
 10
4.990480
 20
6.307840
  0
VERTEX
  8
0
  6
CONTINUOUS
 10
5.633320
 20
6.681400
  0
VERTEX
  8
0
  6
CONTINUOUS
 10
5.632880
 20
5.084200
  0
VERTEX
  8
0
  6
CONTINUOUS
 10
4.990480
 20
4.710640
  0
VERTEX
  8
0
  6
CONTINUOUS
 10
4.990480
 20
6.307840
  0
SEQEND
  8
0
  0
POLYLINE
  8
0
  6
CONTINUOUS
 66
     1
 40
0.000000
 41
0.000000
  0
VERTEX
  8
0
  6
CONTINUOUS
 10
3.525720
 20
4.921400
  0
VERTEX
  8
0
  6
CONTINUOUS
 10
3.500640
 20
4.935920
  0
VERTEX
  8
0
  6
CONTINUOUS
 10
3.487440
 20
4.960120
  0
VERTEX
  8
0
  6
CONTINUOUS
 10
3.481720
 20
5.019960
  0
VERTEX
  8
0
  6
CONTINUOUS
 10
3.481720
 20
5.364920
  0
VERTEX
  8
0
  6
CONTINUOUS
 10
2.860880
 20
5.364920
  0
VERTEX
  8
0
  6
CONTINUOUS
 10
2.860880
 20
6.610120
  0
VERTEX
  8
0
  6
CONTINUOUS
 10
3.988600
 20
6.610120
  0
VERTEX
  8
0
  6
CONTINUOUS
 10
4.875200
 20
6.440280
  0
VERTEX
  8
0
  6
CONTINUOUS
 10
4.935040
 20
6.426640
  0
VERTEX
  8
0
  6
CONTINUOUS
 10
4.969800
 20
6.405960
  0
VERTEX
  8
0
  6
CONTINUOUS
 10
4.986520
 20
6.369440
  0
VERTEX
  8
0
  6
CONTINUOUS
 10
4.990480
 20
6.307840
  0
VERTEX
  8
0
  6
CONTINUOUS
 10
4.990480
 20
4.710640
  0
VERTEX
  8
0
  6
CONTINUOUS
 10
4.979480
 20
4.646840
  0
VERTEX
  8
0
  6
CONTINUOUS
 10
4.951320
 20
4.601080
  0
VERTEX
  8
0
  6
CONTINUOUS
 10
4.911720
 20
4.573800
  0
VERTEX
  8
0
  6
CONTINUOUS
 10
4.866400
 20
4.565000
  0
VERTEX
  8
0
  6
CONTINUOUS
 10
4.821080
 20
4.574240
  0
VERTEX
  8
0
  6
CONTINUOUS
 10
4.781480
 20
4.601960
  0
VERTEX
  8
0
  6
CONTINUOUS
 10
4.753320
 20
4.647720
  0
VERTEX
  8
0
  6
CONTINUOUS
 10
4.742760
 20
4.711960
  0
VERTEX
  8
0
  6
CONTINUOUS
 10
4.639360
 20
4.711960
  0
VERTEX
  8
0
  6
CONTINUOUS
 10
4.639360
 20
4.637160
  0
VERTEX
  8
0
  6
CONTINUOUS
 10
4.590080
 20
4.637160
  0
VERTEX
  8
0
  6
CONTINUOUS
 10
4.058120
 20
4.779280
  0
VERTEX
  8
0
  6
CONTINUOUS
 10
3.525720
 20
4.921400
  0
SEQEND
  8
0
  0
TEXT
  8
0
 10
3.905000
 20
4.376680
 40
0.137922
  1
BA  1263
 41
1.000000
  7
SN0
 71
     0
 72
     5
 11
4.587194
 21
4.376680
  0
TEXT
  8
0
 10
3.675320
 20
4.184840
 40
0.137922
  1
2-1/16" x 2-1/8"
 41
1.000000
  7
SN0
 71
     0
 72
     5
 11
4.815214
 21
4.184840
  0
POLYLINE
  8
0
  6
CONTINUOUS
 66
     1
 40
0.000000
 41
0.000000
  0
VERTEX
  8
0
  6
CONTINUOUS
 10
4.919640
 20
3.182520
  0
VERTEX
  8
0
  6
CONTINUOUS
 10
4.925360
 20
3.197040
  0
VERTEX
  8
0
  6
CONTINUOUS
 10
4.934160
 20
3.208040
  0
VERTEX
  8
0
  6
CONTINUOUS
 10
4.951320
 20
3.218600
  0
VERTEX
  8
0
  6
CONTINUOUS
 10
4.972440
 20
3.224320
  0
VERTEX
  8
0
  6
CONTINUOUS
 10
4.987400
 20
3.226080
  0
VERTEX
  8
0
  6
CONTINUOUS
 10
5.017760
 20
3.226960
  0
VERTEX
  8
0
  6
CONTINUOUS
 10
5.362720
 20
3.226960
  0
VERTEX
  8
0
  6
CONTINUOUS
 10
5.362720
 20
3.847800
  0
VERTEX
  8
0
  6
CONTINUOUS
 10
6.607920
 20
3.847800
  0
VERTEX
  8
0
  6
CONTINUOUS
 10
6.607920
 20
2.720080
  0
VERTEX
  8
0
  6
CONTINUOUS
 10
6.431920
 20
1.799600
  0
VERTEX
  8
0
  6
CONTINUOUS
 10
6.420480
 20
1.762640
  0
VERTEX
  8
0
  6
CONTINUOUS
 10
6.410360
 20
1.745040
  0
VERTEX
  8
0
  6
CONTINUOUS
 10
6.396720
 20
1.732720
  0
VERTEX
  8
0
  6
CONTINUOUS
 10
6.378680
 20
1.724800
  0
VERTEX
  8
0
  6
CONTINUOUS
 10
6.367680
 20
1.721720
  0
VERTEX
  8
0
  6
CONTINUOUS
 10
6.324120
 20
1.717760
  0
VERTEX
  8
0
  6
CONTINUOUS
 10
4.708440
 20
1.718200
  0
VERTEX
  8
0
  6
CONTINUOUS
 10
4.674120
 20
1.721280
  0
VERTEX
  8
0
  6
CONTINUOUS
 10
4.659160
 20
1.724360
  0
VERTEX
  8
0
  6
CONTINUOUS
 10
4.631880
 20
1.734920
  0
VERTEX
  8
0
  6
CONTINUOUS
 10
4.609000
 20
1.749000
  0
VERTEX
  8
0
  6
CONTINUOUS
 10
4.590960
 20
1.766160
  0
VERTEX
  8
0
  6
CONTINUOUS
 10
4.577320
 20
1.785960
  0
VERTEX
  8
0
  6
CONTINUOUS
 10
4.568080
 20
1.807960
  0
VERTEX
  8
0
  6
CONTINUOUS
 10
4.563680
 20
1.830400
  0
VERTEX
  8
0
  6
CONTINUOUS
 10
4.563680
 20
1.853720
  0
VERTEX
  8
0
  6
CONTINUOUS
 10
4.568520
 20
1.876600
  0
VERTEX
  8
0
  6
CONTINUOUS
 10
4.577760
 20
1.898160
  0
VERTEX
  8
0
  6
CONTINUOUS
 10
4.591400
 20
1.917960
  0
VERTEX
  8
0
  6
CONTINUOUS
 10
4.609880
 20
1.935120
  0
VERTEX
  8
0
  6
CONTINUOUS
 10
4.632760
 20
1.949200
  0
VERTEX
  8
0
  6
CONTINUOUS
 10
4.645960
 20
1.954920
  0
VERTEX
  8
0
  6
CONTINUOUS
 10
4.675880
 20
1.962840
  0
VERTEX
  8
0
  6
CONTINUOUS
 10
4.710200
 20
1.965480
  0
VERTEX
  8
0
  6
CONTINUOUS
 10
4.710200
 20
2.068880
  0
VERTEX
  8
0
  6
CONTINUOUS
 10
4.635400
 20
2.068880
  0
VERTEX
  8
0
  6
CONTINUOUS
 10
4.635400
 20
2.118600
  0
VERTEX
  8
0
  6
CONTINUOUS
 10
4.919640
 20
3.182520
  0
SEQEND
  8
0
  0
POLYLINE
  8
0
  6
CONTINUOUS
 66
     1
 40
0.000000
 41
0.000000
  0
VERTEX
  8
0
  6
CONTINUOUS
 10
3.275360
 20
3.106400
  0
VERTEX
  8
0
  6
CONTINUOUS
 10
3.269200
 20
3.120920
  0
VERTEX
  8
0
  6
CONTINUOUS
 10
3.260400
 20
3.131920
  0
VERTEX
  8
0
  6
CONTINUOUS
 10
3.243240
 20
3.142480
  0
VERTEX
  8
0
  6
CONTINUOUS
 10
3.222560
 20
3.148200
  0
VERTEX
  8
0
  6
CONTINUOUS
 10
3.207600
 20
3.149960
  0
VERTEX
  8
0
  6
CONTINUOUS
 10
3.176800
 20
3.150840
  0
VERTEX
  8
0
  6
CONTINUOUS
 10
2.831840
 20
3.150840
  0
VERTEX
  8
0
  6
CONTINUOUS
 10
2.831840
 20
3.771240
  0
VERTEX
  8
0
  6
CONTINUOUS
 10
1.586640
 20
3.771240
  0
VERTEX
  8
0
  6
CONTINUOUS
 10
1.586640
 20
2.643520
  0
VERTEX
  8
0
  6
CONTINUOUS
 10
1.762640
 20
1.723480
  0
VERTEX
  8
0
  6
CONTINUOUS
 10
1.774080
 20
1.686520
  0
VERTEX
  8
0
  6
CONTINUOUS
 10
1.784200
 20
1.668920
  0
VERTEX
  8
0
  6
CONTINUOUS
 10
1.797840
 20
1.656600
  0
VERTEX
  8
0
  6
CONTINUOUS
 10
1.815880
 20
1.648680
  0
VERTEX
  8
0
  6
CONTINUOUS
 10
1.826880
 20
1.645600
  0
VERTEX
  8
0
  6
CONTINUOUS
 10
1.870440
 20
1.641640
  0
VERTEX
  8
0
  6
CONTINUOUS
 10
3.486120
 20
1.642080
  0
VERTEX
  8
0
  6
CONTINUOUS
 10
3.520440
 20
1.644720
  0
VERTEX
  8
0
  6
CONTINUOUS
 10
3.549920
 20
1.652640
  0
VERTEX
  8
0
  6
CONTINUOUS
 10
3.575000
 20
1.664960
  0
VERTEX
  8
0
  6
CONTINUOUS
 10
3.595680
 20
1.680800
  0
VERTEX
  8
0
  6
CONTINUOUS
 10
3.611520
 20
1.699720
  0
VERTEX
  8
0
  6
CONTINUOUS
 10
3.622960
 20
1.720400
  0
VERTEX
  8
0
  6
CONTINUOUS
 10
3.629560
 20
1.742840
  0
VERTEX
  8
0
  6
CONTINUOUS
 10
3.631760
 20
1.765720
  0
VERTEX
  8
0
  6
CONTINUOUS
 10
3.629560
 20
1.789040
  0
VERTEX
  8
0
  6
CONTINUOUS
 10
3.622520
 20
1.811040
  0
VERTEX
  8
0
  6
CONTINUOUS
 10
3.611080
 20
1.832160
  0
VERTEX
  8
0
  6
CONTINUOUS
 10
3.594800
 20
1.850640
  0
VERTEX
  8
0
  6
CONTINUOUS
 10
3.574120
 20
1.866480
  0
VERTEX
  8
0
  6
CONTINUOUS
 10
3.548600
 20
1.878800
  0
VERTEX
  8
0
  6
CONTINUOUS
 10
3.518680
 20
1.886720
  0
VERTEX
  8
0
  6
CONTINUOUS
 10
3.484360
 20
1.889360
  0
VERTEX
  8
0
  6
CONTINUOUS
 10
3.484360
 20
1.992760
  0
VERTEX
  8
0
  6
CONTINUOUS
 10
3.559600
 20
1.992760
  0
VERTEX
  8
0
  6
CONTINUOUS
 10
3.559600
 20
2.042040
  0
VERTEX
  8
0
  6
CONTINUOUS
 10
3.275360
 20
3.106400
  0
SEQEND
  8
0
  0
ENDSEC
  0
EOF
