  0
SECTION
  2
HEADER
  9
$ACADVER
  1
AC1006
  9
$EXTMIN
 10
2.028840
 20
1.893760
  9
$EXTMAX
 10
6.344360
 20
8.478800
  9
$LTSCALE
 40
0.044000
  9
$PDMODE
 70
    35
  9
$PDSIZE
 40
0.035200
  0
ENDSEC
  0
SECTION
  2
TABLES
  0
TABLE
  2
LTYPE
 70
     9
  0
LTYPE
  2
CONTINUOUS
 70
    64
  3
Solid line
 72
    65
 73
     0
 40
0.000000
  0
LTYPE
  2
DASHED
 70
    64
  3
__ __ __ __ __ __ __ __ __ __ __ __ __ __ __
 72
    65
 73
     2
 40
0.000330
 49
0.000220
 49
-0.000110
  0
LTYPE
  2
HIDDEN
 70
    64
  3
 _ _ _ _ _ _ _ _ _ _ _ _ _ _ _ _ _ _ _ _ _ _
 72
    65
 73
     2
 40
0.000165
 49
0.000110
 49
-0.000055
  0
LTYPE
  2
CENTER
 70
    64
  3
____ _ ____ _ ____ _ ____ _ ____ _ ____ _ ____
 72
    65
 73
     4
 40
0.000880
 49
0.000550
 49
-0.000110
 49
0.000110
 49
-0.000110
  0
LTYPE
  2
PHANTOM
 70
    64
  3
_____ _ _ _____ _ _ _____ _ _ _____ _ _ ____
 72
    65
 73
     6
 40
0.001100
 49
0.000550
 49
-0.000110
 49
0.000110
 49
-0.000110
 49
0.000110
 49
-0.000110
  0
LTYPE
  2
DOT
 70
    64
  3
...............................................
 72
    65
 73
     2
 40
0.000110
 49
0.000000
 49
-0.000110
  0
LTYPE
  2
DASHDOT
 70
    64
  3
__ . __ . __ . __ . __ . __ . __ . __ . __ . __
 72
    65
 73
     4
 40
0.000440
 49
0.000220
 49
-0.000110
 49
0.000000
 49
-0.000110
  0
LTYPE
  2
BORDER
 70
    64
  3
__ __ . __ __ . __ __ . __ __ . __ __ . __ __
 72
    65
 73
     6
 40
0.000770
 49
0.000220
 49
-0.000110
 49
0.000220
 49
-0.000110
 49
0.000000
 49
-0.000110
  0
LTYPE
  2
DIVIDE
 70
    64
  3
__ . . __ . . __ . . __ . . __ . . __ . . __
 72
    65
 73
     6
 40
0.000550
 49
0.000220
 49
-0.000110
 49
0.000000
 49
-0.000110
 49
0.000000
 49
-0.000110
  0
LTYPE
  2
DOTDOT
 70
    64
  3
 . .  . .  . .  . .  . .  . . 
 72
    65
 73
     5
 40
0.000242
 49
-0.000110
 49
0.000000
 49
-0.000110
 49
0.000000
 49
-0.000110
  0
ENDTAB
  0
TABLE
  2
STYLE
 70
     2
  0
STYLE
 70
     0
  2
SN0
 40
0.000000
 41
0.000440
 50
0.000000
 71
     0
 42
0.000000
  3
ROMAND
  0
STYLE
 70
    68
  2
SV0
 40
0.000000
 41
0.000440
 50
0.000000
 71
     0
 42
0.000000
  3
ROMAND
  0
ENDTAB
  0
TABLE
  2
LAYER
 70
     3
  0
LAYER
  2
FOREGROUND
 70
    64
 62
     7
  6
CONTINUOUS
  0
LAYER
  2
BACKGROUND
 70
    65
 62
    -7
  6
CONTINUOUS
  0
LAYER
  2
0
 70
    64
 62
     7
  6
CONTINUOUS
  0
ENDTAB
  0
ENDSEC
  0
SECTION
  2
ENTITIES
  0
POLYLINE
  8
FOREGROUND
  6
CONTINUOUS
 66
     1
 40
0.000000
 41
0.000000
  0
VERTEX
  8
FOREGROUND
  6
CONTINUOUS
 10
0.000000
 20
10.372560
  0
VERTEX
  8
FOREGROUND
  6
CONTINUOUS
 10
8.499920
 20
10.372560
  0
VERTEX
  8
FOREGROUND
  6
CONTINUOUS
 10
8.499920
 20
-0.627440
  0
VERTEX
  8
FOREGROUND
  6
CONTINUOUS
 10
0.000000
 20
-0.627440
  0
VERTEX
  8
FOREGROUND
  6
CONTINUOUS
 10
0.000000
 20
10.372560
  0
SEQEND
  8
0
  0
POLYLINE
  8
FOREGROUND
  6
CONTINUOUS
 66
     1
 40
0.000000
 41
0.000000
  0
VERTEX
  8
FOREGROUND
  6
CONTINUOUS
 10
0.000000
 20
10.372560
  0
VERTEX
  8
FOREGROUND
  6
CONTINUOUS
 10
8.499920
 20
10.372560
  0
VERTEX
  8
FOREGROUND
  6
CONTINUOUS
 10
8.499920
 20
-0.627440
  0
VERTEX
  8
FOREGROUND
  6
CONTINUOUS
 10
0.000000
 20
-0.627440
  0
VERTEX
  8
FOREGROUND
  6
CONTINUOUS
 10
0.000000
 20
10.372560
  0
SEQEND
  8
0
  0
POLYLINE
  8
0
  6
CONTINUOUS
 66
     1
 40
0.014080
 41
0.014080
  0
VERTEX
  8
0
  6
CONTINUOUS
 10
6.288480
 20
7.665240
  0
VERTEX
  8
0
  6
CONTINUOUS
 10
6.285840
 20
7.705720
  0
VERTEX
  8
0
  6
CONTINUOUS
 10
6.277480
 20
7.742240
  0
VERTEX
  8
0
  6
CONTINUOUS
 10
6.269560
 20
7.764680
  0
VERTEX
  8
0
  6
CONTINUOUS
 10
6.259880
 20
7.785360
  0
VERTEX
  8
0
  6
CONTINUOUS
 10
6.248000
 20
7.805160
  0
VERTEX
  8
0
  6
CONTINUOUS
 10
6.234800
 20
7.823200
  0
VERTEX
  8
0
  6
CONTINUOUS
 10
6.203560
 20
7.855760
  0
VERTEX
  8
0
  6
CONTINUOUS
 10
6.167480
 20
7.883480
  0
VERTEX
  8
0
  6
CONTINUOUS
 10
6.127880
 20
7.906800
  0
VERTEX
  8
0
  6
CONTINUOUS
 10
6.085200
 20
7.927040
  0
VERTEX
  8
0
  6
CONTINUOUS
 10
6.019200
 20
7.950800
  0
VERTEX
  8
0
  6
CONTINUOUS
 10
5.974760
 20
7.964000
  0
VERTEX
  8
0
  6
CONTINUOUS
 10
5.822080
 20
8.002280
  0
VERTEX
  8
0
  6
CONTINUOUS
 10
5.784680
 20
8.015920
  0
VERTEX
  8
0
  6
CONTINUOUS
 10
5.747720
 20
8.040560
  0
VERTEX
  8
0
  6
CONTINUOUS
 10
5.716480
 20
8.070920
  0
VERTEX
  8
0
  6
CONTINUOUS
 10
5.694920
 20
8.104800
  0
VERTEX
  8
0
  6
CONTINUOUS
 10
5.679520
 20
8.144840
  0
VERTEX
  8
0
  6
CONTINUOUS
 10
5.662360
 20
8.212600
  0
VERTEX
  8
0
  6
CONTINUOUS
 10
5.657520
 20
8.232840
  0
VERTEX
  8
0
  6
CONTINUOUS
 10
5.337640
 20
8.232400
  0
VERTEX
  8
0
  6
CONTINUOUS
 10
5.334560
 20
8.260120
  0
VERTEX
  8
0
  6
CONTINUOUS
 10
5.326200
 20
8.285200
  0
VERTEX
  8
0
  6
CONTINUOUS
 10
5.313440
 20
8.307640
  0
VERTEX
  8
0
  6
CONTINUOUS
 10
5.297160
 20
8.326560
  0
VERTEX
  8
0
  6
CONTINUOUS
 10
5.269440
 20
8.348120
  0
VERTEX
  8
0
  6
CONTINUOUS
 10
5.250080
 20
8.357360
  0
VERTEX
  8
0
  6
CONTINUOUS
 10
5.231600
 20
8.362200
  0
VERTEX
  8
0
  6
CONTINUOUS
 10
4.572920
 20
8.362200
  0
VERTEX
  8
0
  6
CONTINUOUS
 10
4.549160
 20
8.359120
  0
VERTEX
  8
0
  6
CONTINUOUS
 10
4.536400
 20
8.355160
  0
VERTEX
  8
0
  6
CONTINUOUS
 10
4.517480
 20
8.342840
  0
VERTEX
  8
0
  6
CONTINUOUS
 10
4.482720
 20
8.309400
  0
VERTEX
  8
0
  6
CONTINUOUS
 10
4.459840
 20
8.294880
  0
VERTEX
  8
0
  6
CONTINUOUS
 10
4.434320
 20
8.283440
  0
VERTEX
  8
0
  6
CONTINUOUS
 10
4.390320
 20
8.271560
  0
VERTEX
  8
0
  6
CONTINUOUS
 10
4.339280
 20
8.264960
  0
VERTEX
  8
0
  6
CONTINUOUS
 10
4.281640
 20
8.262320
  0
VERTEX
  8
0
  6
CONTINUOUS
 10
4.239400
 20
8.262320
  0
VERTEX
  8
0
  6
CONTINUOUS
 10
4.219160
 20
8.198520
  0
VERTEX
  8
0
  6
CONTINUOUS
 10
3.796320
 20
8.198520
  0
VERTEX
  8
0
  6
CONTINUOUS
 10
3.785760
 20
8.257040
  0
VERTEX
  8
0
  6
CONTINUOUS
 10
3.612840
 20
8.257040
  0
VERTEX
  8
0
  6
CONTINUOUS
 10
3.605800
 20
8.277280
  0
VERTEX
  8
0
  6
CONTINUOUS
 10
3.595680
 20
8.295320
  0
VERTEX
  8
0
  6
CONTINUOUS
 10
3.582480
 20
8.311160
  0
VERTEX
  8
0
  6
CONTINUOUS
 10
3.566640
 20
8.324360
  0
VERTEX
  8
0
  6
CONTINUOUS
 10
3.546840
 20
8.334920
  0
VERTEX
  8
0
  6
CONTINUOUS
 10
3.523960
 20
8.342840
  0
VERTEX
  8
0
  6
CONTINUOUS
 10
3.497560
 20
8.347240
  0
VERTEX
  8
0
  6
CONTINUOUS
 10
3.467640
 20
8.349000
  0
VERTEX
  8
0
  6
CONTINUOUS
 10
3.241920
 20
8.349440
  0
VERTEX
  8
0
  6
CONTINUOUS
 10
3.215960
 20
8.353400
  0
VERTEX
  8
0
  6
CONTINUOUS
 10
3.192640
 20
8.360880
  0
VERTEX
  8
0
  6
CONTINUOUS
 10
3.171520
 20
8.372320
  0
VERTEX
  8
0
  6
CONTINUOUS
 10
3.152160
 20
8.387280
  0
VERTEX
  8
0
  6
CONTINUOUS
 10
3.134120
 20
8.406200
  0
VERTEX
  8
0
  6
CONTINUOUS
 10
3.108600
 20
8.442280
  0
VERTEX
  8
0
  6
CONTINUOUS
 10
3.092320
 20
8.471320
  0
VERTEX
  8
0
  6
CONTINUOUS
 10
2.062280
 20
8.471320
  0
VERTEX
  8
0
  6
CONTINUOUS
 10
2.062280
 20
7.665240
  0
VERTEX
  8
0
  6
CONTINUOUS
 10
6.288480
 20
7.665240
  0
SEQEND
  8
0
  0
POLYLINE
  8
0
  6
CONTINUOUS
 66
     1
 40
0.000000
 41
0.000000
  0
VERTEX
  8
0
  6
CONTINUOUS
 10
2.060520
 20
1.893760
  0
VERTEX
  8
0
  6
CONTINUOUS
 10
2.063160
 20
1.934240
  0
VERTEX
  8
0
  6
CONTINUOUS
 10
2.071520
 20
1.970760
  0
VERTEX
  8
0
  6
CONTINUOUS
 10
2.079440
 20
1.993200
  0
VERTEX
  8
0
  6
CONTINUOUS
 10
2.089120
 20
2.013880
  0
VERTEX
  8
0
  6
CONTINUOUS
 10
2.101000
 20
2.033680
  0
VERTEX
  8
0
  6
CONTINUOUS
 10
2.114200
 20
2.051720
  0
VERTEX
  8
0
  6
CONTINUOUS
 10
2.145440
 20
2.084280
  0
VERTEX
  8
0
  6
CONTINUOUS
 10
2.181520
 20
2.112000
  0
VERTEX
  8
0
  6
CONTINUOUS
 10
2.221120
 20
2.135320
  0
VERTEX
  8
0
  6
CONTINUOUS
 10
2.263800
 20
2.155560
  0
VERTEX
  8
0
  6
CONTINUOUS
 10
2.329800
 20
2.179320
  0
VERTEX
  8
0
  6
CONTINUOUS
 10
2.374240
 20
2.192520
  0
VERTEX
  8
0
  6
CONTINUOUS
 10
2.526920
 20
2.230800
  0
VERTEX
  8
0
  6
CONTINUOUS
 10
2.553320
 20
2.239600
  0
VERTEX
  8
0
  6
CONTINUOUS
 10
2.572680
 20
2.249280
  0
VERTEX
  8
0
  6
CONTINUOUS
 10
2.600840
 20
2.269080
  0
VERTEX
  8
0
  6
CONTINUOUS
 10
2.622840
 20
2.289320
  0
VERTEX
  8
0
  6
CONTINUOUS
 10
2.640440
 20
2.310440
  0
VERTEX
  8
0
  6
CONTINUOUS
 10
2.654080
 20
2.333760
  0
VERTEX
  8
0
  6
CONTINUOUS
 10
2.669480
 20
2.373800
  0
VERTEX
  8
0
  6
CONTINUOUS
 10
2.682240
 20
2.422640
  0
VERTEX
  8
0
  6
CONTINUOUS
 10
2.691480
 20
2.461360
  0
VERTEX
  8
0
  6
CONTINUOUS
 10
3.011360
 20
2.460920
  0
VERTEX
  8
0
  6
CONTINUOUS
 10
3.014440
 20
2.488640
  0
VERTEX
  8
0
  6
CONTINUOUS
 10
3.022800
 20
2.513720
  0
VERTEX
  8
0
  6
CONTINUOUS
 10
3.035560
 20
2.536160
  0
VERTEX
  8
0
  6
CONTINUOUS
 10
3.051840
 20
2.555080
  0
VERTEX
  8
0
  6
CONTINUOUS
 10
3.079120
 20
2.576640
  0
VERTEX
  8
0
  6
CONTINUOUS
 10
3.098480
 20
2.585880
  0
VERTEX
  8
0
  6
CONTINUOUS
 10
3.116960
 20
2.590720
  0
VERTEX
  8
0
  6
CONTINUOUS
 10
3.775640
 20
2.590720
  0
VERTEX
  8
0
  6
CONTINUOUS
 10
3.799840
 20
2.587640
  0
VERTEX
  8
0
  6
CONTINUOUS
 10
3.812160
 20
2.583680
  0
VERTEX
  8
0
  6
CONTINUOUS
 10
3.831520
 20
2.571360
  0
VERTEX
  8
0
  6
CONTINUOUS
 10
3.866280
 20
2.537920
  0
VERTEX
  8
0
  6
CONTINUOUS
 10
3.888720
 20
2.523400
  0
VERTEX
  8
0
  6
CONTINUOUS
 10
3.914240
 20
2.511960
  0
VERTEX
  8
0
  6
CONTINUOUS
 10
3.958240
 20
2.500080
  0
VERTEX
  8
0
  6
CONTINUOUS
 10
4.009280
 20
2.493480
  0
VERTEX
  8
0
  6
CONTINUOUS
 10
4.066920
 20
2.490840
  0
VERTEX
  8
0
  6
CONTINUOUS
 10
4.109600
 20
2.490840
  0
VERTEX
  8
0
  6
CONTINUOUS
 10
4.129840
 20
2.427040
  0
VERTEX
  8
0
  6
CONTINUOUS
 10
4.552680
 20
2.427040
  0
VERTEX
  8
0
  6
CONTINUOUS
 10
4.562800
 20
2.485560
  0
VERTEX
  8
0
  6
CONTINUOUS
 10
4.736160
 20
2.485560
  0
VERTEX
  8
0
  6
CONTINUOUS
 10
4.743200
 20
2.506240
  0
VERTEX
  8
0
  6
CONTINUOUS
 10
4.759480
 20
2.532640
  0
VERTEX
  8
0
  6
CONTINUOUS
 10
4.782360
 20
2.553320
  0
VERTEX
  8
0
  6
CONTINUOUS
 10
4.813160
 20
2.567840
  0
VERTEX
  8
0
  6
CONTINUOUS
 10
4.837800
 20
2.574000
  0
VERTEX
  8
0
  6
CONTINUOUS
 10
4.865960
 20
2.577080
  0
VERTEX
  8
0
  6
CONTINUOUS
 10
5.093000
 20
2.577520
  0
VERTEX
  8
0
  6
CONTINUOUS
 10
5.120280
 20
2.579720
  0
VERTEX
  8
0
  6
CONTINUOUS
 10
5.144920
 20
2.585440
  0
VERTEX
  8
0
  6
CONTINUOUS
 10
5.167360
 20
2.594680
  0
VERTEX
  8
0
  6
CONTINUOUS
 10
5.196840
 20
2.615800
  0
VERTEX
  8
0
  6
CONTINUOUS
 10
5.214880
 20
2.634720
  0
VERTEX
  8
0
  6
CONTINUOUS
 10
5.239960
 20
2.670800
  0
VERTEX
  8
0
  6
CONTINUOUS
 10
5.256240
 20
2.699840
  0
VERTEX
  8
0
  6
CONTINUOUS
 10
6.286720
 20
2.699840
  0
VERTEX
  8
0
  6
CONTINUOUS
 10
6.286720
 20
1.893760
  0
VERTEX
  8
0
  6
CONTINUOUS
 10
2.060520
 20
1.893760
  0
SEQEND
  8
0
  0
POLYLINE
  8
0
  6
CONTINUOUS
 66
     1
 40
0.000000
 41
0.000000
  0
VERTEX
  8
0
  6
CONTINUOUS
 10
6.343920
 20
3.095840
  0
VERTEX
  8
0
  6
CONTINUOUS
 10
6.341280
 20
3.136320
  0
VERTEX
  8
0
  6
CONTINUOUS
 10
6.333360
 20
3.172840
  0
VERTEX
  8
0
  6
CONTINUOUS
 10
6.325000
 20
3.195280
  0
VERTEX
  8
0
  6
CONTINUOUS
 10
6.315320
 20
3.215960
  0
VERTEX
  8
0
  6
CONTINUOUS
 10
6.303440
 20
3.235760
  0
VERTEX
  8
0
  6
CONTINUOUS
 10
6.290240
 20
3.253800
  0
VERTEX
  8
0
  6
CONTINUOUS
 10
6.259440
 20
3.286360
  0
VERTEX
  8
0
  6
CONTINUOUS
 10
6.223360
 20
3.314080
  0
VERTEX
  8
0
  6
CONTINUOUS
 10
6.183320
 20
3.337400
  0
VERTEX
  8
0
  6
CONTINUOUS
 10
6.141080
 20
3.357200
  0
VERTEX
  8
0
  6
CONTINUOUS
 10
6.074640
 20
3.381400
  0
VERTEX
  8
0
  6
CONTINUOUS
 10
6.030640
 20
3.394600
  0
VERTEX
  8
0
  6
CONTINUOUS
 10
5.877960
 20
3.432880
  0
VERTEX
  8
0
  6
CONTINUOUS
 10
5.851120
 20
3.441680
  0
VERTEX
  8
0
  6
CONTINUOUS
 10
5.831760
 20
3.450920
  0
VERTEX
  8
0
  6
CONTINUOUS
 10
5.803600
 20
3.470720
  0
VERTEX
  8
0
  6
CONTINUOUS
 10
5.781600
 20
3.490960
  0
VERTEX
  8
0
  6
CONTINUOUS
 10
5.764000
 20
3.512520
  0
VERTEX
  8
0
  6
CONTINUOUS
 10
5.750800
 20
3.535400
  0
VERTEX
  8
0
  6
CONTINUOUS
 10
5.739800
 20
3.561360
  0
VERTEX
  8
0
  6
CONTINUOUS
 10
5.722200
 20
3.624720
  0
VERTEX
  8
0
  6
CONTINUOUS
 10
5.712960
 20
3.663440
  0
VERTEX
  8
0
  6
CONTINUOUS
 10
5.393080
 20
3.663000
  0
VERTEX
  8
0
  6
CONTINUOUS
 10
5.390000
 20
3.690720
  0
VERTEX
  8
0
  6
CONTINUOUS
 10
5.381640
 20
3.715800
  0
VERTEX
  8
0
  6
CONTINUOUS
 10
5.368880
 20
3.737800
  0
VERTEX
  8
0
  6
CONTINUOUS
 10
5.352600
 20
3.756720
  0
VERTEX
  8
0
  6
CONTINUOUS
 10
5.334560
 20
3.772120
  0
VERTEX
  8
0
  6
CONTINUOUS
 10
5.315640
 20
3.783560
  0
VERTEX
  8
0
  6
CONTINUOUS
 10
5.296280
 20
3.790600
  0
VERTEX
  8
0
  6
CONTINUOUS
 10
5.278680
 20
3.792800
  0
VERTEX
  8
0
  6
CONTINUOUS
 10
4.628800
 20
3.792360
  0
VERTEX
  8
0
  6
CONTINUOUS
 10
4.604600
 20
3.789280
  0
VERTEX
  8
0
  6
CONTINUOUS
 10
4.592280
 20
3.785320
  0
VERTEX
  8
0
  6
CONTINUOUS
 10
4.581720
 20
3.780040
  0
VERTEX
  8
0
  6
CONTINUOUS
 10
4.565000
 20
3.765960
  0
VERTEX
  8
0
  6
CONTINUOUS
 10
4.538600
 20
3.740000
  0
VERTEX
  8
0
  6
CONTINUOUS
 10
4.515720
 20
3.725480
  0
VERTEX
  8
0
  6
CONTINUOUS
 10
4.490200
 20
3.714040
  0
VERTEX
  8
0
  6
CONTINUOUS
 10
4.446200
 20
3.702160
  0
VERTEX
  8
0
  6
CONTINUOUS
 10
4.395160
 20
3.695560
  0
VERTEX
  8
0
  6
CONTINUOUS
 10
4.337520
 20
3.692920
  0
VERTEX
  8
0
  6
CONTINUOUS
 10
4.295280
 20
3.692920
  0
VERTEX
  8
0
  6
CONTINUOUS
 10
4.274600
 20
3.629120
  0
VERTEX
  8
0
  6
CONTINUOUS
 10
3.851760
 20
3.629120
  0
VERTEX
  8
0
  6
CONTINUOUS
 10
3.841640
 20
3.687640
  0
VERTEX
  8
0
  6
CONTINUOUS
 10
3.668280
 20
3.687640
  0
VERTEX
  8
0
  6
CONTINUOUS
 10
3.661240
 20
3.707880
  0
VERTEX
  8
0
  6
CONTINUOUS
 10
3.644960
 20
3.734280
  0
VERTEX
  8
0
  6
CONTINUOUS
 10
3.630440
 20
3.748800
  0
VERTEX
  8
0
  6
CONTINUOUS
 10
3.612400
 20
3.760240
  0
VERTEX
  8
0
  6
CONTINUOUS
 10
3.591280
 20
3.769480
  0
VERTEX
  8
0
  6
CONTINUOUS
 10
3.566640
 20
3.775640
  0
VERTEX
  8
0
  6
CONTINUOUS
 10
3.538480
 20
3.778720
  0
VERTEX
  8
0
  6
CONTINUOUS
 10
3.311880
 20
3.779160
  0
VERTEX
  8
0
  6
CONTINUOUS
 10
3.284160
 20
3.781360
  0
VERTEX
  8
0
  6
CONTINUOUS
 10
3.259520
 20
3.787080
  0
VERTEX
  8
0
  6
CONTINUOUS
 10
3.237520
 20
3.796760
  0
VERTEX
  8
0
  6
CONTINUOUS
 10
3.217280
 20
3.809960
  0
VERTEX
  8
0
  6
CONTINUOUS
 10
3.198800
 20
3.826680
  0
VERTEX
  8
0
  6
CONTINUOUS
 10
3.172840
 20
3.859680
  0
VERTEX
  8
0
  6
CONTINUOUS
 10
3.148200
 20
3.901920
  0
VERTEX
  8
0
  6
CONTINUOUS
 10
2.117720
 20
3.901920
  0
VERTEX
  8
0
  6
CONTINUOUS
 10
2.117720
 20
3.095840
  0
VERTEX
  8
0
  6
CONTINUOUS
 10
6.343920
 20
3.095840
  0
SEQEND
  8
0
  0
SOLID
  8
0
 62
    15
 10
4.550040
 20
5.966400
 11
4.550920
 21
6.713080
 12
5.190240
 22
5.966400
 13
5.191120
 23
6.713080
  0
POLYLINE
  8
0
  6
CONTINUOUS
 66
     1
 40
0.000000
 41
0.000000
  0
VERTEX
  8
0
  6
CONTINUOUS
 10
4.550040
 20
5.966400
  0
VERTEX
  8
0
  6
CONTINUOUS
 10
4.550920
 20
6.713080
  0
VERTEX
  8
0
  6
CONTINUOUS
 10
5.191120
 20
6.713080
  0
VERTEX
  8
0
  6
CONTINUOUS
 10
5.190240
 20
5.966400
  0
VERTEX
  8
0
  6
CONTINUOUS
 10
4.550040
 20
5.966400
  0
SEQEND
  8
0
  0
SOLID
  8
0
 62
    15
 10
3.059760
 20
6.075520
 11
3.060640
 21
6.821760
 12
3.076040
 22
6.046480
 13
3.076920
 23
6.792720
  0
POLYLINE
  8
0
  6
CONTINUOUS
 66
     1
 40
0.000000
 41
0.000000
  0
VERTEX
  8
0
  6
CONTINUOUS
 10
3.059760
 20
6.075520
  0
VERTEX
  8
0
  6
CONTINUOUS
 10
3.060640
 20
6.821760
  0
VERTEX
  8
0
  6
CONTINUOUS
 10
3.076920
 20
6.792720
  0
VERTEX
  8
0
  6
CONTINUOUS
 10
3.076040
 20
6.046480
  0
VERTEX
  8
0
  6
CONTINUOUS
 10
3.059760
 20
6.075520
  0
SEQEND
  8
0
  0
SOLID
  8
0
 62
    15
 10
3.076040
 20
6.046480
 11
3.076920
 21
6.792720
 12
3.092760
 22
6.021400
 13
3.093640
 23
6.767640
  0
POLYLINE
  8
0
  6
CONTINUOUS
 66
     1
 40
0.000000
 41
0.000000
  0
VERTEX
  8
0
  6
CONTINUOUS
 10
3.076040
 20
6.046480
  0
VERTEX
  8
0
  6
CONTINUOUS
 10
3.076920
 20
6.792720
  0
VERTEX
  8
0
  6
CONTINUOUS
 10
3.093640
 20
6.767640
  0
VERTEX
  8
0
  6
CONTINUOUS
 10
3.092760
 20
6.021400
  0
VERTEX
  8
0
  6
CONTINUOUS
 10
3.076040
 20
6.046480
  0
SEQEND
  8
0
  0
SOLID
  8
0
 62
    15
 10
3.092760
 20
6.021400
 11
3.093640
 21
6.767640
 12
3.110360
 22
6.000280
 13
3.111240
 23
6.746960
  0
POLYLINE
  8
0
  6
CONTINUOUS
 66
     1
 40
0.000000
 41
0.000000
  0
VERTEX
  8
0
  6
CONTINUOUS
 10
3.092760
 20
6.021400
  0
VERTEX
  8
0
  6
CONTINUOUS
 10
3.093640
 20
6.767640
  0
VERTEX
  8
0
  6
CONTINUOUS
 10
3.111240
 20
6.746960
  0
VERTEX
  8
0
  6
CONTINUOUS
 10
3.110360
 20
6.000280
  0
VERTEX
  8
0
  6
CONTINUOUS
 10
3.092760
 20
6.021400
  0
SEQEND
  8
0
  0
SOLID
  8
0
 62
    15
 10
3.110360
 20
6.000280
 11
3.111240
 21
6.746960
 12
3.128840
 22
5.983560
 13
3.129720
 23
6.729800
  0
POLYLINE
  8
0
  6
CONTINUOUS
 66
     1
 40
0.000000
 41
0.000000
  0
VERTEX
  8
0
  6
CONTINUOUS
 10
3.110360
 20
6.000280
  0
VERTEX
  8
0
  6
CONTINUOUS
 10
3.111240
 20
6.746960
  0
VERTEX
  8
0
  6
CONTINUOUS
 10
3.129720
 20
6.729800
  0
VERTEX
  8
0
  6
CONTINUOUS
 10
3.128840
 20
5.983560
  0
VERTEX
  8
0
  6
CONTINUOUS
 10
3.110360
 20
6.000280
  0
SEQEND
  8
0
  0
SOLID
  8
0
 62
    15
 10
3.128840
 20
5.983560
 11
3.129720
 21
6.729800
 12
3.149080
 22
5.970360
 13
3.149520
 23
6.716600
  0
POLYLINE
  8
0
  6
CONTINUOUS
 66
     1
 40
0.000000
 41
0.000000
  0
VERTEX
  8
0
  6
CONTINUOUS
 10
3.128840
 20
5.983560
  0
VERTEX
  8
0
  6
CONTINUOUS
 10
3.129720
 20
6.729800
  0
VERTEX
  8
0
  6
CONTINUOUS
 10
3.149520
 20
6.716600
  0
VERTEX
  8
0
  6
CONTINUOUS
 10
3.149080
 20
5.970360
  0
VERTEX
  8
0
  6
CONTINUOUS
 10
3.128840
 20
5.983560
  0
SEQEND
  8
0
  0
SOLID
  8
0
 62
    15
 10
3.149080
 20
5.970360
 11
3.149520
 21
6.716600
 12
3.171080
 22
5.960680
 13
3.171960
 23
6.707360
  0
POLYLINE
  8
0
  6
CONTINUOUS
 66
     1
 40
0.000000
 41
0.000000
  0
VERTEX
  8
0
  6
CONTINUOUS
 10
3.149080
 20
5.970360
  0
VERTEX
  8
0
  6
CONTINUOUS
 10
3.149520
 20
6.716600
  0
VERTEX
  8
0
  6
CONTINUOUS
 10
3.171960
 20
6.707360
  0
VERTEX
  8
0
  6
CONTINUOUS
 10
3.171080
 20
5.960680
  0
VERTEX
  8
0
  6
CONTINUOUS
 10
3.149080
 20
5.970360
  0
SEQEND
  8
0
  0
SOLID
  8
0
 62
    15
 10
3.171080
 20
5.960680
 11
3.171960
 21
6.707360
 12
3.195720
 22
5.954960
 13
3.196600
 23
6.701640
  0
POLYLINE
  8
0
  6
CONTINUOUS
 66
     1
 40
0.000000
 41
0.000000
  0
VERTEX
  8
0
  6
CONTINUOUS
 10
3.171080
 20
5.960680
  0
VERTEX
  8
0
  6
CONTINUOUS
 10
3.171960
 20
6.707360
  0
VERTEX
  8
0
  6
CONTINUOUS
 10
3.196600
 20
6.701640
  0
VERTEX
  8
0
  6
CONTINUOUS
 10
3.195720
 20
5.954960
  0
VERTEX
  8
0
  6
CONTINUOUS
 10
3.171080
 20
5.960680
  0
SEQEND
  8
0
  0
SOLID
  8
0
 62
    15
 10
3.195720
 20
5.954960
 11
3.196600
 21
6.701640
 12
3.223440
 22
5.952760
 13
3.223880
 23
6.699440
  0
POLYLINE
  8
0
  6
CONTINUOUS
 66
     1
 40
0.000000
 41
0.000000
  0
VERTEX
  8
0
  6
CONTINUOUS
 10
3.195720
 20
5.954960
  0
VERTEX
  8
0
  6
CONTINUOUS
 10
3.196600
 20
6.701640
  0
VERTEX
  8
0
  6
CONTINUOUS
 10
3.223880
 20
6.699440
  0
VERTEX
  8
0
  6
CONTINUOUS
 10
3.223440
 20
5.952760
  0
VERTEX
  8
0
  6
CONTINUOUS
 10
3.195720
 20
5.954960
  0
SEQEND
  8
0
  0
SOLID
  8
0
 62
    15
 10
3.223440
 20
5.952760
 11
3.223880
 21
6.699440
 12
3.434640
 22
5.952760
 13
3.435520
 23
6.699440
  0
POLYLINE
  8
0
  6
CONTINUOUS
 66
     1
 40
0.000000
 41
0.000000
  0
VERTEX
  8
0
  6
CONTINUOUS
 10
3.223440
 20
5.952760
  0
VERTEX
  8
0
  6
CONTINUOUS
 10
3.223880
 20
6.699440
  0
VERTEX
  8
0
  6
CONTINUOUS
 10
3.435520
 20
6.699440
  0
VERTEX
  8
0
  6
CONTINUOUS
 10
3.434640
 20
5.952760
  0
VERTEX
  8
0
  6
CONTINUOUS
 10
3.223440
 20
5.952760
  0
SEQEND
  8
0
  0
SOLID
  8
0
 62
    15
 10
3.434640
 20
5.952760
 11
3.435520
 21
6.699440
 12
3.465000
 22
5.951440
 13
3.465440
 23
6.697680
  0
POLYLINE
  8
0
  6
CONTINUOUS
 66
     1
 40
0.000000
 41
0.000000
  0
VERTEX
  8
0
  6
CONTINUOUS
 10
3.434640
 20
5.952760
  0
VERTEX
  8
0
  6
CONTINUOUS
 10
3.435520
 20
6.699440
  0
VERTEX
  8
0
  6
CONTINUOUS
 10
3.465440
 20
6.697680
  0
VERTEX
  8
0
  6
CONTINUOUS
 10
3.465000
 20
5.951440
  0
VERTEX
  8
0
  6
CONTINUOUS
 10
3.434640
 20
5.952760
  0
SEQEND
  8
0
  0
SOLID
  8
0
 62
    15
 10
3.465000
 20
5.951440
 11
3.465440
 21
6.697680
 12
3.491400
 22
5.946600
 13
3.491840
 23
6.692840
  0
POLYLINE
  8
0
  6
CONTINUOUS
 66
     1
 40
0.000000
 41
0.000000
  0
VERTEX
  8
0
  6
CONTINUOUS
 10
3.465000
 20
5.951440
  0
VERTEX
  8
0
  6
CONTINUOUS
 10
3.465440
 20
6.697680
  0
VERTEX
  8
0
  6
CONTINUOUS
 10
3.491840
 20
6.692840
  0
VERTEX
  8
0
  6
CONTINUOUS
 10
3.491400
 20
5.946600
  0
VERTEX
  8
0
  6
CONTINUOUS
 10
3.465000
 20
5.951440
  0
SEQEND
  8
0
  0
SOLID
  8
0
 62
    15
 10
3.491400
 20
5.946600
 11
3.491840
 21
6.692840
 12
3.513840
 22
5.939120
 13
3.514720
 23
6.685360
  0
POLYLINE
  8
0
  6
CONTINUOUS
 66
     1
 40
0.000000
 41
0.000000
  0
VERTEX
  8
0
  6
CONTINUOUS
 10
3.491400
 20
5.946600
  0
VERTEX
  8
0
  6
CONTINUOUS
 10
3.491840
 20
6.692840
  0
VERTEX
  8
0
  6
CONTINUOUS
 10
3.514720
 20
6.685360
  0
VERTEX
  8
0
  6
CONTINUOUS
 10
3.513840
 20
5.939120
  0
VERTEX
  8
0
  6
CONTINUOUS
 10
3.491400
 20
5.946600
  0
SEQEND
  8
0
  0
SOLID
  8
0
 62
    15
 10
3.513840
 20
5.939120
 11
3.514720
 21
6.685360
 12
3.533640
 22
5.928560
 13
3.534080
 23
6.674800
  0
POLYLINE
  8
0
  6
CONTINUOUS
 66
     1
 40
0.000000
 41
0.000000
  0
VERTEX
  8
0
  6
CONTINUOUS
 10
3.513840
 20
5.939120
  0
VERTEX
  8
0
  6
CONTINUOUS
 10
3.514720
 20
6.685360
  0
VERTEX
  8
0
  6
CONTINUOUS
 10
3.534080
 20
6.674800
  0
VERTEX
  8
0
  6
CONTINUOUS
 10
3.533640
 20
5.928560
  0
VERTEX
  8
0
  6
CONTINUOUS
 10
3.513840
 20
5.939120
  0
SEQEND
  8
0
  0
SOLID
  8
0
 62
    15
 10
3.533640
 20
5.928560
 11
3.534080
 21
6.674800
 12
3.549480
 22
5.915360
 13
3.550360
 23
6.661600
  0
POLYLINE
  8
0
  6
CONTINUOUS
 66
     1
 40
0.000000
 41
0.000000
  0
VERTEX
  8
0
  6
CONTINUOUS
 10
3.533640
 20
5.928560
  0
VERTEX
  8
0
  6
CONTINUOUS
 10
3.534080
 20
6.674800
  0
VERTEX
  8
0
  6
CONTINUOUS
 10
3.550360
 20
6.661600
  0
VERTEX
  8
0
  6
CONTINUOUS
 10
3.549480
 20
5.915360
  0
VERTEX
  8
0
  6
CONTINUOUS
 10
3.533640
 20
5.928560
  0
SEQEND
  8
0
  0
SOLID
  8
0
 62
    15
 10
3.549480
 20
5.915360
 11
3.550360
 21
6.661600
 12
3.562680
 22
5.899520
 13
3.563560
 23
6.646200
  0
POLYLINE
  8
0
  6
CONTINUOUS
 66
     1
 40
0.000000
 41
0.000000
  0
VERTEX
  8
0
  6
CONTINUOUS
 10
3.549480
 20
5.915360
  0
VERTEX
  8
0
  6
CONTINUOUS
 10
3.550360
 20
6.661600
  0
VERTEX
  8
0
  6
CONTINUOUS
 10
3.563560
 20
6.646200
  0
VERTEX
  8
0
  6
CONTINUOUS
 10
3.562680
 20
5.899520
  0
VERTEX
  8
0
  6
CONTINUOUS
 10
3.549480
 20
5.915360
  0
SEQEND
  8
0
  0
SOLID
  8
0
 62
    15
 10
3.562680
 20
5.899520
 11
3.563560
 21
6.646200
 12
3.579840
 22
5.861240
 13
3.580720
 23
6.607480
  0
POLYLINE
  8
0
  6
CONTINUOUS
 66
     1
 40
0.000000
 41
0.000000
  0
VERTEX
  8
0
  6
CONTINUOUS
 10
3.562680
 20
5.899520
  0
VERTEX
  8
0
  6
CONTINUOUS
 10
3.563560
 20
6.646200
  0
VERTEX
  8
0
  6
CONTINUOUS
 10
3.580720
 20
6.607480
  0
VERTEX
  8
0
  6
CONTINUOUS
 10
3.579840
 20
5.861240
  0
VERTEX
  8
0
  6
CONTINUOUS
 10
3.562680
 20
5.899520
  0
SEQEND
  8
0
  0
SOLID
  8
0
 62
    15
 10
3.579840
 20
5.861240
 11
3.580720
 21
6.607480
 12
3.753200
 22
5.861240
 13
3.753640
 23
6.607480
  0
POLYLINE
  8
0
  6
CONTINUOUS
 66
     1
 40
0.000000
 41
0.000000
  0
VERTEX
  8
0
  6
CONTINUOUS
 10
3.579840
 20
5.861240
  0
VERTEX
  8
0
  6
CONTINUOUS
 10
3.580720
 20
6.607480
  0
VERTEX
  8
0
  6
CONTINUOUS
 10
3.753640
 20
6.607480
  0
VERTEX
  8
0
  6
CONTINUOUS
 10
3.753200
 20
5.861240
  0
VERTEX
  8
0
  6
CONTINUOUS
 10
3.579840
 20
5.861240
  0
SEQEND
  8
0
  0
SOLID
  8
0
 62
    15
 10
3.753200
 20
5.861240
 11
3.753640
 21
6.607480
 12
3.763320
 22
5.802720
 13
3.764200
 23
6.548960
  0
POLYLINE
  8
0
  6
CONTINUOUS
 66
     1
 40
0.000000
 41
0.000000
  0
VERTEX
  8
0
  6
CONTINUOUS
 10
3.753200
 20
5.861240
  0
VERTEX
  8
0
  6
CONTINUOUS
 10
3.753640
 20
6.607480
  0
VERTEX
  8
0
  6
CONTINUOUS
 10
3.764200
 20
6.548960
  0
VERTEX
  8
0
  6
CONTINUOUS
 10
3.763320
 20
5.802720
  0
VERTEX
  8
0
  6
CONTINUOUS
 10
3.753200
 20
5.861240
  0
SEQEND
  8
0
  0
SOLID
  8
0
 62
    15
 10
3.763320
 20
5.802720
 11
3.764200
 21
6.548960
 12
4.186160
 22
5.802720
 13
4.187040
 23
6.548960
  0
POLYLINE
  8
0
  6
CONTINUOUS
 66
     1
 40
0.000000
 41
0.000000
  0
VERTEX
  8
0
  6
CONTINUOUS
 10
3.763320
 20
5.802720
  0
VERTEX
  8
0
  6
CONTINUOUS
 10
3.764200
 20
6.548960
  0
VERTEX
  8
0
  6
CONTINUOUS
 10
4.187040
 20
6.548960
  0
VERTEX
  8
0
  6
CONTINUOUS
 10
4.186160
 20
5.802720
  0
VERTEX
  8
0
  6
CONTINUOUS
 10
3.763320
 20
5.802720
  0
SEQEND
  8
0
  0
SOLID
  8
0
 62
    15
 10
4.186160
 20
5.802720
 11
4.187040
 21
6.548960
 12
4.206400
 22
5.866080
 13
4.207280
 23
6.612760
  0
POLYLINE
  8
0
  6
CONTINUOUS
 66
     1
 40
0.000000
 41
0.000000
  0
VERTEX
  8
0
  6
CONTINUOUS
 10
4.186160
 20
5.802720
  0
VERTEX
  8
0
  6
CONTINUOUS
 10
4.187040
 20
6.548960
  0
VERTEX
  8
0
  6
CONTINUOUS
 10
4.207280
 20
6.612760
  0
VERTEX
  8
0
  6
CONTINUOUS
 10
4.206400
 20
5.866080
  0
VERTEX
  8
0
  6
CONTINUOUS
 10
4.186160
 20
5.802720
  0
SEQEND
  8
0
  0
SOLID
  8
0
 62
    15
 10
4.206400
 20
5.866080
 11
4.207280
 21
6.612760
 12
4.288240
 22
5.867840
 13
4.289120
 23
6.614080
  0
POLYLINE
  8
0
  6
CONTINUOUS
 66
     1
 40
0.000000
 41
0.000000
  0
VERTEX
  8
0
  6
CONTINUOUS
 10
4.206400
 20
5.866080
  0
VERTEX
  8
0
  6
CONTINUOUS
 10
4.207280
 20
6.612760
  0
VERTEX
  8
0
  6
CONTINUOUS
 10
4.289120
 20
6.614080
  0
VERTEX
  8
0
  6
CONTINUOUS
 10
4.288240
 20
5.867840
  0
VERTEX
  8
0
  6
CONTINUOUS
 10
4.206400
 20
5.866080
  0
SEQEND
  8
0
  0
SOLID
  8
0
 62
    15
 10
4.288240
 20
5.867840
 11
4.289120
 21
6.614080
 12
4.357760
 22
5.875760
 13
4.358640
 23
6.622000
  0
POLYLINE
  8
0
  6
CONTINUOUS
 66
     1
 40
0.000000
 41
0.000000
  0
VERTEX
  8
0
  6
CONTINUOUS
 10
4.288240
 20
5.867840
  0
VERTEX
  8
0
  6
CONTINUOUS
 10
4.289120
 20
6.614080
  0
VERTEX
  8
0
  6
CONTINUOUS
 10
4.358640
 20
6.622000
  0
VERTEX
  8
0
  6
CONTINUOUS
 10
4.357760
 20
5.875760
  0
VERTEX
  8
0
  6
CONTINUOUS
 10
4.288240
 20
5.867840
  0
SEQEND
  8
0
  0
SOLID
  8
0
 62
    15
 10
4.357760
 20
5.875760
 11
4.358640
 21
6.622000
 12
4.387680
 22
5.882800
 13
4.388560
 23
6.629480
  0
POLYLINE
  8
0
  6
CONTINUOUS
 66
     1
 40
0.000000
 41
0.000000
  0
VERTEX
  8
0
  6
CONTINUOUS
 10
4.357760
 20
5.875760
  0
VERTEX
  8
0
  6
CONTINUOUS
 10
4.358640
 20
6.622000
  0
VERTEX
  8
0
  6
CONTINUOUS
 10
4.388560
 20
6.629480
  0
VERTEX
  8
0
  6
CONTINUOUS
 10
4.387680
 20
5.882800
  0
VERTEX
  8
0
  6
CONTINUOUS
 10
4.357760
 20
5.875760
  0
SEQEND
  8
0
  0
SOLID
  8
0
 62
    15
 10
4.387680
 20
5.882800
 11
4.388560
 21
6.629480
 12
4.414960
 22
5.892920
 13
4.415840
 23
6.639160
  0
POLYLINE
  8
0
  6
CONTINUOUS
 66
     1
 40
0.000000
 41
0.000000
  0
VERTEX
  8
0
  6
CONTINUOUS
 10
4.387680
 20
5.882800
  0
VERTEX
  8
0
  6
CONTINUOUS
 10
4.388560
 20
6.629480
  0
VERTEX
  8
0
  6
CONTINUOUS
 10
4.415840
 20
6.639160
  0
VERTEX
  8
0
  6
CONTINUOUS
 10
4.414960
 20
5.892920
  0
VERTEX
  8
0
  6
CONTINUOUS
 10
4.387680
 20
5.882800
  0
SEQEND
  8
0
  0
SOLID
  8
0
 62
    15
 10
4.414960
 20
5.892920
 11
4.415840
 21
6.639160
 12
4.438720
 22
5.906120
 13
4.439600
 23
6.652360
  0
POLYLINE
  8
0
  6
CONTINUOUS
 66
     1
 40
0.000000
 41
0.000000
  0
VERTEX
  8
0
  6
CONTINUOUS
 10
4.414960
 20
5.892920
  0
VERTEX
  8
0
  6
CONTINUOUS
 10
4.415840
 20
6.639160
  0
VERTEX
  8
0
  6
CONTINUOUS
 10
4.439600
 20
6.652360
  0
VERTEX
  8
0
  6
CONTINUOUS
 10
4.438720
 20
5.906120
  0
VERTEX
  8
0
  6
CONTINUOUS
 10
4.414960
 20
5.892920
  0
SEQEND
  8
0
  0
SOLID
  8
0
 62
    15
 10
4.438720
 20
5.906120
 11
4.439600
 21
6.652360
 12
4.459840
 22
5.922400
 13
4.460720
 23
6.668640
  0
POLYLINE
  8
0
  6
CONTINUOUS
 66
     1
 40
0.000000
 41
0.000000
  0
VERTEX
  8
0
  6
CONTINUOUS
 10
4.438720
 20
5.906120
  0
VERTEX
  8
0
  6
CONTINUOUS
 10
4.439600
 20
6.652360
  0
VERTEX
  8
0
  6
CONTINUOUS
 10
4.460720
 20
6.668640
  0
VERTEX
  8
0
  6
CONTINUOUS
 10
4.459840
 20
5.922400
  0
VERTEX
  8
0
  6
CONTINUOUS
 10
4.438720
 20
5.906120
  0
SEQEND
  8
0
  0
SOLID
  8
0
 62
    15
 10
4.459840
 20
5.922400
 11
4.460720
 21
6.668640
 12
4.476560
 22
5.939560
 13
4.477440
 23
6.685800
  0
POLYLINE
  8
0
  6
CONTINUOUS
 66
     1
 40
0.000000
 41
0.000000
  0
VERTEX
  8
0
  6
CONTINUOUS
 10
4.459840
 20
5.922400
  0
VERTEX
  8
0
  6
CONTINUOUS
 10
4.460720
 20
6.668640
  0
VERTEX
  8
0
  6
CONTINUOUS
 10
4.477440
 20
6.685800
  0
VERTEX
  8
0
  6
CONTINUOUS
 10
4.476560
 20
5.939560
  0
VERTEX
  8
0
  6
CONTINUOUS
 10
4.459840
 20
5.922400
  0
SEQEND
  8
0
  0
SOLID
  8
0
 62
    15
 10
4.476560
 20
5.939560
 11
4.477440
 21
6.685800
 12
4.493720
 22
5.953640
 13
4.494160
 23
6.699880
  0
POLYLINE
  8
0
  6
CONTINUOUS
 66
     1
 40
0.000000
 41
0.000000
  0
VERTEX
  8
0
  6
CONTINUOUS
 10
4.476560
 20
5.939560
  0
VERTEX
  8
0
  6
CONTINUOUS
 10
4.477440
 20
6.685800
  0
VERTEX
  8
0
  6
CONTINUOUS
 10
4.494160
 20
6.699880
  0
VERTEX
  8
0
  6
CONTINUOUS
 10
4.493720
 20
5.953640
  0
VERTEX
  8
0
  6
CONTINUOUS
 10
4.476560
 20
5.939560
  0
SEQEND
  8
0
  0
SOLID
  8
0
 62
    15
 10
4.493720
 20
5.953640
 11
4.494160
 21
6.699880
 12
4.516160
 22
5.962880
 13
4.517040
 23
6.709560
  0
POLYLINE
  8
0
  6
CONTINUOUS
 66
     1
 40
0.000000
 41
0.000000
  0
VERTEX
  8
0
  6
CONTINUOUS
 10
4.493720
 20
5.953640
  0
VERTEX
  8
0
  6
CONTINUOUS
 10
4.494160
 20
6.699880
  0
VERTEX
  8
0
  6
CONTINUOUS
 10
4.517040
 20
6.709560
  0
VERTEX
  8
0
  6
CONTINUOUS
 10
4.516160
 20
5.962880
  0
VERTEX
  8
0
  6
CONTINUOUS
 10
4.493720
 20
5.953640
  0
SEQEND
  8
0
  0
SOLID
  8
0
 62
    15
 10
4.516160
 20
5.962880
 11
4.517040
 21
6.709560
 12
4.531120
 22
5.965520
 13
4.532000
 23
6.712200
  0
POLYLINE
  8
0
  6
CONTINUOUS
 66
     1
 40
0.000000
 41
0.000000
  0
VERTEX
  8
0
  6
CONTINUOUS
 10
4.516160
 20
5.962880
  0
VERTEX
  8
0
  6
CONTINUOUS
 10
4.517040
 20
6.709560
  0
VERTEX
  8
0
  6
CONTINUOUS
 10
4.532000
 20
6.712200
  0
VERTEX
  8
0
  6
CONTINUOUS
 10
4.531120
 20
5.965520
  0
VERTEX
  8
0
  6
CONTINUOUS
 10
4.516160
 20
5.962880
  0
SEQEND
  8
0
  0
SOLID
  8
0
 62
    15
 10
4.531120
 20
5.965520
 11
4.532000
 21
6.712200
 12
4.550040
 22
5.966400
 13
4.550920
 23
6.713080
  0
POLYLINE
  8
0
  6
CONTINUOUS
 66
     1
 40
0.000000
 41
0.000000
  0
VERTEX
  8
0
  6
CONTINUOUS
 10
4.531120
 20
5.965520
  0
VERTEX
  8
0
  6
CONTINUOUS
 10
4.532000
 20
6.712200
  0
VERTEX
  8
0
  6
CONTINUOUS
 10
4.550920
 20
6.713080
  0
VERTEX
  8
0
  6
CONTINUOUS
 10
4.550040
 20
5.966400
  0
VERTEX
  8
0
  6
CONTINUOUS
 10
4.531120
 20
5.965520
  0
SEQEND
  8
0
  0
SOLID
  8
0
 62
    15
 10
2.029280
 20
6.075520
 11
2.030160
 21
6.821760
 12
3.059760
 22
6.075520
 13
3.060640
 23
6.821760
  0
POLYLINE
  8
0
  6
CONTINUOUS
 66
     1
 40
0.000000
 41
0.000000
  0
VERTEX
  8
0
  6
CONTINUOUS
 10
2.029280
 20
6.075520
  0
VERTEX
  8
0
  6
CONTINUOUS
 10
2.030160
 20
6.821760
  0
VERTEX
  8
0
  6
CONTINUOUS
 10
3.060640
 20
6.821760
  0
VERTEX
  8
0
  6
CONTINUOUS
 10
3.059760
 20
6.075520
  0
VERTEX
  8
0
  6
CONTINUOUS
 10
2.029280
 20
6.075520
  0
SEQEND
  8
0
  0
SOLID
  8
0
 62
    15
 10
5.190240
 20
5.966400
 11
5.191120
 21
6.713080
 12
5.207840
 22
5.964200
 13
5.208720
 23
6.710440
  0
POLYLINE
  8
0
  6
CONTINUOUS
 66
     1
 40
0.000000
 41
0.000000
  0
VERTEX
  8
0
  6
CONTINUOUS
 10
5.190240
 20
5.966400
  0
VERTEX
  8
0
  6
CONTINUOUS
 10
5.191120
 20
6.713080
  0
VERTEX
  8
0
  6
CONTINUOUS
 10
5.208720
 20
6.710440
  0
VERTEX
  8
0
  6
CONTINUOUS
 10
5.207840
 20
5.964200
  0
VERTEX
  8
0
  6
CONTINUOUS
 10
5.190240
 20
5.966400
  0
SEQEND
  8
0
  0
SOLID
  8
0
 62
    15
 10
5.207840
 20
5.964200
 11
5.208720
 21
6.710440
 12
5.227200
 22
5.957160
 13
5.228080
 23
6.703400
  0
POLYLINE
  8
0
  6
CONTINUOUS
 66
     1
 40
0.000000
 41
0.000000
  0
VERTEX
  8
0
  6
CONTINUOUS
 10
5.207840
 20
5.964200
  0
VERTEX
  8
0
  6
CONTINUOUS
 10
5.208720
 20
6.710440
  0
VERTEX
  8
0
  6
CONTINUOUS
 10
5.228080
 20
6.703400
  0
VERTEX
  8
0
  6
CONTINUOUS
 10
5.227200
 20
5.957160
  0
VERTEX
  8
0
  6
CONTINUOUS
 10
5.207840
 20
5.964200
  0
SEQEND
  8
0
  0
SOLID
  8
0
 62
    15
 10
5.227200
 20
5.957160
 11
5.228080
 21
6.703400
 12
5.246120
 22
5.945720
 13
5.247000
 23
6.691960
  0
POLYLINE
  8
0
  6
CONTINUOUS
 66
     1
 40
0.000000
 41
0.000000
  0
VERTEX
  8
0
  6
CONTINUOUS
 10
5.227200
 20
5.957160
  0
VERTEX
  8
0
  6
CONTINUOUS
 10
5.228080
 20
6.703400
  0
VERTEX
  8
0
  6
CONTINUOUS
 10
5.247000
 20
6.691960
  0
VERTEX
  8
0
  6
CONTINUOUS
 10
5.246120
 20
5.945720
  0
VERTEX
  8
0
  6
CONTINUOUS
 10
5.227200
 20
5.957160
  0
SEQEND
  8
0
  0
SOLID
  8
0
 62
    15
 10
5.246120
 20
5.945720
 11
5.247000
 21
6.691960
 12
5.264160
 22
5.930320
 13
5.265040
 23
6.677000
  0
POLYLINE
  8
0
  6
CONTINUOUS
 66
     1
 40
0.000000
 41
0.000000
  0
VERTEX
  8
0
  6
CONTINUOUS
 10
5.246120
 20
5.945720
  0
VERTEX
  8
0
  6
CONTINUOUS
 10
5.247000
 20
6.691960
  0
VERTEX
  8
0
  6
CONTINUOUS
 10
5.265040
 20
6.677000
  0
VERTEX
  8
0
  6
CONTINUOUS
 10
5.264160
 20
5.930320
  0
VERTEX
  8
0
  6
CONTINUOUS
 10
5.246120
 20
5.945720
  0
SEQEND
  8
0
  0
SOLID
  8
0
 62
    15
 10
5.264160
 20
5.930320
 11
5.265040
 21
6.677000
 12
5.280440
 22
5.911400
 13
5.281320
 23
6.658080
  0
POLYLINE
  8
0
  6
CONTINUOUS
 66
     1
 40
0.000000
 41
0.000000
  0
VERTEX
  8
0
  6
CONTINUOUS
 10
5.264160
 20
5.930320
  0
VERTEX
  8
0
  6
CONTINUOUS
 10
5.265040
 20
6.677000
  0
VERTEX
  8
0
  6
CONTINUOUS
 10
5.281320
 20
6.658080
  0
VERTEX
  8
0
  6
CONTINUOUS
 10
5.280440
 20
5.911400
  0
VERTEX
  8
0
  6
CONTINUOUS
 10
5.264160
 20
5.930320
  0
SEQEND
  8
0
  0
SOLID
  8
0
 62
    15
 10
5.280440
 20
5.911400
 11
5.281320
 21
6.658080
 12
5.293200
 22
5.889400
 13
5.294080
 23
6.635640
  0
POLYLINE
  8
0
  6
CONTINUOUS
 66
     1
 40
0.000000
 41
0.000000
  0
VERTEX
  8
0
  6
CONTINUOUS
 10
5.280440
 20
5.911400
  0
VERTEX
  8
0
  6
CONTINUOUS
 10
5.281320
 20
6.658080
  0
VERTEX
  8
0
  6
CONTINUOUS
 10
5.294080
 20
6.635640
  0
VERTEX
  8
0
  6
CONTINUOUS
 10
5.293200
 20
5.889400
  0
VERTEX
  8
0
  6
CONTINUOUS
 10
5.280440
 20
5.911400
  0
SEQEND
  8
0
  0
SOLID
  8
0
 62
    15
 10
5.624520
 20
5.837040
 11
5.625400
 21
6.583280
 12
5.633760
 22
5.798320
 13
5.634640
 23
6.544560
  0
POLYLINE
  8
0
  6
CONTINUOUS
 66
     1
 40
0.000000
 41
0.000000
  0
VERTEX
  8
0
  6
CONTINUOUS
 10
5.624520
 20
5.837040
  0
VERTEX
  8
0
  6
CONTINUOUS
 10
5.625400
 20
6.583280
  0
VERTEX
  8
0
  6
CONTINUOUS
 10
5.634640
 20
6.544560
  0
VERTEX
  8
0
  6
CONTINUOUS
 10
5.633760
 20
5.798320
  0
VERTEX
  8
0
  6
CONTINUOUS
 10
5.624520
 20
5.837040
  0
SEQEND
  8
0
  0
SOLID
  8
0
 62
    15
 10
5.304640
 20
5.836600
 11
5.305520
 21
6.582840
 12
5.624520
 22
5.837040
 13
5.625400
 23
6.583280
  0
POLYLINE
  8
0
  6
CONTINUOUS
 66
     1
 40
0.000000
 41
0.000000
  0
VERTEX
  8
0
  6
CONTINUOUS
 10
5.304640
 20
5.836600
  0
VERTEX
  8
0
  6
CONTINUOUS
 10
5.305520
 20
6.582840
  0
VERTEX
  8
0
  6
CONTINUOUS
 10
5.625400
 20
6.583280
  0
VERTEX
  8
0
  6
CONTINUOUS
 10
5.624520
 20
5.837040
  0
VERTEX
  8
0
  6
CONTINUOUS
 10
5.304640
 20
5.836600
  0
SEQEND
  8
0
  0
SOLID
  8
0
 62
    15
 10
5.301560
 20
5.864320
 11
5.302440
 21
6.610560
 12
5.304640
 22
5.836600
 13
5.305520
 23
6.582840
  0
POLYLINE
  8
0
  6
CONTINUOUS
 66
     1
 40
0.000000
 41
0.000000
  0
VERTEX
  8
0
  6
CONTINUOUS
 10
5.301560
 20
5.864320
  0
VERTEX
  8
0
  6
CONTINUOUS
 10
5.302440
 20
6.610560
  0
VERTEX
  8
0
  6
CONTINUOUS
 10
5.305520
 20
6.582840
  0
VERTEX
  8
0
  6
CONTINUOUS
 10
5.304640
 20
5.836600
  0
VERTEX
  8
0
  6
CONTINUOUS
 10
5.301560
 20
5.864320
  0
SEQEND
  8
0
  0
SOLID
  8
0
 62
    15
 10
5.293200
 20
5.889400
 11
5.294080
 21
6.635640
 12
5.301560
 22
5.864320
 13
5.302440
 23
6.610560
  0
POLYLINE
  8
0
  6
CONTINUOUS
 66
     1
 40
0.000000
 41
0.000000
  0
VERTEX
  8
0
  6
CONTINUOUS
 10
5.293200
 20
5.889400
  0
VERTEX
  8
0
  6
CONTINUOUS
 10
5.294080
 20
6.635640
  0
VERTEX
  8
0
  6
CONTINUOUS
 10
5.302440
 20
6.610560
  0
VERTEX
  8
0
  6
CONTINUOUS
 10
5.301560
 20
5.864320
  0
VERTEX
  8
0
  6
CONTINUOUS
 10
5.293200
 20
5.889400
  0
SEQEND
  8
0
  0
SOLID
  8
0
 62
    15
 10
5.642120
 20
5.764440
 11
5.643000
 21
6.511120
 12
5.651360
 22
5.734960
 13
5.652240
 23
6.481640
  0
POLYLINE
  8
0
  6
CONTINUOUS
 66
     1
 40
0.000000
 41
0.000000
  0
VERTEX
  8
0
  6
CONTINUOUS
 10
5.642120
 20
5.764440
  0
VERTEX
  8
0
  6
CONTINUOUS
 10
5.643000
 20
6.511120
  0
VERTEX
  8
0
  6
CONTINUOUS
 10
5.652240
 20
6.481640
  0
VERTEX
  8
0
  6
CONTINUOUS
 10
5.651360
 20
5.734960
  0
VERTEX
  8
0
  6
CONTINUOUS
 10
5.642120
 20
5.764440
  0
SEQEND
  8
0
  0
SOLID
  8
0
 62
    15
 10
5.633760
 20
5.798320
 11
5.634640
 21
6.544560
 12
5.642120
 22
5.764440
 13
5.643000
 23
6.511120
  0
POLYLINE
  8
0
  6
CONTINUOUS
 66
     1
 40
0.000000
 41
0.000000
  0
VERTEX
  8
0
  6
CONTINUOUS
 10
5.633760
 20
5.798320
  0
VERTEX
  8
0
  6
CONTINUOUS
 10
5.634640
 20
6.544560
  0
VERTEX
  8
0
  6
CONTINUOUS
 10
5.643000
 20
6.511120
  0
VERTEX
  8
0
  6
CONTINUOUS
 10
5.642120
 20
5.764440
  0
VERTEX
  8
0
  6
CONTINUOUS
 10
5.633760
 20
5.798320
  0
SEQEND
  8
0
  0
SOLID
  8
0
 62
    15
 10
5.651360
 20
5.734960
 11
5.652240
 21
6.481640
 12
5.662360
 22
5.709000
 13
5.662800
 23
6.455680
  0
POLYLINE
  8
0
  6
CONTINUOUS
 66
     1
 40
0.000000
 41
0.000000
  0
VERTEX
  8
0
  6
CONTINUOUS
 10
5.651360
 20
5.734960
  0
VERTEX
  8
0
  6
CONTINUOUS
 10
5.652240
 20
6.481640
  0
VERTEX
  8
0
  6
CONTINUOUS
 10
5.662800
 20
6.455680
  0
VERTEX
  8
0
  6
CONTINUOUS
 10
5.662360
 20
5.709000
  0
VERTEX
  8
0
  6
CONTINUOUS
 10
5.651360
 20
5.734960
  0
SEQEND
  8
0
  0
SOLID
  8
0
 62
    15
 10
5.662360
 20
5.709000
 11
5.662800
 21
6.455680
 12
5.675560
 22
5.686120
 13
5.676440
 23
6.432360
  0
POLYLINE
  8
0
  6
CONTINUOUS
 66
     1
 40
0.000000
 41
0.000000
  0
VERTEX
  8
0
  6
CONTINUOUS
 10
5.662360
 20
5.709000
  0
VERTEX
  8
0
  6
CONTINUOUS
 10
5.662800
 20
6.455680
  0
VERTEX
  8
0
  6
CONTINUOUS
 10
5.676440
 20
6.432360
  0
VERTEX
  8
0
  6
CONTINUOUS
 10
5.675560
 20
5.686120
  0
VERTEX
  8
0
  6
CONTINUOUS
 10
5.662360
 20
5.709000
  0
SEQEND
  8
0
  0
SOLID
  8
0
 62
    15
 10
5.675560
 20
5.686120
 11
5.676440
 21
6.432360
 12
5.692720
 22
5.665000
 13
5.693600
 23
6.411240
  0
POLYLINE
  8
0
  6
CONTINUOUS
 66
     1
 40
0.000000
 41
0.000000
  0
VERTEX
  8
0
  6
CONTINUOUS
 10
5.675560
 20
5.686120
  0
VERTEX
  8
0
  6
CONTINUOUS
 10
5.676440
 20
6.432360
  0
VERTEX
  8
0
  6
CONTINUOUS
 10
5.693600
 20
6.411240
  0
VERTEX
  8
0
  6
CONTINUOUS
 10
5.692720
 20
5.665000
  0
VERTEX
  8
0
  6
CONTINUOUS
 10
5.675560
 20
5.686120
  0
SEQEND
  8
0
  0
SOLID
  8
0
 62
    15
 10
5.692720
 20
5.665000
 11
5.693600
 21
6.411240
 12
5.715160
 22
5.644760
 13
5.716040
 23
6.391000
  0
POLYLINE
  8
0
  6
CONTINUOUS
 66
     1
 40
0.000000
 41
0.000000
  0
VERTEX
  8
0
  6
CONTINUOUS
 10
5.692720
 20
5.665000
  0
VERTEX
  8
0
  6
CONTINUOUS
 10
5.693600
 20
6.411240
  0
VERTEX
  8
0
  6
CONTINUOUS
 10
5.716040
 20
6.391000
  0
VERTEX
  8
0
  6
CONTINUOUS
 10
5.715160
 20
5.644760
  0
VERTEX
  8
0
  6
CONTINUOUS
 10
5.692720
 20
5.665000
  0
SEQEND
  8
0
  0
SOLID
  8
0
 62
    15
 10
5.715160
 20
5.644760
 11
5.716040
 21
6.391000
 12
5.743320
 22
5.624520
 13
5.743760
 23
6.371200
  0
POLYLINE
  8
0
  6
CONTINUOUS
 66
     1
 40
0.000000
 41
0.000000
  0
VERTEX
  8
0
  6
CONTINUOUS
 10
5.715160
 20
5.644760
  0
VERTEX
  8
0
  6
CONTINUOUS
 10
5.716040
 20
6.391000
  0
VERTEX
  8
0
  6
CONTINUOUS
 10
5.743760
 20
6.371200
  0
VERTEX
  8
0
  6
CONTINUOUS
 10
5.743320
 20
5.624520
  0
VERTEX
  8
0
  6
CONTINUOUS
 10
5.715160
 20
5.644760
  0
SEQEND
  8
0
  0
SOLID
  8
0
 62
    15
 10
5.743320
 20
5.624520
 11
5.743760
 21
6.371200
 12
5.762680
 22
5.615280
 13
5.763560
 23
6.361520
  0
POLYLINE
  8
0
  6
CONTINUOUS
 66
     1
 40
0.000000
 41
0.000000
  0
VERTEX
  8
0
  6
CONTINUOUS
 10
5.743320
 20
5.624520
  0
VERTEX
  8
0
  6
CONTINUOUS
 10
5.743760
 20
6.371200
  0
VERTEX
  8
0
  6
CONTINUOUS
 10
5.763560
 20
6.361520
  0
VERTEX
  8
0
  6
CONTINUOUS
 10
5.762680
 20
5.615280
  0
VERTEX
  8
0
  6
CONTINUOUS
 10
5.743320
 20
5.624520
  0
SEQEND
  8
0
  0
SOLID
  8
0
 62
    15
 10
5.762680
 20
5.615280
 11
5.763560
 21
6.361520
 12
5.789080
 22
5.606480
 13
5.789960
 23
6.352720
  0
POLYLINE
  8
0
  6
CONTINUOUS
 66
     1
 40
0.000000
 41
0.000000
  0
VERTEX
  8
0
  6
CONTINUOUS
 10
5.762680
 20
5.615280
  0
VERTEX
  8
0
  6
CONTINUOUS
 10
5.763560
 20
6.361520
  0
VERTEX
  8
0
  6
CONTINUOUS
 10
5.789960
 20
6.352720
  0
VERTEX
  8
0
  6
CONTINUOUS
 10
5.789080
 20
5.606480
  0
VERTEX
  8
0
  6
CONTINUOUS
 10
5.762680
 20
5.615280
  0
SEQEND
  8
0
  0
SOLID
  8
0
 62
    15
 10
5.789080
 20
5.606480
 11
5.789960
 21
6.352720
 12
5.821640
 22
5.597680
 13
5.822080
 23
6.344360
  0
POLYLINE
  8
0
  6
CONTINUOUS
 66
     1
 40
0.000000
 41
0.000000
  0
VERTEX
  8
0
  6
CONTINUOUS
 10
5.789080
 20
5.606480
  0
VERTEX
  8
0
  6
CONTINUOUS
 10
5.789960
 20
6.352720
  0
VERTEX
  8
0
  6
CONTINUOUS
 10
5.822080
 20
6.344360
  0
VERTEX
  8
0
  6
CONTINUOUS
 10
5.821640
 20
5.597680
  0
VERTEX
  8
0
  6
CONTINUOUS
 10
5.789080
 20
5.606480
  0
SEQEND
  8
0
  0
SOLID
  8
0
 62
    15
 10
5.821640
 20
5.597680
 11
5.822080
 21
6.344360
 12
5.858600
 22
5.588880
 13
5.859040
 23
6.335120
  0
POLYLINE
  8
0
  6
CONTINUOUS
 66
     1
 40
0.000000
 41
0.000000
  0
VERTEX
  8
0
  6
CONTINUOUS
 10
5.821640
 20
5.597680
  0
VERTEX
  8
0
  6
CONTINUOUS
 10
5.822080
 20
6.344360
  0
VERTEX
  8
0
  6
CONTINUOUS
 10
5.859040
 20
6.335120
  0
VERTEX
  8
0
  6
CONTINUOUS
 10
5.858600
 20
5.588880
  0
VERTEX
  8
0
  6
CONTINUOUS
 10
5.821640
 20
5.597680
  0
SEQEND
  8
0
  0
SOLID
  8
0
 62
    15
 10
5.858600
 20
5.588880
 11
5.859040
 21
6.335120
 12
5.941760
 22
5.568200
 13
5.942640
 23
6.314440
  0
POLYLINE
  8
0
  6
CONTINUOUS
 66
     1
 40
0.000000
 41
0.000000
  0
VERTEX
  8
0
  6
CONTINUOUS
 10
5.858600
 20
5.588880
  0
VERTEX
  8
0
  6
CONTINUOUS
 10
5.859040
 20
6.335120
  0
VERTEX
  8
0
  6
CONTINUOUS
 10
5.942640
 20
6.314440
  0
VERTEX
  8
0
  6
CONTINUOUS
 10
5.941760
 20
5.568200
  0
VERTEX
  8
0
  6
CONTINUOUS
 10
5.858600
 20
5.588880
  0
SEQEND
  8
0
  0
SOLID
  8
0
 62
    15
 10
5.941760
 20
5.568200
 11
5.942640
 21
6.314440
 12
6.030640
 22
5.539600
 13
6.031080
 23
6.285840
  0
POLYLINE
  8
0
  6
CONTINUOUS
 66
     1
 40
0.000000
 41
0.000000
  0
VERTEX
  8
0
  6
CONTINUOUS
 10
5.941760
 20
5.568200
  0
VERTEX
  8
0
  6
CONTINUOUS
 10
5.942640
 20
6.314440
  0
VERTEX
  8
0
  6
CONTINUOUS
 10
6.031080
 20
6.285840
  0
VERTEX
  8
0
  6
CONTINUOUS
 10
6.030640
 20
5.539600
  0
VERTEX
  8
0
  6
CONTINUOUS
 10
5.941760
 20
5.568200
  0
SEQEND
  8
0
  0
SOLID
  8
0
 62
    15
 10
6.030640
 20
5.539600
 11
6.031080
 21
6.285840
 12
6.073760
 22
5.521560
 13
6.074640
 23
6.267800
  0
POLYLINE
  8
0
  6
CONTINUOUS
 66
     1
 40
0.000000
 41
0.000000
  0
VERTEX
  8
0
  6
CONTINUOUS
 10
6.030640
 20
5.539600
  0
VERTEX
  8
0
  6
CONTINUOUS
 10
6.031080
 20
6.285840
  0
VERTEX
  8
0
  6
CONTINUOUS
 10
6.074640
 20
6.267800
  0
VERTEX
  8
0
  6
CONTINUOUS
 10
6.073760
 20
5.521560
  0
VERTEX
  8
0
  6
CONTINUOUS
 10
6.030640
 20
5.539600
  0
SEQEND
  8
0
  0
SOLID
  8
0
 62
    15
 10
6.073760
 20
5.521560
 11
6.074640
 21
6.267800
 12
6.115120
 22
5.499560
 13
6.116000
 23
6.246240
  0
POLYLINE
  8
0
  6
CONTINUOUS
 66
     1
 40
0.000000
 41
0.000000
  0
VERTEX
  8
0
  6
CONTINUOUS
 10
6.073760
 20
5.521560
  0
VERTEX
  8
0
  6
CONTINUOUS
 10
6.074640
 20
6.267800
  0
VERTEX
  8
0
  6
CONTINUOUS
 10
6.116000
 20
6.246240
  0
VERTEX
  8
0
  6
CONTINUOUS
 10
6.115120
 20
5.499560
  0
VERTEX
  8
0
  6
CONTINUOUS
 10
6.073760
 20
5.521560
  0
SEQEND
  8
0
  0
SOLID
  8
0
 62
    15
 10
6.115120
 20
5.499560
 11
6.116000
 21
6.246240
 12
6.153400
 22
5.474040
 13
6.153840
 23
6.220720
  0
POLYLINE
  8
0
  6
CONTINUOUS
 66
     1
 40
0.000000
 41
0.000000
  0
VERTEX
  8
0
  6
CONTINUOUS
 10
6.115120
 20
5.499560
  0
VERTEX
  8
0
  6
CONTINUOUS
 10
6.116000
 20
6.246240
  0
VERTEX
  8
0
  6
CONTINUOUS
 10
6.153840
 20
6.220720
  0
VERTEX
  8
0
  6
CONTINUOUS
 10
6.153400
 20
5.474040
  0
VERTEX
  8
0
  6
CONTINUOUS
 10
6.115120
 20
5.499560
  0
SEQEND
  8
0
  0
SOLID
  8
0
 62
    15
 10
6.153400
 20
5.474040
 11
6.153840
 21
6.220720
 12
6.186840
 22
5.444120
 13
6.187720
 23
6.190360
  0
POLYLINE
  8
0
  6
CONTINUOUS
 66
     1
 40
0.000000
 41
0.000000
  0
VERTEX
  8
0
  6
CONTINUOUS
 10
6.153400
 20
5.474040
  0
VERTEX
  8
0
  6
CONTINUOUS
 10
6.153840
 20
6.220720
  0
VERTEX
  8
0
  6
CONTINUOUS
 10
6.187720
 20
6.190360
  0
VERTEX
  8
0
  6
CONTINUOUS
 10
6.186840
 20
5.444120
  0
VERTEX
  8
0
  6
CONTINUOUS
 10
6.153400
 20
5.474040
  0
SEQEND
  8
0
  0
SOLID
  8
0
 62
    15
 10
6.186840
 20
5.444120
 11
6.187720
 21
6.190360
 12
6.215000
 22
5.409360
 13
6.215880
 23
6.155600
  0
POLYLINE
  8
0
  6
CONTINUOUS
 66
     1
 40
0.000000
 41
0.000000
  0
VERTEX
  8
0
  6
CONTINUOUS
 10
6.186840
 20
5.444120
  0
VERTEX
  8
0
  6
CONTINUOUS
 10
6.187720
 20
6.190360
  0
VERTEX
  8
0
  6
CONTINUOUS
 10
6.215880
 20
6.155600
  0
VERTEX
  8
0
  6
CONTINUOUS
 10
6.215000
 20
5.409360
  0
VERTEX
  8
0
  6
CONTINUOUS
 10
6.186840
 20
5.444120
  0
SEQEND
  8
0
  0
SOLID
  8
0
 62
    15
 10
6.236560
 20
5.368880
 11
6.237440
 21
6.115120
 12
6.250640
 22
5.322240
 13
6.251080
 23
6.068480
  0
POLYLINE
  8
0
  6
CONTINUOUS
 66
     1
 40
0.000000
 41
0.000000
  0
VERTEX
  8
0
  6
CONTINUOUS
 10
6.236560
 20
5.368880
  0
VERTEX
  8
0
  6
CONTINUOUS
 10
6.237440
 20
6.115120
  0
VERTEX
  8
0
  6
CONTINUOUS
 10
6.251080
 20
6.068480
  0
VERTEX
  8
0
  6
CONTINUOUS
 10
6.250640
 20
5.322240
  0
VERTEX
  8
0
  6
CONTINUOUS
 10
6.236560
 20
5.368880
  0
SEQEND
  8
0
  0
SOLID
  8
0
 62
    15
 10
6.215000
 20
5.409360
 11
6.215880
 21
6.155600
 12
6.236560
 22
5.368880
 13
6.237440
 23
6.115120
  0
POLYLINE
  8
0
  6
CONTINUOUS
 66
     1
 40
0.000000
 41
0.000000
  0
VERTEX
  8
0
  6
CONTINUOUS
 10
6.215000
 20
5.409360
  0
VERTEX
  8
0
  6
CONTINUOUS
 10
6.215880
 20
6.155600
  0
VERTEX
  8
0
  6
CONTINUOUS
 10
6.237440
 20
6.115120
  0
VERTEX
  8
0
  6
CONTINUOUS
 10
6.236560
 20
5.368880
  0
VERTEX
  8
0
  6
CONTINUOUS
 10
6.215000
 20
5.409360
  0
SEQEND
  8
0
  0
SOLID
  8
0
 62
    15
 10
6.250640
 20
5.322240
 11
6.251080
 21
6.068480
 12
6.255480
 22
5.269440
 13
6.256360
 23
6.015680
  0
POLYLINE
  8
0
  6
CONTINUOUS
 66
     1
 40
0.000000
 41
0.000000
  0
VERTEX
  8
0
  6
CONTINUOUS
 10
6.250640
 20
5.322240
  0
VERTEX
  8
0
  6
CONTINUOUS
 10
6.251080
 20
6.068480
  0
VERTEX
  8
0
  6
CONTINUOUS
 10
6.256360
 20
6.015680
  0
VERTEX
  8
0
  6
CONTINUOUS
 10
6.255480
 20
5.269440
  0
VERTEX
  8
0
  6
CONTINUOUS
 10
6.250640
 20
5.322240
  0
SEQEND
  8
0
  0
POLYLINE
  8
0
  6
CONTINUOUS
 66
     1
 40
0.000000
 41
0.000000
  0
VERTEX
  8
0
  6
CONTINUOUS
 10
2.029280
 20
5.269440
  0
VERTEX
  8
0
  6
CONTINUOUS
 10
2.029280
 20
6.075520
  0
VERTEX
  8
0
  6
CONTINUOUS
 10
3.059760
 20
6.075520
  0
VERTEX
  8
0
  6
CONTINUOUS
 10
3.076040
 20
6.046480
  0
VERTEX
  8
0
  6
CONTINUOUS
 10
3.092760
 20
6.021400
  0
VERTEX
  8
0
  6
CONTINUOUS
 10
3.110360
 20
6.000280
  0
VERTEX
  8
0
  6
CONTINUOUS
 10
3.128840
 20
5.983560
  0
VERTEX
  8
0
  6
CONTINUOUS
 10
3.149080
 20
5.970360
  0
VERTEX
  8
0
  6
CONTINUOUS
 10
3.171080
 20
5.960680
  0
VERTEX
  8
0
  6
CONTINUOUS
 10
3.195720
 20
5.954960
  0
VERTEX
  8
0
  6
CONTINUOUS
 10
3.223440
 20
5.952760
  0
VERTEX
  8
0
  6
CONTINUOUS
 10
3.434640
 20
5.952760
  0
VERTEX
  8
0
  6
CONTINUOUS
 10
3.465000
 20
5.951440
  0
VERTEX
  8
0
  6
CONTINUOUS
 10
3.491400
 20
5.946600
  0
VERTEX
  8
0
  6
CONTINUOUS
 10
3.513840
 20
5.939120
  0
VERTEX
  8
0
  6
CONTINUOUS
 10
3.533640
 20
5.928560
  0
VERTEX
  8
0
  6
CONTINUOUS
 10
3.549480
 20
5.915360
  0
VERTEX
  8
0
  6
CONTINUOUS
 10
3.562680
 20
5.899520
  0
VERTEX
  8
0
  6
CONTINUOUS
 10
3.579840
 20
5.861240
  0
VERTEX
  8
0
  6
CONTINUOUS
 10
3.753200
 20
5.861240
  0
VERTEX
  8
0
  6
CONTINUOUS
 10
3.763320
 20
5.802720
  0
VERTEX
  8
0
  6
CONTINUOUS
 10
4.186160
 20
5.802720
  0
VERTEX
  8
0
  6
CONTINUOUS
 10
4.206400
 20
5.866080
  0
VERTEX
  8
0
  6
CONTINUOUS
 10
4.288240
 20
5.867840
  0
VERTEX
  8
0
  6
CONTINUOUS
 10
4.357760
 20
5.875760
  0
VERTEX
  8
0
  6
CONTINUOUS
 10
4.387680
 20
5.882800
  0
VERTEX
  8
0
  6
CONTINUOUS
 10
4.414960
 20
5.892920
  0
VERTEX
  8
0
  6
CONTINUOUS
 10
4.438720
 20
5.906120
  0
VERTEX
  8
0
  6
CONTINUOUS
 10
4.459840
 20
5.922400
  0
VERTEX
  8
0
  6
CONTINUOUS
 10
4.476560
 20
5.939560
  0
VERTEX
  8
0
  6
CONTINUOUS
 10
4.493720
 20
5.953640
  0
VERTEX
  8
0
  6
CONTINUOUS
 10
4.516160
 20
5.962880
  0
VERTEX
  8
0
  6
CONTINUOUS
 10
4.531120
 20
5.965520
  0
VERTEX
  8
0
  6
CONTINUOUS
 10
4.550040
 20
5.966400
  0
VERTEX
  8
0
  6
CONTINUOUS
 10
5.190240
 20
5.966400
  0
VERTEX
  8
0
  6
CONTINUOUS
 10
5.207840
 20
5.964200
  0
VERTEX
  8
0
  6
CONTINUOUS
 10
5.227200
 20
5.957160
  0
VERTEX
  8
0
  6
CONTINUOUS
 10
5.246120
 20
5.945720
  0
VERTEX
  8
0
  6
CONTINUOUS
 10
5.264160
 20
5.930320
  0
VERTEX
  8
0
  6
CONTINUOUS
 10
5.280440
 20
5.911400
  0
VERTEX
  8
0
  6
CONTINUOUS
 10
5.293200
 20
5.889400
  0
VERTEX
  8
0
  6
CONTINUOUS
 10
5.301560
 20
5.864320
  0
VERTEX
  8
0
  6
CONTINUOUS
 10
5.304640
 20
5.836600
  0
VERTEX
  8
0
  6
CONTINUOUS
 10
5.624520
 20
5.837040
  0
VERTEX
  8
0
  6
CONTINUOUS
 10
5.642120
 20
5.764440
  0
VERTEX
  8
0
  6
CONTINUOUS
 10
5.651360
 20
5.734960
  0
VERTEX
  8
0
  6
CONTINUOUS
 10
5.662360
 20
5.709000
  0
VERTEX
  8
0
  6
CONTINUOUS
 10
5.675560
 20
5.686120
  0
VERTEX
  8
0
  6
CONTINUOUS
 10
5.692720
 20
5.665000
  0
VERTEX
  8
0
  6
CONTINUOUS
 10
5.715160
 20
5.644760
  0
VERTEX
  8
0
  6
CONTINUOUS
 10
5.743320
 20
5.624520
  0
VERTEX
  8
0
  6
CONTINUOUS
 10
5.762680
 20
5.615280
  0
VERTEX
  8
0
  6
CONTINUOUS
 10
5.789080
 20
5.606480
  0
VERTEX
  8
0
  6
CONTINUOUS
 10
5.941760
 20
5.568200
  0
VERTEX
  8
0
  6
CONTINUOUS
 10
6.030640
 20
5.539600
  0
VERTEX
  8
0
  6
CONTINUOUS
 10
6.073760
 20
5.521560
  0
VERTEX
  8
0
  6
CONTINUOUS
 10
6.115120
 20
5.499560
  0
VERTEX
  8
0
  6
CONTINUOUS
 10
6.153400
 20
5.474040
  0
VERTEX
  8
0
  6
CONTINUOUS
 10
6.186840
 20
5.444120
  0
VERTEX
  8
0
  6
CONTINUOUS
 10
6.215000
 20
5.409360
  0
VERTEX
  8
0
  6
CONTINUOUS
 10
6.236560
 20
5.368880
  0
VERTEX
  8
0
  6
CONTINUOUS
 10
6.250640
 20
5.322240
  0
VERTEX
  8
0
  6
CONTINUOUS
 10
6.255480
 20
5.269440
  0
VERTEX
  8
0
  6
CONTINUOUS
 10
2.029280
 20
5.269440
  0
SEQEND
  8
0
  0
TEXT
  8
0
 10
3.802040
 20
5.018640
 40
0.138236
  1
BA  1262
 41
1.000000
  7
SN0
 71
     0
 72
     5
 11
4.484579
 21
5.018640
  0
TEXT
  8
0
 10
3.600080
 20
4.827240
 40
0.138236
  1
13/16" x 4-1/4"
 41
1.000000
  7
SN0
 71
     0
 72
     5
 11
4.686282
 21
4.827240
  0
TEXT
  8
0
 10
3.585560
 20
7.964880
 40
0.138236
  1
BA  1262
 41
1.000000
  7
SN0
 71
     0
 72
     5
 11
4.268099
 21
7.964880
  0
TEXT
  8
0
 10
3.383600
 20
7.773480
 40
0.138236
  1
13/16" x 4-1/4"
 41
1.000000
  7
SN0
 71
     0
 72
     5
 11
4.469802
 21
7.773480
  0
ENDSEC
  0
EOF
