  0
SECTION
  2
HEADER
  9
$ACADVER
  1
AC1006
  9
$EXTMIN
 10
2.928640
 20
1.874840
  9
$EXTMAX
 10
5.937800
 20
9.329760
  9
$LTSCALE
 40
0.044000
  9
$PDMODE
 70
    35
  9
$PDSIZE
 40
0.035200
  0
ENDSEC
  0
SECTION
  2
TABLES
  0
TABLE
  2
LTYPE
 70
     9
  0
LTYPE
  2
CONTINUOUS
 70
    64
  3
Solid line
 72
    65
 73
     0
 40
0.000000
  0
LTYPE
  2
DASHED
 70
    64
  3
__ __ __ __ __ __ __ __ __ __ __ __ __ __ __
 72
    65
 73
     2
 40
0.000330
 49
0.000220
 49
-0.000110
  0
LTYPE
  2
HIDDEN
 70
    64
  3
 _ _ _ _ _ _ _ _ _ _ _ _ _ _ _ _ _ _ _ _ _ _
 72
    65
 73
     2
 40
0.000165
 49
0.000110
 49
-0.000055
  0
LTYPE
  2
CENTER
 70
    64
  3
____ _ ____ _ ____ _ ____ _ ____ _ ____ _ ____
 72
    65
 73
     4
 40
0.000880
 49
0.000550
 49
-0.000110
 49
0.000110
 49
-0.000110
  0
LTYPE
  2
PHANTOM
 70
    64
  3
_____ _ _ _____ _ _ _____ _ _ _____ _ _ ____
 72
    65
 73
     6
 40
0.001100
 49
0.000550
 49
-0.000110
 49
0.000110
 49
-0.000110
 49
0.000110
 49
-0.000110
  0
LTYPE
  2
DOT
 70
    64
  3
...............................................
 72
    65
 73
     2
 40
0.000110
 49
0.000000
 49
-0.000110
  0
LTYPE
  2
DASHDOT
 70
    64
  3
__ . __ . __ . __ . __ . __ . __ . __ . __ . __
 72
    65
 73
     4
 40
0.000440
 49
0.000220
 49
-0.000110
 49
0.000000
 49
-0.000110
  0
LTYPE
  2
BORDER
 70
    64
  3
__ __ . __ __ . __ __ . __ __ . __ __ . __ __
 72
    65
 73
     6
 40
0.000770
 49
0.000220
 49
-0.000110
 49
0.000220
 49
-0.000110
 49
0.000000
 49
-0.000110
  0
LTYPE
  2
DIVIDE
 70
    64
  3
__ . . __ . . __ . . __ . . __ . . __ . . __
 72
    65
 73
     6
 40
0.000550
 49
0.000220
 49
-0.000110
 49
0.000000
 49
-0.000110
 49
0.000000
 49
-0.000110
  0
LTYPE
  2
DOTDOT
 70
    64
  3
 . .  . .  . .  . .  . .  . . 
 72
    65
 73
     5
 40
0.000242
 49
-0.000110
 49
0.000000
 49
-0.000110
 49
0.000000
 49
-0.000110
  0
ENDTAB
  0
TABLE
  2
STYLE
 70
     2
  0
STYLE
 70
     0
  2
SN0
 40
0.000000
 41
0.000440
 50
0.000000
 71
     0
 42
0.000000
  3
ROMAND
  0
STYLE
 70
    68
  2
SV0
 40
0.000000
 41
0.000440
 50
0.000000
 71
     0
 42
0.000000
  3
ROMAND
  0
ENDTAB
  0
TABLE
  2
LAYER
 70
     3
  0
LAYER
  2
FOREGROUND
 70
    64
 62
     7
  6
CONTINUOUS
  0
LAYER
  2
BACKGROUND
 70
    65
 62
    -7
  6
CONTINUOUS
  0
LAYER
  2
0
 70
    64
 62
     7
  6
CONTINUOUS
  0
ENDTAB
  0
ENDSEC
  0
SECTION
  2
ENTITIES
  0
POLYLINE
  8
FOREGROUND
  6
CONTINUOUS
 66
     1
 40
0.000000
 41
0.000000
  0
VERTEX
  8
FOREGROUND
  6
CONTINUOUS
 10
0.000000
 20
11.204600
  0
VERTEX
  8
FOREGROUND
  6
CONTINUOUS
 10
8.499920
 20
11.204600
  0
VERTEX
  8
FOREGROUND
  6
CONTINUOUS
 10
8.499920
 20
0.204600
  0
VERTEX
  8
FOREGROUND
  6
CONTINUOUS
 10
0.000000
 20
0.204600
  0
VERTEX
  8
FOREGROUND
  6
CONTINUOUS
 10
0.000000
 20
11.204600
  0
SEQEND
  8
0
  0
POLYLINE
  8
FOREGROUND
  6
CONTINUOUS
 66
     1
 40
0.000000
 41
0.000000
  0
VERTEX
  8
FOREGROUND
  6
CONTINUOUS
 10
0.000000
 20
11.204600
  0
VERTEX
  8
FOREGROUND
  6
CONTINUOUS
 10
8.499920
 20
11.204600
  0
VERTEX
  8
FOREGROUND
  6
CONTINUOUS
 10
8.499920
 20
0.204600
  0
VERTEX
  8
FOREGROUND
  6
CONTINUOUS
 10
0.000000
 20
0.204600
  0
VERTEX
  8
FOREGROUND
  6
CONTINUOUS
 10
0.000000
 20
11.204600
  0
SEQEND
  8
0
  0
POLYLINE
  8
0
  6
CONTINUOUS
 66
     1
 40
0.014080
 41
0.014080
  0
VERTEX
  8
0
  6
CONTINUOUS
 10
2.936560
 20
8.706720
  0
VERTEX
  8
0
  6
CONTINUOUS
 10
2.936560
 20
8.531160
  0
VERTEX
  8
0
  6
CONTINUOUS
 10
5.815480
 20
8.531160
  0
VERTEX
  8
0
  6
CONTINUOUS
 10
5.815480
 20
9.164320
  0
VERTEX
  8
0
  6
CONTINUOUS
 10
5.650040
 20
9.164320
  0
VERTEX
  8
0
  6
CONTINUOUS
 10
5.615280
 20
9.206560
  0
VERTEX
  8
0
  6
CONTINUOUS
 10
5.578760
 20
9.242640
  0
VERTEX
  8
0
  6
CONTINUOUS
 10
5.540040
 20
9.271680
  0
VERTEX
  8
0
  6
CONTINUOUS
 10
5.519800
 20
9.284000
  0
VERTEX
  8
0
  6
CONTINUOUS
 10
5.498680
 20
9.294560
  0
VERTEX
  8
0
  6
CONTINUOUS
 10
5.477120
 20
9.303360
  0
VERTEX
  8
0
  6
CONTINUOUS
 10
5.455120
 20
9.310400
  0
VERTEX
  8
0
  6
CONTINUOUS
 10
5.407600
 20
9.319640
  0
VERTEX
  8
0
  6
CONTINUOUS
 10
5.357000
 20
9.321840
  0
VERTEX
  8
0
  6
CONTINUOUS
 10
5.330160
 20
9.320520
  0
VERTEX
  8
0
  6
CONTINUOUS
 10
5.273400
 20
9.312160
  0
VERTEX
  8
0
  6
CONTINUOUS
 10
5.212240
 20
9.297200
  0
VERTEX
  8
0
  6
CONTINUOUS
 10
5.146240
 20
9.275200
  0
VERTEX
  8
0
  6
CONTINUOUS
 10
5.074520
 20
9.245720
  0
VERTEX
  8
0
  6
CONTINUOUS
 10
4.997960
 20
9.209640
  0
VERTEX
  8
0
  6
CONTINUOUS
 10
4.914800
 20
9.166080
  0
VERTEX
  8
0
  6
CONTINUOUS
 10
4.778840
 20
9.086880
  0
VERTEX
  8
0
  6
CONTINUOUS
 10
4.653880
 20
9.008560
  0
VERTEX
  8
0
  6
CONTINUOUS
 10
4.554880
 20
8.951360
  0
VERTEX
  8
0
  6
CONTINUOUS
 10
4.484480
 20
8.915280
  0
VERTEX
  8
0
  6
CONTINUOUS
 10
4.394720
 20
8.876560
  0
VERTEX
  8
0
  6
CONTINUOUS
 10
4.330920
 20
8.853240
  0
VERTEX
  8
0
  6
CONTINUOUS
 10
4.269760
 20
8.835200
  0
VERTEX
  8
0
  6
CONTINUOUS
 10
4.230600
 20
8.825520
  0
VERTEX
  8
0
  6
CONTINUOUS
 10
4.192760
 20
8.818040
  0
VERTEX
  8
0
  6
CONTINUOUS
 10
4.120600
 20
8.808800
  0
VERTEX
  8
0
  6
CONTINUOUS
 10
4.086280
 20
8.806600
  0
VERTEX
  8
0
  6
CONTINUOUS
 10
4.022040
 20
8.807480
  0
VERTEX
  8
0
  6
CONTINUOUS
 10
3.991240
 20
8.810120
  0
VERTEX
  8
0
  6
CONTINUOUS
 10
3.961760
 20
8.814080
  0
VERTEX
  8
0
  6
CONTINUOUS
 10
3.906760
 20
8.825960
  0
VERTEX
  8
0
  6
CONTINUOUS
 10
3.856600
 20
8.841800
  0
VERTEX
  8
0
  6
CONTINUOUS
 10
3.810840
 20
8.861600
  0
VERTEX
  8
0
  6
CONTINUOUS
 10
3.769480
 20
8.884040
  0
VERTEX
  8
0
  6
CONTINUOUS
 10
3.732960
 20
8.909120
  0
VERTEX
  8
0
  6
CONTINUOUS
 10
3.686320
 20
8.949160
  0
VERTEX
  8
0
  6
CONTINUOUS
 10
3.673120
 20
8.962800
  0
VERTEX
  8
0
  6
CONTINUOUS
 10
2.936560
 20
8.706720
  0
SEQEND
  8
0
  0
POLYLINE
  8
0
  6
CONTINUOUS
 66
     1
 40
0.000000
 41
0.000000
  0
VERTEX
  8
0
  6
CONTINUOUS
 10
5.937800
 20
2.050400
  0
VERTEX
  8
0
  6
CONTINUOUS
 10
5.937800
 20
1.874840
  0
VERTEX
  8
0
  6
CONTINUOUS
 10
3.058440
 20
1.874840
  0
VERTEX
  8
0
  6
CONTINUOUS
 10
3.058440
 20
2.508000
  0
VERTEX
  8
0
  6
CONTINUOUS
 10
3.223880
 20
2.508000
  0
VERTEX
  8
0
  6
CONTINUOUS
 10
3.258640
 20
2.550240
  0
VERTEX
  8
0
  6
CONTINUOUS
 10
3.295160
 20
2.586320
  0
VERTEX
  8
0
  6
CONTINUOUS
 10
3.333880
 20
2.615360
  0
VERTEX
  8
0
  6
CONTINUOUS
 10
3.354120
 20
2.627680
  0
VERTEX
  8
0
  6
CONTINUOUS
 10
3.375240
 20
2.638240
  0
VERTEX
  8
0
  6
CONTINUOUS
 10
3.396800
 20
2.647040
  0
VERTEX
  8
0
  6
CONTINUOUS
 10
3.418800
 20
2.654080
  0
VERTEX
  8
0
  6
CONTINUOUS
 10
3.466320
 20
2.663320
  0
VERTEX
  8
0
  6
CONTINUOUS
 10
3.490960
 20
2.665080
  0
VERTEX
  8
0
  6
CONTINUOUS
 10
3.516920
 20
2.665520
  0
VERTEX
  8
0
  6
CONTINUOUS
 10
3.543760
 20
2.664200
  0
VERTEX
  8
0
  6
CONTINUOUS
 10
3.600520
 20
2.655840
  0
VERTEX
  8
0
  6
CONTINUOUS
 10
3.661680
 20
2.640880
  0
VERTEX
  8
0
  6
CONTINUOUS
 10
3.727680
 20
2.618880
  0
VERTEX
  8
0
  6
CONTINUOUS
 10
3.799400
 20
2.589400
  0
VERTEX
  8
0
  6
CONTINUOUS
 10
3.875960
 20
2.553320
  0
VERTEX
  8
0
  6
CONTINUOUS
 10
3.959120
 20
2.509760
  0
VERTEX
  8
0
  6
CONTINUOUS
 10
4.095080
 20
2.430560
  0
VERTEX
  8
0
  6
CONTINUOUS
 10
4.220040
 20
2.352240
  0
VERTEX
  8
0
  6
CONTINUOUS
 10
4.319040
 20
2.295040
  0
VERTEX
  8
0
  6
CONTINUOUS
 10
4.389880
 20
2.258960
  0
VERTEX
  8
0
  6
CONTINUOUS
 10
4.457640
 20
2.229040
  0
VERTEX
  8
0
  6
CONTINUOUS
 10
4.543440
 20
2.196920
  0
VERTEX
  8
0
  6
CONTINUOUS
 10
4.604600
 20
2.178880
  0
VERTEX
  8
0
  6
CONTINUOUS
 10
4.643760
 20
2.169200
  0
VERTEX
  8
0
  6
CONTINUOUS
 10
4.681600
 20
2.161720
  0
VERTEX
  8
0
  6
CONTINUOUS
 10
4.753320
 20
2.152480
  0
VERTEX
  8
0
  6
CONTINUOUS
 10
4.787640
 20
2.150280
  0
VERTEX
  8
0
  6
CONTINUOUS
 10
4.852320
 20
2.151160
  0
VERTEX
  8
0
  6
CONTINUOUS
 10
4.912160
 20
2.157760
  0
VERTEX
  8
0
  6
CONTINUOUS
 10
4.967160
 20
2.169640
  0
VERTEX
  8
0
  6
CONTINUOUS
 10
5.017320
 20
2.185480
  0
VERTEX
  8
0
  6
CONTINUOUS
 10
5.063080
 20
2.205280
  0
VERTEX
  8
0
  6
CONTINUOUS
 10
5.104440
 20
2.227720
  0
VERTEX
  8
0
  6
CONTINUOUS
 10
5.140960
 20
2.252800
  0
VERTEX
  8
0
  6
CONTINUOUS
 10
5.187600
 20
2.292840
  0
VERTEX
  8
0
  6
CONTINUOUS
 10
5.200800
 20
2.306480
  0
VERTEX
  8
0
  6
CONTINUOUS
 10
5.937800
 20
2.050400
  0
SEQEND
  8
0
  0
POLYLINE
  8
0
  6
CONTINUOUS
 66
     1
 40
0.000000
 41
0.000000
  0
VERTEX
  8
0
  6
CONTINUOUS
 10
3.020160
 20
3.328600
  0
VERTEX
  8
0
  6
CONTINUOUS
 10
3.020160
 20
3.153040
  0
VERTEX
  8
0
  6
CONTINUOUS
 10
5.899520
 20
3.153040
  0
VERTEX
  8
0
  6
CONTINUOUS
 10
5.899520
 20
3.786200
  0
VERTEX
  8
0
  6
CONTINUOUS
 10
5.734080
 20
3.786200
  0
VERTEX
  8
0
  6
CONTINUOUS
 10
5.699320
 20
3.828440
  0
VERTEX
  8
0
  6
CONTINUOUS
 10
5.662800
 20
3.864520
  0
VERTEX
  8
0
  6
CONTINUOUS
 10
5.624080
 20
3.893560
  0
VERTEX
  8
0
  6
CONTINUOUS
 10
5.603840
 20
3.905880
  0
VERTEX
  8
0
  6
CONTINUOUS
 10
5.582720
 20
3.916440
  0
VERTEX
  8
0
  6
CONTINUOUS
 10
5.561160
 20
3.925240
  0
VERTEX
  8
0
  6
CONTINUOUS
 10
5.539160
 20
3.932280
  0
VERTEX
  8
0
  6
CONTINUOUS
 10
5.491640
 20
3.941520
  0
VERTEX
  8
0
  6
CONTINUOUS
 10
5.441040
 20
3.943720
  0
VERTEX
  8
0
  6
CONTINUOUS
 10
5.414200
 20
3.942400
  0
VERTEX
  8
0
  6
CONTINUOUS
 10
5.386480
 20
3.939320
  0
VERTEX
  8
0
  6
CONTINUOUS
 10
5.357440
 20
3.934480
  0
VERTEX
  8
0
  6
CONTINUOUS
 10
5.327520
 20
3.927880
  0
VERTEX
  8
0
  6
CONTINUOUS
 10
5.263720
 20
3.908960
  0
VERTEX
  8
0
  6
CONTINUOUS
 10
5.195080
 20
3.883440
  0
VERTEX
  8
0
  6
CONTINUOUS
 10
5.121160
 20
3.850880
  0
VERTEX
  8
0
  6
CONTINUOUS
 10
5.041080
 20
3.810840
  0
VERTEX
  8
0
  6
CONTINUOUS
 10
4.909960
 20
3.736920
  0
VERTEX
  8
0
  6
CONTINUOUS
 10
4.687760
 20
3.600520
  0
VERTEX
  8
0
  6
CONTINUOUS
 10
4.591400
 20
3.548600
  0
VERTEX
  8
0
  6
CONTINUOUS
 10
4.522760
 20
3.516480
  0
VERTEX
  8
0
  6
CONTINUOUS
 10
4.435640
 20
3.482160
  0
VERTEX
  8
0
  6
CONTINUOUS
 10
4.373600
 20
3.462360
  0
VERTEX
  8
0
  6
CONTINUOUS
 10
4.314200
 20
3.447400
  0
VERTEX
  8
0
  6
CONTINUOUS
 10
4.239840
 20
3.434640
  0
VERTEX
  8
0
  6
CONTINUOUS
 10
4.204640
 20
3.430680
  0
VERTEX
  8
0
  6
CONTINUOUS
 10
4.137320
 20
3.428480
  0
VERTEX
  8
0
  6
CONTINUOUS
 10
4.105640
 20
3.429800
  0
VERTEX
  8
0
  6
CONTINUOUS
 10
4.045800
 20
3.436400
  0
VERTEX
  8
0
  6
CONTINUOUS
 10
3.990800
 20
3.447840
  0
VERTEX
  8
0
  6
CONTINUOUS
 10
3.940640
 20
3.464120
  0
VERTEX
  8
0
  6
CONTINUOUS
 10
3.916880
 20
3.473360
  0
VERTEX
  8
0
  6
CONTINUOUS
 10
3.853520
 20
3.506360
  0
VERTEX
  8
0
  6
CONTINUOUS
 10
3.817000
 20
3.531440
  0
VERTEX
  8
0
  6
CONTINUOUS
 10
3.770360
 20
3.571480
  0
VERTEX
  8
0
  6
CONTINUOUS
 10
3.757160
 20
3.585120
  0
VERTEX
  8
0
  6
CONTINUOUS
 10
3.020160
 20
3.328600
  0
SEQEND
  8
0
  0
SOLID
  8
0
 62
    15
 10
4.069560
 20
6.049560
 11
4.719440
 21
6.423560
 12
4.131600
 22
5.950560
 13
4.781480
 23
6.324120
  0
POLYLINE
  8
0
  6
CONTINUOUS
 66
     1
 40
0.000000
 41
0.000000
  0
VERTEX
  8
0
  6
CONTINUOUS
 10
4.069560
 20
6.049560
  0
VERTEX
  8
0
  6
CONTINUOUS
 10
4.719440
 20
6.423560
  0
VERTEX
  8
0
  6
CONTINUOUS
 10
4.781480
 20
6.324120
  0
VERTEX
  8
0
  6
CONTINUOUS
 10
4.131600
 20
5.950560
  0
VERTEX
  8
0
  6
CONTINUOUS
 10
4.069560
 20
6.049560
  0
SEQEND
  8
0
  0
SOLID
  8
0
 62
    15
 10
4.007960
 20
7.055840
 11
4.657400
 21
7.429840
 12
3.980680
 22
7.028120
 13
4.630560
 23
7.402120
  0
POLYLINE
  8
0
  6
CONTINUOUS
 66
     1
 40
0.000000
 41
0.000000
  0
VERTEX
  8
0
  6
CONTINUOUS
 10
4.007960
 20
7.055840
  0
VERTEX
  8
0
  6
CONTINUOUS
 10
4.657400
 20
7.429840
  0
VERTEX
  8
0
  6
CONTINUOUS
 10
4.630560
 20
7.402120
  0
VERTEX
  8
0
  6
CONTINUOUS
 10
3.980680
 20
7.028120
  0
VERTEX
  8
0
  6
CONTINUOUS
 10
4.007960
 20
7.055840
  0
SEQEND
  8
0
  0
SOLID
  8
0
 62
    15
 10
3.980680
 20
7.028120
 11
4.630560
 21
7.402120
 12
3.954280
 22
6.996000
 13
4.603720
 23
7.370000
  0
POLYLINE
  8
0
  6
CONTINUOUS
 66
     1
 40
0.000000
 41
0.000000
  0
VERTEX
  8
0
  6
CONTINUOUS
 10
3.980680
 20
7.028120
  0
VERTEX
  8
0
  6
CONTINUOUS
 10
4.630560
 20
7.402120
  0
VERTEX
  8
0
  6
CONTINUOUS
 10
4.603720
 20
7.370000
  0
VERTEX
  8
0
  6
CONTINUOUS
 10
3.954280
 20
6.996000
  0
VERTEX
  8
0
  6
CONTINUOUS
 10
3.980680
 20
7.028120
  0
SEQEND
  8
0
  0
SOLID
  8
0
 62
    15
 10
3.954280
 20
6.996000
 11
4.603720
 21
7.370000
 12
3.929640
 22
6.959480
 13
4.579080
 23
7.333480
  0
POLYLINE
  8
0
  6
CONTINUOUS
 66
     1
 40
0.000000
 41
0.000000
  0
VERTEX
  8
0
  6
CONTINUOUS
 10
3.954280
 20
6.996000
  0
VERTEX
  8
0
  6
CONTINUOUS
 10
4.603720
 20
7.370000
  0
VERTEX
  8
0
  6
CONTINUOUS
 10
4.579080
 20
7.333480
  0
VERTEX
  8
0
  6
CONTINUOUS
 10
3.929640
 20
6.959480
  0
VERTEX
  8
0
  6
CONTINUOUS
 10
3.954280
 20
6.996000
  0
SEQEND
  8
0
  0
SOLID
  8
0
 62
    15
 10
3.929640
 20
6.959480
 11
4.579080
 21
7.333480
 12
3.906760
 22
6.918560
 13
4.556200
 23
7.292120
  0
POLYLINE
  8
0
  6
CONTINUOUS
 66
     1
 40
0.000000
 41
0.000000
  0
VERTEX
  8
0
  6
CONTINUOUS
 10
3.929640
 20
6.959480
  0
VERTEX
  8
0
  6
CONTINUOUS
 10
4.579080
 20
7.333480
  0
VERTEX
  8
0
  6
CONTINUOUS
 10
4.556200
 20
7.292120
  0
VERTEX
  8
0
  6
CONTINUOUS
 10
3.906760
 20
6.918560
  0
VERTEX
  8
0
  6
CONTINUOUS
 10
3.929640
 20
6.959480
  0
SEQEND
  8
0
  0
SOLID
  8
0
 62
    15
 10
3.906760
 20
6.918560
 11
4.556200
 21
7.292120
 12
3.886960
 22
6.872800
 13
4.536400
 23
7.246360
  0
POLYLINE
  8
0
  6
CONTINUOUS
 66
     1
 40
0.000000
 41
0.000000
  0
VERTEX
  8
0
  6
CONTINUOUS
 10
3.906760
 20
6.918560
  0
VERTEX
  8
0
  6
CONTINUOUS
 10
4.556200
 20
7.292120
  0
VERTEX
  8
0
  6
CONTINUOUS
 10
4.536400
 20
7.246360
  0
VERTEX
  8
0
  6
CONTINUOUS
 10
3.886960
 20
6.872800
  0
VERTEX
  8
0
  6
CONTINUOUS
 10
3.906760
 20
6.918560
  0
SEQEND
  8
0
  0
SOLID
  8
0
 62
    15
 10
3.886960
 20
6.872800
 11
4.536400
 21
7.246360
 12
3.871120
 22
6.822200
 13
4.520560
 23
7.196200
  0
POLYLINE
  8
0
  6
CONTINUOUS
 66
     1
 40
0.000000
 41
0.000000
  0
VERTEX
  8
0
  6
CONTINUOUS
 10
3.886960
 20
6.872800
  0
VERTEX
  8
0
  6
CONTINUOUS
 10
4.536400
 20
7.246360
  0
VERTEX
  8
0
  6
CONTINUOUS
 10
4.520560
 20
7.196200
  0
VERTEX
  8
0
  6
CONTINUOUS
 10
3.871120
 20
6.822200
  0
VERTEX
  8
0
  6
CONTINUOUS
 10
3.886960
 20
6.872800
  0
SEQEND
  8
0
  0
SOLID
  8
0
 62
    15
 10
3.871120
 20
6.822200
 11
4.520560
 21
7.196200
 12
3.859240
 22
6.767200
 13
4.508680
 23
7.141200
  0
POLYLINE
  8
0
  6
CONTINUOUS
 66
     1
 40
0.000000
 41
0.000000
  0
VERTEX
  8
0
  6
CONTINUOUS
 10
3.871120
 20
6.822200
  0
VERTEX
  8
0
  6
CONTINUOUS
 10
4.520560
 20
7.196200
  0
VERTEX
  8
0
  6
CONTINUOUS
 10
4.508680
 20
7.141200
  0
VERTEX
  8
0
  6
CONTINUOUS
 10
3.859240
 20
6.767200
  0
VERTEX
  8
0
  6
CONTINUOUS
 10
3.871120
 20
6.822200
  0
SEQEND
  8
0
  0
SOLID
  8
0
 62
    15
 10
3.859240
 20
6.767200
 11
4.508680
 21
7.141200
 12
3.852640
 22
6.707360
 13
4.502080
 23
7.081360
  0
POLYLINE
  8
0
  6
CONTINUOUS
 66
     1
 40
0.000000
 41
0.000000
  0
VERTEX
  8
0
  6
CONTINUOUS
 10
3.859240
 20
6.767200
  0
VERTEX
  8
0
  6
CONTINUOUS
 10
4.508680
 20
7.141200
  0
VERTEX
  8
0
  6
CONTINUOUS
 10
4.502080
 20
7.081360
  0
VERTEX
  8
0
  6
CONTINUOUS
 10
3.852640
 20
6.707360
  0
VERTEX
  8
0
  6
CONTINUOUS
 10
3.859240
 20
6.767200
  0
SEQEND
  8
0
  0
SOLID
  8
0
 62
    15
 10
3.852640
 20
6.707360
 11
4.502080
 21
7.081360
 12
3.851760
 22
6.642680
 13
4.501200
 23
7.016680
  0
POLYLINE
  8
0
  6
CONTINUOUS
 66
     1
 40
0.000000
 41
0.000000
  0
VERTEX
  8
0
  6
CONTINUOUS
 10
3.852640
 20
6.707360
  0
VERTEX
  8
0
  6
CONTINUOUS
 10
4.502080
 20
7.081360
  0
VERTEX
  8
0
  6
CONTINUOUS
 10
4.501200
 20
7.016680
  0
VERTEX
  8
0
  6
CONTINUOUS
 10
3.851760
 20
6.642680
  0
VERTEX
  8
0
  6
CONTINUOUS
 10
3.852640
 20
6.707360
  0
SEQEND
  8
0
  0
SOLID
  8
0
 62
    15
 10
3.851760
 20
6.642680
 11
4.501200
 21
7.016680
 12
3.857480
 22
6.573160
 13
4.507360
 23
6.947160
  0
POLYLINE
  8
0
  6
CONTINUOUS
 66
     1
 40
0.000000
 41
0.000000
  0
VERTEX
  8
0
  6
CONTINUOUS
 10
3.851760
 20
6.642680
  0
VERTEX
  8
0
  6
CONTINUOUS
 10
4.501200
 20
7.016680
  0
VERTEX
  8
0
  6
CONTINUOUS
 10
4.507360
 20
6.947160
  0
VERTEX
  8
0
  6
CONTINUOUS
 10
3.857480
 20
6.573160
  0
VERTEX
  8
0
  6
CONTINUOUS
 10
3.851760
 20
6.642680
  0
SEQEND
  8
0
  0
SOLID
  8
0
 62
    15
 10
3.857480
 20
6.573160
 11
4.507360
 21
6.947160
 12
3.870680
 22
6.498800
 13
4.520120
 23
6.872800
  0
POLYLINE
  8
0
  6
CONTINUOUS
 66
     1
 40
0.000000
 41
0.000000
  0
VERTEX
  8
0
  6
CONTINUOUS
 10
3.857480
 20
6.573160
  0
VERTEX
  8
0
  6
CONTINUOUS
 10
4.507360
 20
6.947160
  0
VERTEX
  8
0
  6
CONTINUOUS
 10
4.520120
 20
6.872800
  0
VERTEX
  8
0
  6
CONTINUOUS
 10
3.870680
 20
6.498800
  0
VERTEX
  8
0
  6
CONTINUOUS
 10
3.857480
 20
6.573160
  0
SEQEND
  8
0
  0
SOLID
  8
0
 62
    15
 10
3.870680
 20
6.498800
 11
4.520120
 21
6.872800
 12
3.891800
 22
6.419160
 13
4.541240
 23
6.793160
  0
POLYLINE
  8
0
  6
CONTINUOUS
 66
     1
 40
0.000000
 41
0.000000
  0
VERTEX
  8
0
  6
CONTINUOUS
 10
3.870680
 20
6.498800
  0
VERTEX
  8
0
  6
CONTINUOUS
 10
4.520120
 20
6.872800
  0
VERTEX
  8
0
  6
CONTINUOUS
 10
4.541240
 20
6.793160
  0
VERTEX
  8
0
  6
CONTINUOUS
 10
3.891800
 20
6.419160
  0
VERTEX
  8
0
  6
CONTINUOUS
 10
3.870680
 20
6.498800
  0
SEQEND
  8
0
  0
SOLID
  8
0
 62
    15
 10
3.891800
 20
6.419160
 11
4.541240
 21
6.793160
 12
3.921280
 22
6.334680
 13
4.570720
 23
6.708240
  0
POLYLINE
  8
0
  6
CONTINUOUS
 66
     1
 40
0.000000
 41
0.000000
  0
VERTEX
  8
0
  6
CONTINUOUS
 10
3.891800
 20
6.419160
  0
VERTEX
  8
0
  6
CONTINUOUS
 10
4.541240
 20
6.793160
  0
VERTEX
  8
0
  6
CONTINUOUS
 10
4.570720
 20
6.708240
  0
VERTEX
  8
0
  6
CONTINUOUS
 10
3.921280
 20
6.334680
  0
VERTEX
  8
0
  6
CONTINUOUS
 10
3.891800
 20
6.419160
  0
SEQEND
  8
0
  0
SOLID
  8
0
 62
    15
 10
3.921280
 20
6.334680
 11
4.570720
 21
6.708240
 12
3.960440
 22
6.244920
 13
4.609880
 23
6.618920
  0
POLYLINE
  8
0
  6
CONTINUOUS
 66
     1
 40
0.000000
 41
0.000000
  0
VERTEX
  8
0
  6
CONTINUOUS
 10
3.921280
 20
6.334680
  0
VERTEX
  8
0
  6
CONTINUOUS
 10
4.570720
 20
6.708240
  0
VERTEX
  8
0
  6
CONTINUOUS
 10
4.609880
 20
6.618920
  0
VERTEX
  8
0
  6
CONTINUOUS
 10
3.960440
 20
6.244920
  0
VERTEX
  8
0
  6
CONTINUOUS
 10
3.921280
 20
6.334680
  0
SEQEND
  8
0
  0
SOLID
  8
0
 62
    15
 10
3.960440
 20
6.244920
 11
4.609880
 21
6.618920
 12
4.009720
 22
6.149880
 13
4.659160
 23
6.523880
  0
POLYLINE
  8
0
  6
CONTINUOUS
 66
     1
 40
0.000000
 41
0.000000
  0
VERTEX
  8
0
  6
CONTINUOUS
 10
3.960440
 20
6.244920
  0
VERTEX
  8
0
  6
CONTINUOUS
 10
4.609880
 20
6.618920
  0
VERTEX
  8
0
  6
CONTINUOUS
 10
4.659160
 20
6.523880
  0
VERTEX
  8
0
  6
CONTINUOUS
 10
4.009720
 20
6.149880
  0
VERTEX
  8
0
  6
CONTINUOUS
 10
3.960440
 20
6.244920
  0
SEQEND
  8
0
  0
SOLID
  8
0
 62
    15
 10
4.009720
 20
6.149880
 11
4.659160
 21
6.523880
 12
4.069560
 22
6.049560
 13
4.719440
 23
6.423560
  0
POLYLINE
  8
0
  6
CONTINUOUS
 66
     1
 40
0.000000
 41
0.000000
  0
VERTEX
  8
0
  6
CONTINUOUS
 10
4.009720
 20
6.149880
  0
VERTEX
  8
0
  6
CONTINUOUS
 10
4.659160
 20
6.523880
  0
VERTEX
  8
0
  6
CONTINUOUS
 10
4.719440
 20
6.423560
  0
VERTEX
  8
0
  6
CONTINUOUS
 10
4.069560
 20
6.049560
  0
VERTEX
  8
0
  6
CONTINUOUS
 10
4.009720
 20
6.149880
  0
SEQEND
  8
0
  0
SOLID
  8
0
 62
    15
 10
3.576320
 20
7.792840
 11
4.225760
 21
8.166840
 12
3.751440
 22
7.792840
 13
4.401320
 23
8.166840
  0
POLYLINE
  8
0
  6
CONTINUOUS
 66
     1
 40
0.000000
 41
0.000000
  0
VERTEX
  8
0
  6
CONTINUOUS
 10
3.576320
 20
7.792840
  0
VERTEX
  8
0
  6
CONTINUOUS
 10
4.225760
 20
8.166840
  0
VERTEX
  8
0
  6
CONTINUOUS
 10
4.401320
 20
8.166840
  0
VERTEX
  8
0
  6
CONTINUOUS
 10
3.751440
 20
7.792840
  0
VERTEX
  8
0
  6
CONTINUOUS
 10
3.576320
 20
7.792840
  0
SEQEND
  8
0
  0
SOLID
  8
0
 62
    15
 10
4.131600
 20
5.950560
 11
4.781480
 21
6.324120
 12
4.186600
 22
5.858160
 13
4.836040
 23
6.231720
  0
POLYLINE
  8
0
  6
CONTINUOUS
 66
     1
 40
0.000000
 41
0.000000
  0
VERTEX
  8
0
  6
CONTINUOUS
 10
4.131600
 20
5.950560
  0
VERTEX
  8
0
  6
CONTINUOUS
 10
4.781480
 20
6.324120
  0
VERTEX
  8
0
  6
CONTINUOUS
 10
4.836040
 20
6.231720
  0
VERTEX
  8
0
  6
CONTINUOUS
 10
4.186600
 20
5.858160
  0
VERTEX
  8
0
  6
CONTINUOUS
 10
4.131600
 20
5.950560
  0
SEQEND
  8
0
  0
SOLID
  8
0
 62
    15
 10
4.186600
 20
5.858160
 11
4.836040
 21
6.231720
 12
4.233680
 22
5.771920
 13
4.883120
 23
6.145920
  0
POLYLINE
  8
0
  6
CONTINUOUS
 66
     1
 40
0.000000
 41
0.000000
  0
VERTEX
  8
0
  6
CONTINUOUS
 10
4.186600
 20
5.858160
  0
VERTEX
  8
0
  6
CONTINUOUS
 10
4.836040
 20
6.231720
  0
VERTEX
  8
0
  6
CONTINUOUS
 10
4.883120
 20
6.145920
  0
VERTEX
  8
0
  6
CONTINUOUS
 10
4.233680
 20
5.771920
  0
VERTEX
  8
0
  6
CONTINUOUS
 10
4.186600
 20
5.858160
  0
SEQEND
  8
0
  0
SOLID
  8
0
 62
    15
 10
4.233680
 20
5.771920
 11
4.883120
 21
6.145920
 12
4.273720
 22
5.692280
 13
4.923160
 23
6.065840
  0
POLYLINE
  8
0
  6
CONTINUOUS
 66
     1
 40
0.000000
 41
0.000000
  0
VERTEX
  8
0
  6
CONTINUOUS
 10
4.233680
 20
5.771920
  0
VERTEX
  8
0
  6
CONTINUOUS
 10
4.883120
 20
6.145920
  0
VERTEX
  8
0
  6
CONTINUOUS
 10
4.923160
 20
6.065840
  0
VERTEX
  8
0
  6
CONTINUOUS
 10
4.273720
 20
5.692280
  0
VERTEX
  8
0
  6
CONTINUOUS
 10
4.233680
 20
5.771920
  0
SEQEND
  8
0
  0
SOLID
  8
0
 62
    15
 10
4.273720
 20
5.692280
 11
4.923160
 21
6.065840
 12
4.306720
 22
5.618360
 13
4.956160
 23
5.991920
  0
POLYLINE
  8
0
  6
CONTINUOUS
 66
     1
 40
0.000000
 41
0.000000
  0
VERTEX
  8
0
  6
CONTINUOUS
 10
4.273720
 20
5.692280
  0
VERTEX
  8
0
  6
CONTINUOUS
 10
4.923160
 20
6.065840
  0
VERTEX
  8
0
  6
CONTINUOUS
 10
4.956160
 20
5.991920
  0
VERTEX
  8
0
  6
CONTINUOUS
 10
4.306720
 20
5.618360
  0
VERTEX
  8
0
  6
CONTINUOUS
 10
4.273720
 20
5.692280
  0
SEQEND
  8
0
  0
SOLID
  8
0
 62
    15
 10
4.306720
 20
5.618360
 11
4.956160
 21
5.991920
 12
4.332240
 22
5.549720
 13
4.981680
 23
5.923280
  0
POLYLINE
  8
0
  6
CONTINUOUS
 66
     1
 40
0.000000
 41
0.000000
  0
VERTEX
  8
0
  6
CONTINUOUS
 10
4.306720
 20
5.618360
  0
VERTEX
  8
0
  6
CONTINUOUS
 10
4.956160
 20
5.991920
  0
VERTEX
  8
0
  6
CONTINUOUS
 10
4.981680
 20
5.923280
  0
VERTEX
  8
0
  6
CONTINUOUS
 10
4.332240
 20
5.549720
  0
VERTEX
  8
0
  6
CONTINUOUS
 10
4.306720
 20
5.618360
  0
SEQEND
  8
0
  0
SOLID
  8
0
 62
    15
 10
4.332240
 20
5.549720
 11
4.981680
 21
5.923280
 12
4.350720
 22
5.485920
 13
5.000160
 23
5.859920
  0
POLYLINE
  8
0
  6
CONTINUOUS
 66
     1
 40
0.000000
 41
0.000000
  0
VERTEX
  8
0
  6
CONTINUOUS
 10
4.332240
 20
5.549720
  0
VERTEX
  8
0
  6
CONTINUOUS
 10
4.981680
 20
5.923280
  0
VERTEX
  8
0
  6
CONTINUOUS
 10
5.000160
 20
5.859920
  0
VERTEX
  8
0
  6
CONTINUOUS
 10
4.350720
 20
5.485920
  0
VERTEX
  8
0
  6
CONTINUOUS
 10
4.332240
 20
5.549720
  0
SEQEND
  8
0
  0
SOLID
  8
0
 62
    15
 10
4.350720
 20
5.485920
 11
5.000160
 21
5.859920
 12
4.362160
 22
5.426960
 13
5.012040
 23
5.800960
  0
POLYLINE
  8
0
  6
CONTINUOUS
 66
     1
 40
0.000000
 41
0.000000
  0
VERTEX
  8
0
  6
CONTINUOUS
 10
4.350720
 20
5.485920
  0
VERTEX
  8
0
  6
CONTINUOUS
 10
5.000160
 20
5.859920
  0
VERTEX
  8
0
  6
CONTINUOUS
 10
5.012040
 20
5.800960
  0
VERTEX
  8
0
  6
CONTINUOUS
 10
4.362160
 20
5.426960
  0
VERTEX
  8
0
  6
CONTINUOUS
 10
4.350720
 20
5.485920
  0
SEQEND
  8
0
  0
SOLID
  8
0
 62
    15
 10
4.362160
 20
5.426960
 11
5.012040
 21
5.800960
 12
4.367000
 22
5.372400
 13
5.016440
 23
5.745960
  0
POLYLINE
  8
0
  6
CONTINUOUS
 66
     1
 40
0.000000
 41
0.000000
  0
VERTEX
  8
0
  6
CONTINUOUS
 10
4.362160
 20
5.426960
  0
VERTEX
  8
0
  6
CONTINUOUS
 10
5.012040
 20
5.800960
  0
VERTEX
  8
0
  6
CONTINUOUS
 10
5.016440
 20
5.745960
  0
VERTEX
  8
0
  6
CONTINUOUS
 10
4.367000
 20
5.372400
  0
VERTEX
  8
0
  6
CONTINUOUS
 10
4.362160
 20
5.426960
  0
SEQEND
  8
0
  0
SOLID
  8
0
 62
    15
 10
4.367000
 20
5.372400
 11
5.016440
 21
5.745960
 12
4.364800
 22
5.321360
 13
5.014240
 23
5.695360
  0
POLYLINE
  8
0
  6
CONTINUOUS
 66
     1
 40
0.000000
 41
0.000000
  0
VERTEX
  8
0
  6
CONTINUOUS
 10
4.367000
 20
5.372400
  0
VERTEX
  8
0
  6
CONTINUOUS
 10
5.016440
 20
5.745960
  0
VERTEX
  8
0
  6
CONTINUOUS
 10
5.014240
 20
5.695360
  0
VERTEX
  8
0
  6
CONTINUOUS
 10
4.364800
 20
5.321360
  0
VERTEX
  8
0
  6
CONTINUOUS
 10
4.367000
 20
5.372400
  0
SEQEND
  8
0
  0
SOLID
  8
0
 62
    15
 10
4.364800
 20
5.321360
 11
5.014240
 21
5.695360
 12
4.355560
 22
5.274280
 13
5.005000
 23
5.648280
  0
POLYLINE
  8
0
  6
CONTINUOUS
 66
     1
 40
0.000000
 41
0.000000
  0
VERTEX
  8
0
  6
CONTINUOUS
 10
4.364800
 20
5.321360
  0
VERTEX
  8
0
  6
CONTINUOUS
 10
5.014240
 20
5.695360
  0
VERTEX
  8
0
  6
CONTINUOUS
 10
5.005000
 20
5.648280
  0
VERTEX
  8
0
  6
CONTINUOUS
 10
4.355560
 20
5.274280
  0
VERTEX
  8
0
  6
CONTINUOUS
 10
4.364800
 20
5.321360
  0
SEQEND
  8
0
  0
SOLID
  8
0
 62
    15
 10
4.355560
 20
5.274280
 11
5.005000
 21
5.648280
 12
4.339720
 22
5.230280
 13
4.989160
 23
5.604280
  0
POLYLINE
  8
0
  6
CONTINUOUS
 66
     1
 40
0.000000
 41
0.000000
  0
VERTEX
  8
0
  6
CONTINUOUS
 10
4.355560
 20
5.274280
  0
VERTEX
  8
0
  6
CONTINUOUS
 10
5.005000
 20
5.648280
  0
VERTEX
  8
0
  6
CONTINUOUS
 10
4.989160
 20
5.604280
  0
VERTEX
  8
0
  6
CONTINUOUS
 10
4.339720
 20
5.230280
  0
VERTEX
  8
0
  6
CONTINUOUS
 10
4.355560
 20
5.274280
  0
SEQEND
  8
0
  0
SOLID
  8
0
 62
    15
 10
4.339720
 20
5.230280
 11
4.989160
 21
5.604280
 12
4.316840
 22
5.189360
 13
4.966280
 23
5.562920
  0
POLYLINE
  8
0
  6
CONTINUOUS
 66
     1
 40
0.000000
 41
0.000000
  0
VERTEX
  8
0
  6
CONTINUOUS
 10
4.339720
 20
5.230280
  0
VERTEX
  8
0
  6
CONTINUOUS
 10
4.989160
 20
5.604280
  0
VERTEX
  8
0
  6
CONTINUOUS
 10
4.966280
 20
5.562920
  0
VERTEX
  8
0
  6
CONTINUOUS
 10
4.316840
 20
5.189360
  0
VERTEX
  8
0
  6
CONTINUOUS
 10
4.339720
 20
5.230280
  0
SEQEND
  8
0
  0
SOLID
  8
0
 62
    15
 10
4.316840
 20
5.189360
 11
4.966280
 21
5.562920
 12
4.287800
 22
5.150640
 13
4.937240
 23
5.524200
  0
POLYLINE
  8
0
  6
CONTINUOUS
 66
     1
 40
0.000000
 41
0.000000
  0
VERTEX
  8
0
  6
CONTINUOUS
 10
4.316840
 20
5.189360
  0
VERTEX
  8
0
  6
CONTINUOUS
 10
4.966280
 20
5.562920
  0
VERTEX
  8
0
  6
CONTINUOUS
 10
4.937240
 20
5.524200
  0
VERTEX
  8
0
  6
CONTINUOUS
 10
4.287800
 20
5.150640
  0
VERTEX
  8
0
  6
CONTINUOUS
 10
4.316840
 20
5.189360
  0
SEQEND
  8
0
  0
SOLID
  8
0
 62
    15
 10
4.287800
 20
5.150640
 11
4.937240
 21
5.524200
 12
4.251720
 22
5.114120
 13
4.901160
 23
5.487680
  0
POLYLINE
  8
0
  6
CONTINUOUS
 66
     1
 40
0.000000
 41
0.000000
  0
VERTEX
  8
0
  6
CONTINUOUS
 10
4.287800
 20
5.150640
  0
VERTEX
  8
0
  6
CONTINUOUS
 10
4.937240
 20
5.524200
  0
VERTEX
  8
0
  6
CONTINUOUS
 10
4.901160
 20
5.487680
  0
VERTEX
  8
0
  6
CONTINUOUS
 10
4.251720
 20
5.114120
  0
VERTEX
  8
0
  6
CONTINUOUS
 10
4.287800
 20
5.150640
  0
SEQEND
  8
0
  0
SOLID
  8
0
 62
    15
 10
4.251720
 20
5.114120
 11
4.901160
 21
5.487680
 12
4.209480
 22
5.079360
 13
4.858920
 23
5.452920
  0
POLYLINE
  8
0
  6
CONTINUOUS
 66
     1
 40
0.000000
 41
0.000000
  0
VERTEX
  8
0
  6
CONTINUOUS
 10
4.251720
 20
5.114120
  0
VERTEX
  8
0
  6
CONTINUOUS
 10
4.901160
 20
5.487680
  0
VERTEX
  8
0
  6
CONTINUOUS
 10
4.858920
 20
5.452920
  0
VERTEX
  8
0
  6
CONTINUOUS
 10
4.209480
 20
5.079360
  0
VERTEX
  8
0
  6
CONTINUOUS
 10
4.251720
 20
5.114120
  0
SEQEND
  8
0
  0
SOLID
  8
0
 62
    15
 10
4.209480
 20
5.079360
 11
4.858920
 21
5.452920
 12
4.209480
 22
4.913480
 13
4.858920
 23
5.287480
  0
POLYLINE
  8
0
  6
CONTINUOUS
 66
     1
 40
0.000000
 41
0.000000
  0
VERTEX
  8
0
  6
CONTINUOUS
 10
4.209480
 20
5.079360
  0
VERTEX
  8
0
  6
CONTINUOUS
 10
4.858920
 20
5.452920
  0
VERTEX
  8
0
  6
CONTINUOUS
 10
4.858920
 20
5.287480
  0
VERTEX
  8
0
  6
CONTINUOUS
 10
4.209480
 20
4.913480
  0
VERTEX
  8
0
  6
CONTINUOUS
 10
4.209480
 20
5.079360
  0
SEQEND
  8
0
  0
SOLID
  8
0
 62
    15
 10
3.751880
 20
7.792840
 11
4.401320
 21
8.166840
 12
4.007960
 22
7.055840
 13
4.657400
 23
7.429840
  0
POLYLINE
  8
0
  6
CONTINUOUS
 66
     1
 40
0.000000
 41
0.000000
  0
VERTEX
  8
0
  6
CONTINUOUS
 10
3.751880
 20
7.792840
  0
VERTEX
  8
0
  6
CONTINUOUS
 10
4.401320
 20
8.166840
  0
VERTEX
  8
0
  6
CONTINUOUS
 10
4.657400
 20
7.429840
  0
VERTEX
  8
0
  6
CONTINUOUS
 10
4.007960
 20
7.055840
  0
VERTEX
  8
0
  6
CONTINUOUS
 10
3.751880
 20
7.792840
  0
SEQEND
  8
0
  0
POLYLINE
  8
0
  6
CONTINUOUS
 66
     1
 40
0.000000
 41
0.000000
  0
VERTEX
  8
0
  6
CONTINUOUS
 10
3.751880
 20
7.792840
  0
VERTEX
  8
0
  6
CONTINUOUS
 10
4.007960
 20
7.055840
  0
VERTEX
  8
0
  6
CONTINUOUS
 10
3.980680
 20
7.028120
  0
VERTEX
  8
0
  6
CONTINUOUS
 10
3.954280
 20
6.996000
  0
VERTEX
  8
0
  6
CONTINUOUS
 10
3.929640
 20
6.959480
  0
VERTEX
  8
0
  6
CONTINUOUS
 10
3.906760
 20
6.918560
  0
VERTEX
  8
0
  6
CONTINUOUS
 10
3.886960
 20
6.872800
  0
VERTEX
  8
0
  6
CONTINUOUS
 10
3.871120
 20
6.822200
  0
VERTEX
  8
0
  6
CONTINUOUS
 10
3.859240
 20
6.767200
  0
VERTEX
  8
0
  6
CONTINUOUS
 10
3.852640
 20
6.707360
  0
VERTEX
  8
0
  6
CONTINUOUS
 10
3.851760
 20
6.642680
  0
VERTEX
  8
0
  6
CONTINUOUS
 10
3.857480
 20
6.573160
  0
VERTEX
  8
0
  6
CONTINUOUS
 10
3.870680
 20
6.498800
  0
VERTEX
  8
0
  6
CONTINUOUS
 10
3.891800
 20
6.419160
  0
VERTEX
  8
0
  6
CONTINUOUS
 10
3.921280
 20
6.334680
  0
VERTEX
  8
0
  6
CONTINUOUS
 10
3.960440
 20
6.244920
  0
VERTEX
  8
0
  6
CONTINUOUS
 10
4.009720
 20
6.149880
  0
VERTEX
  8
0
  6
CONTINUOUS
 10
4.069560
 20
6.049560
  0
VERTEX
  8
0
  6
CONTINUOUS
 10
4.131600
 20
5.950560
  0
VERTEX
  8
0
  6
CONTINUOUS
 10
4.186600
 20
5.858160
  0
VERTEX
  8
0
  6
CONTINUOUS
 10
4.233680
 20
5.771920
  0
VERTEX
  8
0
  6
CONTINUOUS
 10
4.273720
 20
5.692280
  0
VERTEX
  8
0
  6
CONTINUOUS
 10
4.306720
 20
5.618360
  0
VERTEX
  8
0
  6
CONTINUOUS
 10
4.332240
 20
5.549720
  0
VERTEX
  8
0
  6
CONTINUOUS
 10
4.350720
 20
5.485920
  0
VERTEX
  8
0
  6
CONTINUOUS
 10
4.362160
 20
5.426960
  0
VERTEX
  8
0
  6
CONTINUOUS
 10
4.367000
 20
5.372400
  0
VERTEX
  8
0
  6
CONTINUOUS
 10
4.364800
 20
5.321360
  0
VERTEX
  8
0
  6
CONTINUOUS
 10
4.355560
 20
5.274280
  0
VERTEX
  8
0
  6
CONTINUOUS
 10
4.339720
 20
5.230280
  0
VERTEX
  8
0
  6
CONTINUOUS
 10
4.316840
 20
5.189360
  0
VERTEX
  8
0
  6
CONTINUOUS
 10
4.287800
 20
5.150640
  0
VERTEX
  8
0
  6
CONTINUOUS
 10
4.251720
 20
5.114120
  0
VERTEX
  8
0
  6
CONTINUOUS
 10
4.209480
 20
5.079360
  0
VERTEX
  8
0
  6
CONTINUOUS
 10
4.209480
 20
4.913480
  0
VERTEX
  8
0
  6
CONTINUOUS
 10
3.576320
 20
4.913480
  0
VERTEX
  8
0
  6
CONTINUOUS
 10
3.576320
 20
7.792840
  0
VERTEX
  8
0
  6
CONTINUOUS
 10
3.751440
 20
7.792840
  0
VERTEX
  8
0
  6
CONTINUOUS
 10
3.751880
 20
7.792840
  0
SEQEND
  8
0
  0
TEXT
  8
0
 10
3.955600
 20
4.617800
 40
0.138387
  1
BA  1261
 41
1.000000
  7
SN0
 71
     0
 72
     5
 11
4.638843
 21
4.617800
  0
TEXT
  8
0
 10
3.846040
 20
4.425960
 40
0.138387
  1
3/4" x 2-7/8"
 41
1.000000
  7
SN0
 71
     0
 72
     5
 11
4.748085
 21
4.425960
  0
TEXT
  8
0
 10
4.868600
 20
8.814960
 40
0.138387
  1
BA  1261
 41
1.000000
  7
SN0
 71
     0
 72
     5
 11
5.551843
 21
8.814960
  0
TEXT
  8
0
 10
4.758600
 20
8.623560
 40
0.138387
  1
3/4" x 2-7/8"
 41
1.000000
  7
SN0
 71
     0
 72
     5
 11
5.660645
 21
8.623560
  0
ENDSEC
  0
EOF
