  0
SECTION
  2
HEADER
  9
$ACADVER
  1
AC1006
  9
$EXTMIN
 10
2.615800
 20
0.246840
  9
$EXTMAX
 10
5.935160
 20
10.309200
  9
$LTSCALE
 40
0.044000
  9
$PDMODE
 70
    35
  9
$PDSIZE
 40
0.035200
  0
ENDSEC
  0
SECTION
  2
TABLES
  0
TABLE
  2
LTYPE
 70
     9
  0
LTYPE
  2
CONTINUOUS
 70
    64
  3
Solid line
 72
    65
 73
     0
 40
0.000000
  0
LTYPE
  2
DASHED
 70
    64
  3
__ __ __ __ __ __ __ __ __ __ __ __ __ __ __
 72
    65
 73
     2
 40
0.000330
 49
0.000220
 49
-0.000110
  0
LTYPE
  2
HIDDEN
 70
    64
  3
 _ _ _ _ _ _ _ _ _ _ _ _ _ _ _ _ _ _ _ _ _ _
 72
    65
 73
     2
 40
0.000165
 49
0.000110
 49
-0.000055
  0
LTYPE
  2
CENTER
 70
    64
  3
____ _ ____ _ ____ _ ____ _ ____ _ ____ _ ____
 72
    65
 73
     4
 40
0.000880
 49
0.000550
 49
-0.000110
 49
0.000110
 49
-0.000110
  0
LTYPE
  2
PHANTOM
 70
    64
  3
_____ _ _ _____ _ _ _____ _ _ _____ _ _ ____
 72
    65
 73
     6
 40
0.001100
 49
0.000550
 49
-0.000110
 49
0.000110
 49
-0.000110
 49
0.000110
 49
-0.000110
  0
LTYPE
  2
DOT
 70
    64
  3
...............................................
 72
    65
 73
     2
 40
0.000110
 49
0.000000
 49
-0.000110
  0
LTYPE
  2
DASHDOT
 70
    64
  3
__ . __ . __ . __ . __ . __ . __ . __ . __ . __
 72
    65
 73
     4
 40
0.000440
 49
0.000220
 49
-0.000110
 49
0.000000
 49
-0.000110
  0
LTYPE
  2
BORDER
 70
    64
  3
__ __ . __ __ . __ __ . __ __ . __ __ . __ __
 72
    65
 73
     6
 40
0.000770
 49
0.000220
 49
-0.000110
 49
0.000220
 49
-0.000110
 49
0.000000
 49
-0.000110
  0
LTYPE
  2
DIVIDE
 70
    64
  3
__ . . __ . . __ . . __ . . __ . . __ . . __
 72
    65
 73
     6
 40
0.000550
 49
0.000220
 49
-0.000110
 49
0.000000
 49
-0.000110
 49
0.000000
 49
-0.000110
  0
LTYPE
  2
DOTDOT
 70
    64
  3
 . .  . .  . .  . .  . .  . . 
 72
    65
 73
     5
 40
0.000242
 49
-0.000110
 49
0.000000
 49
-0.000110
 49
0.000000
 49
-0.000110
  0
ENDTAB
  0
TABLE
  2
STYLE
 70
     2
  0
STYLE
 70
     0
  2
SN0
 40
0.000000
 41
0.000440
 50
0.000000
 71
     0
 42
0.000000
  3
ROMAND
  0
STYLE
 70
    68
  2
SV0
 40
0.000000
 41
0.000440
 50
0.000000
 71
     0
 42
0.000000
  3
ROMAND
  0
ENDTAB
  0
TABLE
  2
LAYER
 70
     3
  0
LAYER
  2
FOREGROUND
 70
    64
 62
     7
  6
CONTINUOUS
  0
LAYER
  2
BACKGROUND
 70
    65
 62
    -7
  6
CONTINUOUS
  0
LAYER
  2
0
 70
    64
 62
     7
  6
CONTINUOUS
  0
ENDTAB
  0
ENDSEC
  0
SECTION
  2
ENTITIES
  0
POLYLINE
  8
FOREGROUND
  6
CONTINUOUS
 66
     1
 40
0.000000
 41
0.000000
  0
VERTEX
  8
FOREGROUND
  6
CONTINUOUS
 10
0.000000
 20
10.556040
  0
VERTEX
  8
FOREGROUND
  6
CONTINUOUS
 10
8.499920
 20
10.556040
  0
VERTEX
  8
FOREGROUND
  6
CONTINUOUS
 10
8.499920
 20
-0.443960
  0
VERTEX
  8
FOREGROUND
  6
CONTINUOUS
 10
0.000000
 20
-0.443960
  0
VERTEX
  8
FOREGROUND
  6
CONTINUOUS
 10
0.000000
 20
10.556040
  0
SEQEND
  8
0
  0
POLYLINE
  8
FOREGROUND
  6
CONTINUOUS
 66
     1
 40
0.000000
 41
0.000000
  0
VERTEX
  8
FOREGROUND
  6
CONTINUOUS
 10
0.000000
 20
10.556040
  0
VERTEX
  8
FOREGROUND
  6
CONTINUOUS
 10
8.499920
 20
10.556040
  0
VERTEX
  8
FOREGROUND
  6
CONTINUOUS
 10
8.499920
 20
-0.443960
  0
VERTEX
  8
FOREGROUND
  6
CONTINUOUS
 10
0.000000
 20
-0.443960
  0
VERTEX
  8
FOREGROUND
  6
CONTINUOUS
 10
0.000000
 20
10.556040
  0
SEQEND
  8
0
  0
POLYLINE
  8
0
  6
CONTINUOUS
 66
     1
 40
0.014080
 41
0.014080
  0
VERTEX
  8
0
  6
CONTINUOUS
 10
3.019720
 20
7.390680
  0
VERTEX
  8
0
  6
CONTINUOUS
 10
3.019720
 20
9.148920
  0
VERTEX
  8
0
  6
CONTINUOUS
 10
3.140280
 20
9.167840
  0
VERTEX
  8
0
  6
CONTINUOUS
 10
3.129280
 20
9.193800
  0
VERTEX
  8
0
  6
CONTINUOUS
 10
3.118720
 20
9.231200
  0
VERTEX
  8
0
  6
CONTINUOUS
 10
3.113880
 20
9.267280
  0
VERTEX
  8
0
  6
CONTINUOUS
 10
3.113440
 20
9.290600
  0
VERTEX
  8
0
  6
CONTINUOUS
 10
3.114760
 20
9.312600
  0
VERTEX
  8
0
  6
CONTINUOUS
 10
3.117840
 20
9.333720
  0
VERTEX
  8
0
  6
CONTINUOUS
 10
3.128400
 20
9.372880
  0
VERTEX
  8
0
  6
CONTINUOUS
 10
3.142480
 20
9.406760
  0
VERTEX
  8
0
  6
CONTINUOUS
 10
3.164920
 20
9.447240
  0
VERTEX
  8
0
  6
CONTINUOUS
 10
3.197480
 20
9.494760
  0
VERTEX
  8
0
  6
CONTINUOUS
 10
3.217280
 20
9.533920
  0
VERTEX
  8
0
  6
CONTINUOUS
 10
3.235760
 20
9.582320
  0
VERTEX
  8
0
  6
CONTINUOUS
 10
3.246760
 20
9.619720
  0
VERTEX
  8
0
  6
CONTINUOUS
 10
3.259080
 20
9.681320
  0
VERTEX
  8
0
  6
CONTINUOUS
 10
3.264360
 20
9.726640
  0
VERTEX
  8
0
  6
CONTINUOUS
 10
3.432440
 20
9.738960
  0
VERTEX
  8
0
  6
CONTINUOUS
 10
3.433320
 20
9.814640
  0
VERTEX
  8
0
  6
CONTINUOUS
 10
3.436400
 20
9.852920
  0
VERTEX
  8
0
  6
CONTINUOUS
 10
3.442560
 20
9.884600
  0
VERTEX
  8
0
  6
CONTINUOUS
 10
3.446960
 20
9.899120
  0
VERTEX
  8
0
  6
CONTINUOUS
 10
3.460160
 20
9.925960
  0
VERTEX
  8
0
  6
CONTINUOUS
 10
3.479080
 20
9.952800
  0
VERTEX
  8
0
  6
CONTINUOUS
 10
3.530560
 20
10.008680
  0
VERTEX
  8
0
  6
CONTINUOUS
 10
3.566200
 20
10.046960
  0
VERTEX
  8
0
  6
CONTINUOUS
 10
3.590400
 20
10.083480
  0
VERTEX
  8
0
  6
CONTINUOUS
 10
3.601840
 20
10.109440
  0
VERTEX
  8
0
  6
CONTINUOUS
 10
3.606680
 20
10.126600
  0
VERTEX
  8
0
  6
CONTINUOUS
 10
3.609760
 20
10.143320
  0
VERTEX
  8
0
  6
CONTINUOUS
 10
3.611080
 20
10.177640
  0
VERTEX
  8
0
  6
CONTINUOUS
 10
3.604920
 20
10.230000
  0
VERTEX
  8
0
  6
CONTINUOUS
 10
3.591280
 20
10.307440
  0
VERTEX
  8
0
  6
CONTINUOUS
 10
5.253160
 20
10.307440
  0
VERTEX
  8
0
  6
CONTINUOUS
 10
5.236880
 20
10.211960
  0
VERTEX
  8
0
  6
CONTINUOUS
 10
5.233360
 20
10.177640
  0
VERTEX
  8
0
  6
CONTINUOUS
 10
5.234680
 20
10.143320
  0
VERTEX
  8
0
  6
CONTINUOUS
 10
5.237760
 20
10.126600
  0
VERTEX
  8
0
  6
CONTINUOUS
 10
5.242600
 20
10.109440
  0
VERTEX
  8
0
  6
CONTINUOUS
 10
5.254040
 20
10.083480
  0
VERTEX
  8
0
  6
CONTINUOUS
 10
5.270760
 20
10.056200
  0
VERTEX
  8
0
  6
CONTINUOUS
 10
5.303760
 20
10.018360
  0
VERTEX
  8
0
  6
CONTINUOUS
 10
5.352600
 20
9.967320
  0
VERTEX
  8
0
  6
CONTINUOUS
 10
5.375480
 20
9.939160
  0
VERTEX
  8
0
  6
CONTINUOUS
 10
5.391320
 20
9.912320
  0
VERTEX
  8
0
  6
CONTINUOUS
 10
5.397480
 20
9.899120
  0
VERTEX
  8
0
  6
CONTINUOUS
 10
5.405400
 20
9.869640
  0
VERTEX
  8
0
  6
CONTINUOUS
 10
5.409800
 20
9.834880
  0
VERTEX
  8
0
  6
CONTINUOUS
 10
5.412000
 20
9.779880
  0
VERTEX
  8
0
  6
CONTINUOUS
 10
5.412000
 20
9.738960
  0
VERTEX
  8
0
  6
CONTINUOUS
 10
5.580080
 20
9.726640
  0
VERTEX
  8
0
  6
CONTINUOUS
 10
5.585360
 20
9.681320
  0
VERTEX
  8
0
  6
CONTINUOUS
 10
5.597680
 20
9.619720
  0
VERTEX
  8
0
  6
CONTINUOUS
 10
5.614840
 20
9.565160
  0
VERTEX
  8
0
  6
CONTINUOUS
 10
5.633760
 20
9.519840
  0
VERTEX
  8
0
  6
CONTINUOUS
 10
5.653560
 20
9.484200
  0
VERTEX
  8
0
  6
CONTINUOUS
 10
5.687000
 20
9.435360
  0
VERTEX
  8
0
  6
CONTINUOUS
 10
5.709440
 20
9.390480
  0
VERTEX
  8
0
  6
CONTINUOUS
 10
5.721760
 20
9.353960
  0
VERTEX
  8
0
  6
CONTINUOUS
 10
5.729680
 20
9.312600
  0
VERTEX
  8
0
  6
CONTINUOUS
 10
5.731000
 20
9.290600
  0
VERTEX
  8
0
  6
CONTINUOUS
 10
5.730560
 20
9.267280
  0
VERTEX
  8
0
  6
CONTINUOUS
 10
5.725720
 20
9.231200
  0
VERTEX
  8
0
  6
CONTINUOUS
 10
5.714720
 20
9.193800
  0
VERTEX
  8
0
  6
CONTINUOUS
 10
5.703720
 20
9.167840
  0
VERTEX
  8
0
  6
CONTINUOUS
 10
5.824280
 20
9.148920
  0
VERTEX
  8
0
  6
CONTINUOUS
 10
5.824280
 20
7.390680
  0
VERTEX
  8
0
  6
CONTINUOUS
 10
3.019720
 20
7.390680
  0
SEQEND
  8
0
  0
POLYLINE
  8
0
  6
CONTINUOUS
 66
     1
 40
0.000000
 41
0.000000
  0
VERTEX
  8
0
  6
CONTINUOUS
 10
2.793120
 20
0.247280
  0
VERTEX
  8
0
  6
CONTINUOUS
 10
2.793120
 20
2.005080
  0
VERTEX
  8
0
  6
CONTINUOUS
 10
2.913680
 20
2.024440
  0
VERTEX
  8
0
  6
CONTINUOUS
 10
2.898280
 20
2.063160
  0
VERTEX
  8
0
  6
CONTINUOUS
 10
2.889480
 20
2.100120
  0
VERTEX
  8
0
  6
CONTINUOUS
 10
2.886840
 20
2.123880
  0
VERTEX
  8
0
  6
CONTINUOUS
 10
2.886400
 20
2.147200
  0
VERTEX
  8
0
  6
CONTINUOUS
 10
2.887720
 20
2.169200
  0
VERTEX
  8
0
  6
CONTINUOUS
 10
2.895640
 20
2.210560
  0
VERTEX
  8
0
  6
CONTINUOUS
 10
2.907960
 20
2.247080
  0
VERTEX
  8
0
  6
CONTINUOUS
 10
2.930400
 20
2.291960
  0
VERTEX
  8
0
  6
CONTINUOUS
 10
2.970440
 20
2.351360
  0
VERTEX
  8
0
  6
CONTINUOUS
 10
2.990240
 20
2.390520
  0
VERTEX
  8
0
  6
CONTINUOUS
 10
3.008720
 20
2.438920
  0
VERTEX
  8
0
  6
CONTINUOUS
 10
3.019720
 20
2.475880
  0
VERTEX
  8
0
  6
CONTINUOUS
 10
3.032040
 20
2.537920
  0
VERTEX
  8
0
  6
CONTINUOUS
 10
3.037320
 20
2.582800
  0
VERTEX
  8
0
  6
CONTINUOUS
 10
3.205400
 20
2.595560
  0
VERTEX
  8
0
  6
CONTINUOUS
 10
3.206280
 20
2.671240
  0
VERTEX
  8
0
  6
CONTINUOUS
 10
3.209360
 20
2.709520
  0
VERTEX
  8
0
  6
CONTINUOUS
 10
3.215520
 20
2.741200
  0
VERTEX
  8
0
  6
CONTINUOUS
 10
3.219920
 20
2.755720
  0
VERTEX
  8
0
  6
CONTINUOUS
 10
3.233120
 20
2.782560
  0
VERTEX
  8
0
  6
CONTINUOUS
 10
3.252480
 20
2.809400
  0
VERTEX
  8
0
  6
CONTINUOUS
 10
3.303960
 20
2.865280
  0
VERTEX
  8
0
  6
CONTINUOUS
 10
3.339600
 20
2.903560
  0
VERTEX
  8
0
  6
CONTINUOUS
 10
3.358520
 20
2.930840
  0
VERTEX
  8
0
  6
CONTINUOUS
 10
3.367760
 20
2.948440
  0
VERTEX
  8
0
  6
CONTINUOUS
 10
3.374800
 20
2.966040
  0
VERTEX
  8
0
  6
CONTINUOUS
 10
3.379640
 20
2.983200
  0
VERTEX
  8
0
  6
CONTINUOUS
 10
3.382720
 20
2.999920
  0
VERTEX
  8
0
  6
CONTINUOUS
 10
3.384040
 20
3.033800
  0
VERTEX
  8
0
  6
CONTINUOUS
 10
3.377880
 20
3.086600
  0
VERTEX
  8
0
  6
CONTINUOUS
 10
3.364240
 20
3.163600
  0
VERTEX
  8
0
  6
CONTINUOUS
 10
5.026120
 20
3.163600
  0
VERTEX
  8
0
  6
CONTINUOUS
 10
5.009840
 20
3.068560
  0
VERTEX
  8
0
  6
CONTINUOUS
 10
5.006320
 20
3.033800
  0
VERTEX
  8
0
  6
CONTINUOUS
 10
5.007640
 20
2.999920
  0
VERTEX
  8
0
  6
CONTINUOUS
 10
5.010720
 20
2.983200
  0
VERTEX
  8
0
  6
CONTINUOUS
 10
5.015560
 20
2.966040
  0
VERTEX
  8
0
  6
CONTINUOUS
 10
5.027000
 20
2.940080
  0
VERTEX
  8
0
  6
CONTINUOUS
 10
5.051200
 20
2.903560
  0
VERTEX
  8
0
  6
CONTINUOUS
 10
5.126000
 20
2.823920
  0
VERTEX
  8
0
  6
CONTINUOUS
 10
5.148440
 20
2.795760
  0
VERTEX
  8
0
  6
CONTINUOUS
 10
5.164280
 20
2.768920
  0
VERTEX
  8
0
  6
CONTINUOUS
 10
5.170440
 20
2.755720
  0
VERTEX
  8
0
  6
CONTINUOUS
 10
5.178360
 20
2.726240
  0
VERTEX
  8
0
  6
CONTINUOUS
 10
5.182760
 20
2.691480
  0
VERTEX
  8
0
  6
CONTINUOUS
 10
5.184960
 20
2.636480
  0
VERTEX
  8
0
  6
CONTINUOUS
 10
5.184960
 20
2.595560
  0
VERTEX
  8
0
  6
CONTINUOUS
 10
5.353040
 20
2.582800
  0
VERTEX
  8
0
  6
CONTINUOUS
 10
5.358320
 20
2.537920
  0
VERTEX
  8
0
  6
CONTINUOUS
 10
5.370640
 20
2.475880
  0
VERTEX
  8
0
  6
CONTINUOUS
 10
5.387800
 20
2.421760
  0
VERTEX
  8
0
  6
CONTINUOUS
 10
5.406720
 20
2.376440
  0
VERTEX
  8
0
  6
CONTINUOUS
 10
5.426520
 20
2.340800
  0
VERTEX
  8
0
  6
CONTINUOUS
 10
5.459960
 20
2.291960
  0
VERTEX
  8
0
  6
CONTINUOUS
 10
5.482400
 20
2.247080
  0
VERTEX
  8
0
  6
CONTINUOUS
 10
5.494720
 20
2.210560
  0
VERTEX
  8
0
  6
CONTINUOUS
 10
5.499560
 20
2.190320
  0
VERTEX
  8
0
  6
CONTINUOUS
 10
5.502640
 20
2.169200
  0
VERTEX
  8
0
  6
CONTINUOUS
 10
5.503960
 20
2.147200
  0
VERTEX
  8
0
  6
CONTINUOUS
 10
5.502640
 20
2.112440
  0
VERTEX
  8
0
  6
CONTINUOUS
 10
5.496040
 20
2.075480
  0
VERTEX
  8
0
  6
CONTINUOUS
 10
5.482840
 20
2.037640
  0
VERTEX
  8
0
  6
CONTINUOUS
 10
5.477120
 20
2.024440
  0
VERTEX
  8
0
  6
CONTINUOUS
 10
5.597680
 20
2.005080
  0
VERTEX
  8
0
  6
CONTINUOUS
 10
5.597680
 20
0.247280
  0
VERTEX
  8
0
  6
CONTINUOUS
 10
2.793120
 20
0.247280
  0
SEQEND
  8
0
  0
SOLID
  8
0
 62
    15
 10
5.008520
 20
6.118640
 11
5.522440
 21
6.642240
 12
5.176600
 22
6.105880
 13
5.690520
 23
6.629920
  0
POLYLINE
  8
0
  6
CONTINUOUS
 66
     1
 40
0.000000
 41
0.000000
  0
VERTEX
  8
0
  6
CONTINUOUS
 10
5.008520
 20
6.118640
  0
VERTEX
  8
0
  6
CONTINUOUS
 10
5.522440
 20
6.642240
  0
VERTEX
  8
0
  6
CONTINUOUS
 10
5.690520
 20
6.629920
  0
VERTEX
  8
0
  6
CONTINUOUS
 10
5.176600
 20
6.105880
  0
VERTEX
  8
0
  6
CONTINUOUS
 10
5.008520
 20
6.118640
  0
SEQEND
  8
0
  0
SOLID
  8
0
 62
    15
 10
2.860880
 20
6.105880
 11
3.374800
 21
6.629920
 12
3.028960
 22
6.118640
 13
3.542880
 23
6.642240
  0
POLYLINE
  8
0
  6
CONTINUOUS
 66
     1
 40
0.000000
 41
0.000000
  0
VERTEX
  8
0
  6
CONTINUOUS
 10
2.860880
 20
6.105880
  0
VERTEX
  8
0
  6
CONTINUOUS
 10
3.374800
 20
6.629920
  0
VERTEX
  8
0
  6
CONTINUOUS
 10
3.542880
 20
6.642240
  0
VERTEX
  8
0
  6
CONTINUOUS
 10
3.028960
 20
6.118640
  0
VERTEX
  8
0
  6
CONTINUOUS
 10
2.860880
 20
6.105880
  0
SEQEND
  8
0
  0
SOLID
  8
0
 62
    15
 10
3.187800
 20
6.686680
 11
3.701720
 21
7.210720
 12
4.849680
 22
6.686680
 13
5.363600
 23
7.210720
  0
POLYLINE
  8
0
  6
CONTINUOUS
 66
     1
 40
0.000000
 41
0.000000
  0
VERTEX
  8
0
  6
CONTINUOUS
 10
3.187800
 20
6.686680
  0
VERTEX
  8
0
  6
CONTINUOUS
 10
3.701720
 20
7.210720
  0
VERTEX
  8
0
  6
CONTINUOUS
 10
5.363600
 20
7.210720
  0
VERTEX
  8
0
  6
CONTINUOUS
 10
4.849680
 20
6.686680
  0
VERTEX
  8
0
  6
CONTINUOUS
 10
3.187800
 20
6.686680
  0
SEQEND
  8
0
  0
SOLID
  8
0
 62
    15
 10
4.849680
 20
6.686680
 11
5.363600
 21
7.210720
 12
4.829880
 22
6.540160
 13
5.343800
 23
7.063760
  0
POLYLINE
  8
0
  6
CONTINUOUS
 66
     1
 40
0.000000
 41
0.000000
  0
VERTEX
  8
0
  6
CONTINUOUS
 10
4.849680
 20
6.686680
  0
VERTEX
  8
0
  6
CONTINUOUS
 10
5.363600
 20
7.210720
  0
VERTEX
  8
0
  6
CONTINUOUS
 10
5.343800
 20
7.063760
  0
VERTEX
  8
0
  6
CONTINUOUS
 10
4.829880
 20
6.540160
  0
VERTEX
  8
0
  6
CONTINUOUS
 10
4.849680
 20
6.686680
  0
SEQEND
  8
0
  0
SOLID
  8
0
 62
    15
 10
4.829880
 20
6.540160
 11
5.343800
 21
7.063760
 12
4.846160
 22
6.471960
 13
5.360080
 23
6.995560
  0
POLYLINE
  8
0
  6
CONTINUOUS
 66
     1
 40
0.000000
 41
0.000000
  0
VERTEX
  8
0
  6
CONTINUOUS
 10
4.829880
 20
6.540160
  0
VERTEX
  8
0
  6
CONTINUOUS
 10
5.343800
 20
7.063760
  0
VERTEX
  8
0
  6
CONTINUOUS
 10
5.360080
 20
6.995560
  0
VERTEX
  8
0
  6
CONTINUOUS
 10
4.846160
 20
6.471960
  0
VERTEX
  8
0
  6
CONTINUOUS
 10
4.829880
 20
6.540160
  0
SEQEND
  8
0
  0
SOLID
  8
0
 62
    15
 10
4.846160
 20
6.471960
 11
5.360080
 21
6.995560
 12
4.900720
 22
6.398040
 13
5.414640
 23
6.921640
  0
POLYLINE
  8
0
  6
CONTINUOUS
 66
     1
 40
0.000000
 41
0.000000
  0
VERTEX
  8
0
  6
CONTINUOUS
 10
4.846160
 20
6.471960
  0
VERTEX
  8
0
  6
CONTINUOUS
 10
5.360080
 20
6.995560
  0
VERTEX
  8
0
  6
CONTINUOUS
 10
5.414640
 20
6.921640
  0
VERTEX
  8
0
  6
CONTINUOUS
 10
4.900720
 20
6.398040
  0
VERTEX
  8
0
  6
CONTINUOUS
 10
4.846160
 20
6.471960
  0
SEQEND
  8
0
  0
SOLID
  8
0
 62
    15
 10
4.900720
 20
6.398040
 11
5.414640
 21
6.921640
 12
4.961440
 22
6.332480
 13
5.475360
 23
6.856080
  0
POLYLINE
  8
0
  6
CONTINUOUS
 66
     1
 40
0.000000
 41
0.000000
  0
VERTEX
  8
0
  6
CONTINUOUS
 10
4.900720
 20
6.398040
  0
VERTEX
  8
0
  6
CONTINUOUS
 10
5.414640
 20
6.921640
  0
VERTEX
  8
0
  6
CONTINUOUS
 10
5.475360
 20
6.856080
  0
VERTEX
  8
0
  6
CONTINUOUS
 10
4.961440
 20
6.332480
  0
VERTEX
  8
0
  6
CONTINUOUS
 10
4.900720
 20
6.398040
  0
SEQEND
  8
0
  0
SOLID
  8
0
 62
    15
 10
4.961440
 20
6.332480
 11
5.475360
 21
6.856080
 12
4.994000
 22
6.278800
 13
5.507480
 23
6.802400
  0
POLYLINE
  8
0
  6
CONTINUOUS
 66
     1
 40
0.000000
 41
0.000000
  0
VERTEX
  8
0
  6
CONTINUOUS
 10
4.961440
 20
6.332480
  0
VERTEX
  8
0
  6
CONTINUOUS
 10
5.475360
 20
6.856080
  0
VERTEX
  8
0
  6
CONTINUOUS
 10
5.507480
 20
6.802400
  0
VERTEX
  8
0
  6
CONTINUOUS
 10
4.994000
 20
6.278800
  0
VERTEX
  8
0
  6
CONTINUOUS
 10
4.961440
 20
6.332480
  0
SEQEND
  8
0
  0
SOLID
  8
0
 62
    15
 10
4.994000
 20
6.278800
 11
5.507480
 21
6.802400
 12
5.006320
 22
6.214560
 13
5.520240
 23
6.738160
  0
POLYLINE
  8
0
  6
CONTINUOUS
 66
     1
 40
0.000000
 41
0.000000
  0
VERTEX
  8
0
  6
CONTINUOUS
 10
4.994000
 20
6.278800
  0
VERTEX
  8
0
  6
CONTINUOUS
 10
5.507480
 20
6.802400
  0
VERTEX
  8
0
  6
CONTINUOUS
 10
5.520240
 20
6.738160
  0
VERTEX
  8
0
  6
CONTINUOUS
 10
5.006320
 20
6.214560
  0
VERTEX
  8
0
  6
CONTINUOUS
 10
4.994000
 20
6.278800
  0
SEQEND
  8
0
  0
SOLID
  8
0
 62
    15
 10
5.006320
 20
6.214560
 11
5.520240
 21
6.738160
 12
5.008520
 22
6.118640
 13
5.522440
 23
6.642240
  0
POLYLINE
  8
0
  6
CONTINUOUS
 66
     1
 40
0.000000
 41
0.000000
  0
VERTEX
  8
0
  6
CONTINUOUS
 10
5.006320
 20
6.214560
  0
VERTEX
  8
0
  6
CONTINUOUS
 10
5.520240
 20
6.738160
  0
VERTEX
  8
0
  6
CONTINUOUS
 10
5.522440
 20
6.642240
  0
VERTEX
  8
0
  6
CONTINUOUS
 10
5.008520
 20
6.118640
  0
VERTEX
  8
0
  6
CONTINUOUS
 10
5.006320
 20
6.214560
  0
SEQEND
  8
0
  0
SOLID
  8
0
 62
    15
 10
2.616240
 20
5.528600
 11
3.130160
 21
6.052200
 12
2.737240
 22
5.547520
 13
3.251160
 23
6.071120
  0
POLYLINE
  8
0
  6
CONTINUOUS
 66
     1
 40
0.000000
 41
0.000000
  0
VERTEX
  8
0
  6
CONTINUOUS
 10
2.616240
 20
5.528600
  0
VERTEX
  8
0
  6
CONTINUOUS
 10
3.130160
 20
6.052200
  0
VERTEX
  8
0
  6
CONTINUOUS
 10
3.251160
 20
6.071120
  0
VERTEX
  8
0
  6
CONTINUOUS
 10
2.737240
 20
5.547520
  0
VERTEX
  8
0
  6
CONTINUOUS
 10
2.616240
 20
5.528600
  0
SEQEND
  8
0
  0
SOLID
  8
0
 62
    15
 10
5.176600
 20
6.105880
 11
5.690520
 21
6.629920
 12
5.189800
 22
6.018760
 13
5.703720
 23
6.542800
  0
POLYLINE
  8
0
  6
CONTINUOUS
 66
     1
 40
0.000000
 41
0.000000
  0
VERTEX
  8
0
  6
CONTINUOUS
 10
5.176600
 20
6.105880
  0
VERTEX
  8
0
  6
CONTINUOUS
 10
5.690520
 20
6.629920
  0
VERTEX
  8
0
  6
CONTINUOUS
 10
5.703720
 20
6.542800
  0
VERTEX
  8
0
  6
CONTINUOUS
 10
5.189800
 20
6.018760
  0
VERTEX
  8
0
  6
CONTINUOUS
 10
5.176600
 20
6.105880
  0
SEQEND
  8
0
  0
SOLID
  8
0
 62
    15
 10
5.189800
 20
6.018760
 11
5.703720
 21
6.542800
 12
5.211360
 22
5.944840
 13
5.725280
 23
6.468880
  0
POLYLINE
  8
0
  6
CONTINUOUS
 66
     1
 40
0.000000
 41
0.000000
  0
VERTEX
  8
0
  6
CONTINUOUS
 10
5.189800
 20
6.018760
  0
VERTEX
  8
0
  6
CONTINUOUS
 10
5.703720
 20
6.542800
  0
VERTEX
  8
0
  6
CONTINUOUS
 10
5.725280
 20
6.468880
  0
VERTEX
  8
0
  6
CONTINUOUS
 10
5.211360
 20
5.944840
  0
VERTEX
  8
0
  6
CONTINUOUS
 10
5.189800
 20
6.018760
  0
SEQEND
  8
0
  0
SOLID
  8
0
 62
    15
 10
5.211360
 20
5.944840
 11
5.725280
 21
6.468880
 12
5.236880
 22
5.886320
 13
5.750800
 23
6.410360
  0
POLYLINE
  8
0
  6
CONTINUOUS
 66
     1
 40
0.000000
 41
0.000000
  0
VERTEX
  8
0
  6
CONTINUOUS
 10
5.211360
 20
5.944840
  0
VERTEX
  8
0
  6
CONTINUOUS
 10
5.725280
 20
6.468880
  0
VERTEX
  8
0
  6
CONTINUOUS
 10
5.750800
 20
6.410360
  0
VERTEX
  8
0
  6
CONTINUOUS
 10
5.236880
 20
5.886320
  0
VERTEX
  8
0
  6
CONTINUOUS
 10
5.211360
 20
5.944840
  0
SEQEND
  8
0
  0
SOLID
  8
0
 62
    15
 10
5.236880
 20
5.886320
 11
5.750800
 21
6.410360
 12
5.262400
 22
5.845840
 13
5.776320
 23
6.369440
  0
POLYLINE
  8
0
  6
CONTINUOUS
 66
     1
 40
0.000000
 41
0.000000
  0
VERTEX
  8
0
  6
CONTINUOUS
 10
5.236880
 20
5.886320
  0
VERTEX
  8
0
  6
CONTINUOUS
 10
5.750800
 20
6.410360
  0
VERTEX
  8
0
  6
CONTINUOUS
 10
5.776320
 20
6.369440
  0
VERTEX
  8
0
  6
CONTINUOUS
 10
5.262400
 20
5.845840
  0
VERTEX
  8
0
  6
CONTINUOUS
 10
5.236880
 20
5.886320
  0
SEQEND
  8
0
  0
SOLID
  8
0
 62
    15
 10
5.262400
 20
5.845840
 11
5.776320
 21
6.369440
 12
5.291000
 22
5.801400
 13
5.804920
 23
6.325000
  0
POLYLINE
  8
0
  6
CONTINUOUS
 66
     1
 40
0.000000
 41
0.000000
  0
VERTEX
  8
0
  6
CONTINUOUS
 10
5.262400
 20
5.845840
  0
VERTEX
  8
0
  6
CONTINUOUS
 10
5.776320
 20
6.369440
  0
VERTEX
  8
0
  6
CONTINUOUS
 10
5.804920
 20
6.325000
  0
VERTEX
  8
0
  6
CONTINUOUS
 10
5.291000
 20
5.801400
  0
VERTEX
  8
0
  6
CONTINUOUS
 10
5.262400
 20
5.845840
  0
SEQEND
  8
0
  0
SOLID
  8
0
 62
    15
 10
5.291000
 20
5.801400
 11
5.804920
 21
6.325000
 12
5.318280
 22
5.733640
 13
5.832200
 23
6.257240
  0
POLYLINE
  8
0
  6
CONTINUOUS
 66
     1
 40
0.000000
 41
0.000000
  0
VERTEX
  8
0
  6
CONTINUOUS
 10
5.291000
 20
5.801400
  0
VERTEX
  8
0
  6
CONTINUOUS
 10
5.804920
 20
6.325000
  0
VERTEX
  8
0
  6
CONTINUOUS
 10
5.832200
 20
6.257240
  0
VERTEX
  8
0
  6
CONTINUOUS
 10
5.318280
 20
5.733640
  0
VERTEX
  8
0
  6
CONTINUOUS
 10
5.291000
 20
5.801400
  0
SEQEND
  8
0
  0
SOLID
  8
0
 62
    15
 10
5.318280
 20
5.733640
 11
5.832200
 21
6.257240
 12
5.327080
 22
5.647400
 13
5.841000
 23
6.171000
  0
POLYLINE
  8
0
  6
CONTINUOUS
 66
     1
 40
0.000000
 41
0.000000
  0
VERTEX
  8
0
  6
CONTINUOUS
 10
5.318280
 20
5.733640
  0
VERTEX
  8
0
  6
CONTINUOUS
 10
5.832200
 20
6.257240
  0
VERTEX
  8
0
  6
CONTINUOUS
 10
5.841000
 20
6.171000
  0
VERTEX
  8
0
  6
CONTINUOUS
 10
5.327080
 20
5.647400
  0
VERTEX
  8
0
  6
CONTINUOUS
 10
5.318280
 20
5.733640
  0
SEQEND
  8
0
  0
SOLID
  8
0
 62
    15
 10
5.327080
 20
5.647400
 11
5.841000
 21
6.171000
 12
5.300680
 22
5.547520
 13
5.814160
 23
6.071120
  0
POLYLINE
  8
0
  6
CONTINUOUS
 66
     1
 40
0.000000
 41
0.000000
  0
VERTEX
  8
0
  6
CONTINUOUS
 10
5.327080
 20
5.647400
  0
VERTEX
  8
0
  6
CONTINUOUS
 10
5.841000
 20
6.171000
  0
VERTEX
  8
0
  6
CONTINUOUS
 10
5.814160
 20
6.071120
  0
VERTEX
  8
0
  6
CONTINUOUS
 10
5.300680
 20
5.547520
  0
VERTEX
  8
0
  6
CONTINUOUS
 10
5.327080
 20
5.647400
  0
SEQEND
  8
0
  0
SOLID
  8
0
 62
    15
 10
5.300680
 20
5.547520
 11
5.814160
 21
6.071120
 12
5.421240
 22
5.528600
 13
5.935160
 23
6.052200
  0
POLYLINE
  8
0
  6
CONTINUOUS
 66
     1
 40
0.000000
 41
0.000000
  0
VERTEX
  8
0
  6
CONTINUOUS
 10
5.300680
 20
5.547520
  0
VERTEX
  8
0
  6
CONTINUOUS
 10
5.814160
 20
6.071120
  0
VERTEX
  8
0
  6
CONTINUOUS
 10
5.935160
 20
6.052200
  0
VERTEX
  8
0
  6
CONTINUOUS
 10
5.421240
 20
5.528600
  0
VERTEX
  8
0
  6
CONTINUOUS
 10
5.300680
 20
5.547520
  0
SEQEND
  8
0
  0
SOLID
  8
0
 62
    15
 10
5.421240
 20
5.528600
 11
5.935160
 21
6.052200
 12
5.421240
 22
3.770360
 13
5.935160
 23
4.293960
  0
POLYLINE
  8
0
  6
CONTINUOUS
 66
     1
 40
0.000000
 41
0.000000
  0
VERTEX
  8
0
  6
CONTINUOUS
 10
5.421240
 20
5.528600
  0
VERTEX
  8
0
  6
CONTINUOUS
 10
5.935160
 20
6.052200
  0
VERTEX
  8
0
  6
CONTINUOUS
 10
5.935160
 20
4.293960
  0
VERTEX
  8
0
  6
CONTINUOUS
 10
5.421240
 20
3.770360
  0
VERTEX
  8
0
  6
CONTINUOUS
 10
5.421240
 20
5.528600
  0
SEQEND
  8
0
  0
POLYLINE
  8
0
  6
CONTINUOUS
 66
     1
 40
0.000000
 41
0.000000
  0
VERTEX
  8
0
  6
CONTINUOUS
 10
2.616240
 20
3.770360
  0
VERTEX
  8
0
  6
CONTINUOUS
 10
2.616240
 20
5.528600
  0
VERTEX
  8
0
  6
CONTINUOUS
 10
2.737240
 20
5.547520
  0
VERTEX
  8
0
  6
CONTINUOUS
 10
2.710400
 20
5.647400
  0
VERTEX
  8
0
  6
CONTINUOUS
 10
2.719200
 20
5.733640
  0
VERTEX
  8
0
  6
CONTINUOUS
 10
2.746480
 20
5.801400
  0
VERTEX
  8
0
  6
CONTINUOUS
 10
2.775080
 20
5.845840
  0
VERTEX
  8
0
  6
CONTINUOUS
 10
2.800600
 20
5.886320
  0
VERTEX
  8
0
  6
CONTINUOUS
 10
2.826120
 20
5.944840
  0
VERTEX
  8
0
  6
CONTINUOUS
 10
2.848120
 20
6.018760
  0
VERTEX
  8
0
  6
CONTINUOUS
 10
2.860880
 20
6.105880
  0
VERTEX
  8
0
  6
CONTINUOUS
 10
3.028960
 20
6.118640
  0
VERTEX
  8
0
  6
CONTINUOUS
 10
3.031160
 20
6.214560
  0
VERTEX
  8
0
  6
CONTINUOUS
 10
3.043920
 20
6.278800
  0
VERTEX
  8
0
  6
CONTINUOUS
 10
3.076040
 20
6.332480
  0
VERTEX
  8
0
  6
CONTINUOUS
 10
3.136760
 20
6.398040
  0
VERTEX
  8
0
  6
CONTINUOUS
 10
3.191320
 20
6.471960
  0
VERTEX
  8
0
  6
CONTINUOUS
 10
3.207600
 20
6.540160
  0
VERTEX
  8
0
  6
CONTINUOUS
 10
3.187800
 20
6.686680
  0
VERTEX
  8
0
  6
CONTINUOUS
 10
4.849680
 20
6.686680
  0
VERTEX
  8
0
  6
CONTINUOUS
 10
4.829880
 20
6.540160
  0
VERTEX
  8
0
  6
CONTINUOUS
 10
4.846160
 20
6.471960
  0
VERTEX
  8
0
  6
CONTINUOUS
 10
4.900720
 20
6.398040
  0
VERTEX
  8
0
  6
CONTINUOUS
 10
4.961440
 20
6.332480
  0
VERTEX
  8
0
  6
CONTINUOUS
 10
4.994000
 20
6.278800
  0
VERTEX
  8
0
  6
CONTINUOUS
 10
5.006320
 20
6.214560
  0
VERTEX
  8
0
  6
CONTINUOUS
 10
5.008520
 20
6.118640
  0
VERTEX
  8
0
  6
CONTINUOUS
 10
5.176600
 20
6.105880
  0
VERTEX
  8
0
  6
CONTINUOUS
 10
5.189800
 20
6.018760
  0
VERTEX
  8
0
  6
CONTINUOUS
 10
5.211360
 20
5.944840
  0
VERTEX
  8
0
  6
CONTINUOUS
 10
5.236880
 20
5.886320
  0
VERTEX
  8
0
  6
CONTINUOUS
 10
5.262400
 20
5.845840
  0
VERTEX
  8
0
  6
CONTINUOUS
 10
5.291000
 20
5.801400
  0
VERTEX
  8
0
  6
CONTINUOUS
 10
5.318280
 20
5.733640
  0
VERTEX
  8
0
  6
CONTINUOUS
 10
5.327080
 20
5.647400
  0
VERTEX
  8
0
  6
CONTINUOUS
 10
5.300680
 20
5.547520
  0
VERTEX
  8
0
  6
CONTINUOUS
 10
5.421240
 20
5.528600
  0
VERTEX
  8
0
  6
CONTINUOUS
 10
5.421240
 20
3.770360
  0
VERTEX
  8
0
  6
CONTINUOUS
 10
2.616240
 20
3.770360
  0
SEQEND
  8
0
  0
TEXT
  8
0
 10
3.934040
 20
3.525280
 40
0.138362
  1
BA  1260
 41
1.000000
  7
SN0
 71
     0
 72
     5
 11
4.619287
 21
3.525280
  0
TEXT
  8
0
 10
3.566200
 20
3.333880
 40
0.138362
  1
2-13/16" x 2-15/16"
 41
1.000000
  7
SN0
 71
     0
 72
     5
 11
4.989018
 21
3.333880
  0
TEXT
  8
0
 10
4.120600
 20
7.730800
 40
0.138362
  1
BA  1260
 41
1.000000
  7
SN0
 71
     0
 72
     5
 11
4.805847
 21
7.730800
  0
TEXT
  8
0
 10
3.752320
 20
7.539400
 40
0.138362
  1
2-13/16" x 2-15/16"
 41
1.000000
  7
SN0
 71
     0
 72
     5
 11
5.175138
 21
7.539400
  0
ENDSEC
  0
EOF
