  0
SECTION
  2
HEADER
  9
$ACADVER
  1
AC1006
  9
$EXTMIN
 10
2.893880
 20
0.412280
  9
$EXTMAX
 10
6.699440
 20
10.618520
  9
$LTSCALE
 40
0.044000
  9
$PDMODE
 70
    35
  9
$PDSIZE
 40
0.035200
  0
ENDSEC
  0
SECTION
  2
TABLES
  0
TABLE
  2
LTYPE
 70
     9
  0
LTYPE
  2
CONTINUOUS
 70
    64
  3
Solid line
 72
    65
 73
     0
 40
0.000000
  0
LTYPE
  2
DASHED
 70
    64
  3
__ __ __ __ __ __ __ __ __ __ __ __ __ __ __
 72
    65
 73
     2
 40
0.000330
 49
0.000220
 49
-0.000110
  0
LTYPE
  2
HIDDEN
 70
    64
  3
 _ _ _ _ _ _ _ _ _ _ _ _ _ _ _ _ _ _ _ _ _ _
 72
    65
 73
     2
 40
0.000165
 49
0.000110
 49
-0.000055
  0
LTYPE
  2
CENTER
 70
    64
  3
____ _ ____ _ ____ _ ____ _ ____ _ ____ _ ____
 72
    65
 73
     4
 40
0.000880
 49
0.000550
 49
-0.000110
 49
0.000110
 49
-0.000110
  0
LTYPE
  2
PHANTOM
 70
    64
  3
_____ _ _ _____ _ _ _____ _ _ _____ _ _ ____
 72
    65
 73
     6
 40
0.001100
 49
0.000550
 49
-0.000110
 49
0.000110
 49
-0.000110
 49
0.000110
 49
-0.000110
  0
LTYPE
  2
DOT
 70
    64
  3
...............................................
 72
    65
 73
     2
 40
0.000110
 49
0.000000
 49
-0.000110
  0
LTYPE
  2
DASHDOT
 70
    64
  3
__ . __ . __ . __ . __ . __ . __ . __ . __ . __
 72
    65
 73
     4
 40
0.000440
 49
0.000220
 49
-0.000110
 49
0.000000
 49
-0.000110
  0
LTYPE
  2
BORDER
 70
    64
  3
__ __ . __ __ . __ __ . __ __ . __ __ . __ __
 72
    65
 73
     6
 40
0.000770
 49
0.000220
 49
-0.000110
 49
0.000220
 49
-0.000110
 49
0.000000
 49
-0.000110
  0
LTYPE
  2
DIVIDE
 70
    64
  3
__ . . __ . . __ . . __ . . __ . . __ . . __
 72
    65
 73
     6
 40
0.000550
 49
0.000220
 49
-0.000110
 49
0.000000
 49
-0.000110
 49
0.000000
 49
-0.000110
  0
LTYPE
  2
DOTDOT
 70
    64
  3
 . .  . .  . .  . .  . .  . . 
 72
    65
 73
     5
 40
0.000242
 49
-0.000110
 49
0.000000
 49
-0.000110
 49
0.000000
 49
-0.000110
  0
ENDTAB
  0
TABLE
  2
STYLE
 70
     2
  0
STYLE
 70
     0
  2
SN0
 40
0.000000
 41
0.000440
 50
0.000000
 71
     0
 42
0.000000
  3
ROMAND
  0
STYLE
 70
    68
  2
SV0
 40
0.000000
 41
0.000440
 50
0.000000
 71
     0
 42
0.000000
  3
ROMAND
  0
ENDTAB
  0
TABLE
  2
LAYER
 70
     3
  0
LAYER
  2
FOREGROUND
 70
    64
 62
     7
  6
CONTINUOUS
  0
LAYER
  2
BACKGROUND
 70
    65
 62
    -7
  6
CONTINUOUS
  0
LAYER
  2
0
 70
    64
 62
     7
  6
CONTINUOUS
  0
ENDTAB
  0
ENDSEC
  0
SECTION
  2
ENTITIES
  0
POLYLINE
  8
FOREGROUND
  6
CONTINUOUS
 66
     1
 40
0.000000
 41
0.000000
  0
VERTEX
  8
FOREGROUND
  6
CONTINUOUS
 10
0.000000
 20
11.030800
  0
VERTEX
  8
FOREGROUND
  6
CONTINUOUS
 10
8.499920
 20
11.030800
  0
VERTEX
  8
FOREGROUND
  6
CONTINUOUS
 10
8.499920
 20
0.030800
  0
VERTEX
  8
FOREGROUND
  6
CONTINUOUS
 10
0.000000
 20
0.030800
  0
VERTEX
  8
FOREGROUND
  6
CONTINUOUS
 10
0.000000
 20
11.030800
  0
SEQEND
  8
0
  0
POLYLINE
  8
FOREGROUND
  6
CONTINUOUS
 66
     1
 40
0.000000
 41
0.000000
  0
VERTEX
  8
FOREGROUND
  6
CONTINUOUS
 10
0.000000
 20
11.030800
  0
VERTEX
  8
FOREGROUND
  6
CONTINUOUS
 10
8.499920
 20
11.030800
  0
VERTEX
  8
FOREGROUND
  6
CONTINUOUS
 10
8.499920
 20
0.030800
  0
VERTEX
  8
FOREGROUND
  6
CONTINUOUS
 10
0.000000
 20
0.030800
  0
VERTEX
  8
FOREGROUND
  6
CONTINUOUS
 10
0.000000
 20
11.030800
  0
SEQEND
  8
0
  0
POLYLINE
  8
0
  6
CONTINUOUS
 66
     1
 40
0.014080
 41
0.014080
  0
VERTEX
  8
0
  6
CONTINUOUS
 10
5.390000
 20
7.800760
  0
VERTEX
  8
0
  6
CONTINUOUS
 10
5.390000
 20
7.624760
  0
VERTEX
  8
0
  6
CONTINUOUS
 10
5.588880
 20
7.624760
  0
VERTEX
  8
0
  6
CONTINUOUS
 10
5.588880
 20
8.114480
  0
VERTEX
  8
0
  6
CONTINUOUS
 10
5.589760
 20
8.173880
  0
VERTEX
  8
0
  6
CONTINUOUS
 10
5.593720
 20
8.232400
  0
VERTEX
  8
0
  6
CONTINUOUS
 10
5.597240
 20
8.260560
  0
VERTEX
  8
0
  6
CONTINUOUS
 10
5.609120
 20
8.315120
  0
VERTEX
  8
0
  6
CONTINUOUS
 10
5.622320
 20
8.352520
  0
VERTEX
  8
0
  6
CONTINUOUS
 10
5.640360
 20
8.386840
  0
VERTEX
  8
0
  6
CONTINUOUS
 10
5.664120
 20
8.416760
  0
VERTEX
  8
0
  6
CONTINUOUS
 10
5.683480
 20
8.434360
  0
VERTEX
  8
0
  6
CONTINUOUS
 10
5.705480
 20
8.449760
  0
VERTEX
  8
0
  6
CONTINUOUS
 10
5.744640
 20
8.467800
  0
VERTEX
  8
0
  6
CONTINUOUS
 10
5.775000
 20
8.476160
  0
VERTEX
  8
0
  6
CONTINUOUS
 10
5.775000
 20
8.635880
  0
VERTEX
  8
0
  6
CONTINUOUS
 10
5.893800
 20
8.648640
  0
VERTEX
  8
0
  6
CONTINUOUS
 10
5.893800
 20
8.943000
  0
VERTEX
  8
0
  6
CONTINUOUS
 10
5.941760
 20
8.948280
  0
VERTEX
  8
0
  6
CONTINUOUS
 10
5.941320
 20
8.956200
  0
VERTEX
  8
0
  6
CONTINUOUS
 10
5.946160
 20
8.979960
  0
VERTEX
  8
0
  6
CONTINUOUS
 10
5.958480
 20
9.005040
  0
VERTEX
  8
0
  6
CONTINUOUS
 10
5.991920
 20
9.048600
  0
VERTEX
  8
0
  6
CONTINUOUS
 10
6.121280
 20
9.181480
  0
VERTEX
  8
0
  6
CONTINUOUS
 10
6.154280
 20
9.221960
  0
VERTEX
  8
0
  6
CONTINUOUS
 10
6.180240
 20
9.262880
  0
VERTEX
  8
0
  6
CONTINUOUS
 10
6.199600
 20
9.301600
  0
VERTEX
  8
0
  6
CONTINUOUS
 10
6.214120
 20
9.340760
  0
VERTEX
  8
0
  6
CONTINUOUS
 10
6.224240
 20
9.382560
  0
VERTEX
  8
0
  6
CONTINUOUS
 10
6.228200
 20
9.405440
  0
VERTEX
  8
0
  6
CONTINUOUS
 10
6.234800
 20
9.485960
  0
VERTEX
  8
0
  6
CONTINUOUS
 10
6.238320
 20
9.634240
  0
VERTEX
  8
0
  6
CONTINUOUS
 10
6.238760
 20
9.680880
  0
VERTEX
  8
0
  6
CONTINUOUS
 10
6.374720
 20
9.697600
  0
VERTEX
  8
0
  6
CONTINUOUS
 10
6.374720
 20
10.475080
  0
VERTEX
  8
0
  6
CONTINUOUS
 10
4.807880
 20
10.611040
  0
VERTEX
  8
0
  6
CONTINUOUS
 10
4.785880
 20
10.611040
  0
VERTEX
  8
0
  6
CONTINUOUS
 10
3.219040
 20
10.475080
  0
VERTEX
  8
0
  6
CONTINUOUS
 10
3.219040
 20
9.697600
  0
VERTEX
  8
0
  6
CONTINUOUS
 10
3.355000
 20
9.680880
  0
VERTEX
  8
0
  6
CONTINUOUS
 10
3.358080
 20
9.501800
  0
VERTEX
  8
0
  6
CONTINUOUS
 10
3.362920
 20
9.430080
  0
VERTEX
  8
0
  6
CONTINUOUS
 10
3.369520
 20
9.382560
  0
VERTEX
  8
0
  6
CONTINUOUS
 10
3.379640
 20
9.340760
  0
VERTEX
  8
0
  6
CONTINUOUS
 10
3.394160
 20
9.301600
  0
VERTEX
  8
0
  6
CONTINUOUS
 10
3.413520
 20
9.262880
  0
VERTEX
  8
0
  6
CONTINUOUS
 10
3.439480
 20
9.221960
  0
VERTEX
  8
0
  6
CONTINUOUS
 10
3.472480
 20
9.181480
  0
VERTEX
  8
0
  6
CONTINUOUS
 10
3.601840
 20
9.048600
  0
VERTEX
  8
0
  6
CONTINUOUS
 10
3.629560
 20
9.013400
  0
VERTEX
  8
0
  6
CONTINUOUS
 10
3.644080
 20
8.988320
  0
VERTEX
  8
0
  6
CONTINUOUS
 10
3.649800
 20
8.972040
  0
VERTEX
  8
0
  6
CONTINUOUS
 10
3.652000
 20
8.956200
  0
VERTEX
  8
0
  6
CONTINUOUS
 10
3.651560
 20
8.948280
  0
VERTEX
  8
0
  6
CONTINUOUS
 10
3.699960
 20
8.943000
  0
VERTEX
  8
0
  6
CONTINUOUS
 10
3.699960
 20
8.648640
  0
VERTEX
  8
0
  6
CONTINUOUS
 10
3.818760
 20
8.635880
  0
VERTEX
  8
0
  6
CONTINUOUS
 10
3.818760
 20
8.476160
  0
VERTEX
  8
0
  6
CONTINUOUS
 10
3.849120
 20
8.467800
  0
VERTEX
  8
0
  6
CONTINUOUS
 10
3.888280
 20
8.449760
  0
VERTEX
  8
0
  6
CONTINUOUS
 10
3.920400
 20
8.426000
  0
VERTEX
  8
0
  6
CONTINUOUS
 10
3.945920
 20
8.397400
  0
VERTEX
  8
0
  6
CONTINUOUS
 10
3.960000
 20
8.375840
  0
VERTEX
  8
0
  6
CONTINUOUS
 10
3.976280
 20
8.340200
  0
VERTEX
  8
0
  6
CONTINUOUS
 10
3.984640
 20
8.315120
  0
VERTEX
  8
0
  6
CONTINUOUS
 10
3.996520
 20
8.260560
  0
VERTEX
  8
0
  6
CONTINUOUS
 10
4.002240
 20
8.203360
  0
VERTEX
  8
0
  6
CONTINUOUS
 10
4.004000
 20
8.173880
  0
VERTEX
  8
0
  6
CONTINUOUS
 10
4.004880
 20
8.114480
  0
VERTEX
  8
0
  6
CONTINUOUS
 10
4.004880
 20
7.624760
  0
VERTEX
  8
0
  6
CONTINUOUS
 10
4.203760
 20
7.624760
  0
VERTEX
  8
0
  6
CONTINUOUS
 10
4.203760
 20
7.800760
  0
VERTEX
  8
0
  6
CONTINUOUS
 10
5.390000
 20
7.800760
  0
SEQEND
  8
0
  0
POLYLINE
  8
0
  6
CONTINUOUS
 66
     1
 40
0.000000
 41
0.000000
  0
VERTEX
  8
0
  6
CONTINUOUS
 10
5.390000
 20
0.588720
  0
VERTEX
  8
0
  6
CONTINUOUS
 10
5.390000
 20
0.412720
  0
VERTEX
  8
0
  6
CONTINUOUS
 10
5.588880
 20
0.412720
  0
VERTEX
  8
0
  6
CONTINUOUS
 10
5.588880
 20
0.902440
  0
VERTEX
  8
0
  6
CONTINUOUS
 10
5.589760
 20
0.961840
  0
VERTEX
  8
0
  6
CONTINUOUS
 10
5.593720
 20
1.020360
  0
VERTEX
  8
0
  6
CONTINUOUS
 10
5.597240
 20
1.048520
  0
VERTEX
  8
0
  6
CONTINUOUS
 10
5.609120
 20
1.103080
  0
VERTEX
  8
0
  6
CONTINUOUS
 10
5.622320
 20
1.140480
  0
VERTEX
  8
0
  6
CONTINUOUS
 10
5.640360
 20
1.174800
  0
VERTEX
  8
0
  6
CONTINUOUS
 10
5.664120
 20
1.204720
  0
VERTEX
  8
0
  6
CONTINUOUS
 10
5.683480
 20
1.222320
  0
VERTEX
  8
0
  6
CONTINUOUS
 10
5.705480
 20
1.237720
  0
VERTEX
  8
0
  6
CONTINUOUS
 10
5.744640
 20
1.255760
  0
VERTEX
  8
0
  6
CONTINUOUS
 10
5.775000
 20
1.264120
  0
VERTEX
  8
0
  6
CONTINUOUS
 10
5.775000
 20
1.423840
  0
VERTEX
  8
0
  6
CONTINUOUS
 10
5.893800
 20
1.436600
  0
VERTEX
  8
0
  6
CONTINUOUS
 10
5.893800
 20
1.730960
  0
VERTEX
  8
0
  6
CONTINUOUS
 10
5.941760
 20
1.736240
  0
VERTEX
  8
0
  6
CONTINUOUS
 10
5.941320
 20
1.744160
  0
VERTEX
  8
0
  6
CONTINUOUS
 10
5.946160
 20
1.767920
  0
VERTEX
  8
0
  6
CONTINUOUS
 10
5.958480
 20
1.793000
  0
VERTEX
  8
0
  6
CONTINUOUS
 10
5.991920
 20
1.836560
  0
VERTEX
  8
0
  6
CONTINUOUS
 10
6.121280
 20
1.969440
  0
VERTEX
  8
0
  6
CONTINUOUS
 10
6.154280
 20
2.009920
  0
VERTEX
  8
0
  6
CONTINUOUS
 10
6.180240
 20
2.050840
  0
VERTEX
  8
0
  6
CONTINUOUS
 10
6.199600
 20
2.089560
  0
VERTEX
  8
0
  6
CONTINUOUS
 10
6.214120
 20
2.128720
  0
VERTEX
  8
0
  6
CONTINUOUS
 10
6.224240
 20
2.170520
  0
VERTEX
  8
0
  6
CONTINUOUS
 10
6.228200
 20
2.193400
  0
VERTEX
  8
0
  6
CONTINUOUS
 10
6.234800
 20
2.273920
  0
VERTEX
  8
0
  6
CONTINUOUS
 10
6.238320
 20
2.422200
  0
VERTEX
  8
0
  6
CONTINUOUS
 10
6.238760
 20
2.468840
  0
VERTEX
  8
0
  6
CONTINUOUS
 10
6.374720
 20
2.485560
  0
VERTEX
  8
0
  6
CONTINUOUS
 10
6.374720
 20
3.263040
  0
VERTEX
  8
0
  6
CONTINUOUS
 10
4.807880
 20
3.399000
  0
VERTEX
  8
0
  6
CONTINUOUS
 10
4.785880
 20
3.399000
  0
VERTEX
  8
0
  6
CONTINUOUS
 10
3.219040
 20
3.263040
  0
VERTEX
  8
0
  6
CONTINUOUS
 10
3.219040
 20
2.485560
  0
VERTEX
  8
0
  6
CONTINUOUS
 10
3.355000
 20
2.468840
  0
VERTEX
  8
0
  6
CONTINUOUS
 10
3.358080
 20
2.289760
  0
VERTEX
  8
0
  6
CONTINUOUS
 10
3.362920
 20
2.218040
  0
VERTEX
  8
0
  6
CONTINUOUS
 10
3.369520
 20
2.170520
  0
VERTEX
  8
0
  6
CONTINUOUS
 10
3.379640
 20
2.128720
  0
VERTEX
  8
0
  6
CONTINUOUS
 10
3.394160
 20
2.089560
  0
VERTEX
  8
0
  6
CONTINUOUS
 10
3.413520
 20
2.050840
  0
VERTEX
  8
0
  6
CONTINUOUS
 10
3.439480
 20
2.009920
  0
VERTEX
  8
0
  6
CONTINUOUS
 10
3.472480
 20
1.969440
  0
VERTEX
  8
0
  6
CONTINUOUS
 10
3.601840
 20
1.836560
  0
VERTEX
  8
0
  6
CONTINUOUS
 10
3.629560
 20
1.801360
  0
VERTEX
  8
0
  6
CONTINUOUS
 10
3.644080
 20
1.776280
  0
VERTEX
  8
0
  6
CONTINUOUS
 10
3.649800
 20
1.760000
  0
VERTEX
  8
0
  6
CONTINUOUS
 10
3.652000
 20
1.744160
  0
VERTEX
  8
0
  6
CONTINUOUS
 10
3.651560
 20
1.736240
  0
VERTEX
  8
0
  6
CONTINUOUS
 10
3.699960
 20
1.730960
  0
VERTEX
  8
0
  6
CONTINUOUS
 10
3.699960
 20
1.436600
  0
VERTEX
  8
0
  6
CONTINUOUS
 10
3.818760
 20
1.423840
  0
VERTEX
  8
0
  6
CONTINUOUS
 10
3.818760
 20
1.264120
  0
VERTEX
  8
0
  6
CONTINUOUS
 10
3.849120
 20
1.255760
  0
VERTEX
  8
0
  6
CONTINUOUS
 10
3.888280
 20
1.237720
  0
VERTEX
  8
0
  6
CONTINUOUS
 10
3.920400
 20
1.213960
  0
VERTEX
  8
0
  6
CONTINUOUS
 10
3.945920
 20
1.185360
  0
VERTEX
  8
0
  6
CONTINUOUS
 10
3.960000
 20
1.163800
  0
VERTEX
  8
0
  6
CONTINUOUS
 10
3.976280
 20
1.128160
  0
VERTEX
  8
0
  6
CONTINUOUS
 10
3.984640
 20
1.103080
  0
VERTEX
  8
0
  6
CONTINUOUS
 10
3.996520
 20
1.048520
  0
VERTEX
  8
0
  6
CONTINUOUS
 10
4.002240
 20
0.991320
  0
VERTEX
  8
0
  6
CONTINUOUS
 10
4.004000
 20
0.961840
  0
VERTEX
  8
0
  6
CONTINUOUS
 10
4.004880
 20
0.902440
  0
VERTEX
  8
0
  6
CONTINUOUS
 10
4.004880
 20
0.412720
  0
VERTEX
  8
0
  6
CONTINUOUS
 10
4.203760
 20
0.412720
  0
VERTEX
  8
0
  6
CONTINUOUS
 10
4.203760
 20
0.588720
  0
VERTEX
  8
0
  6
CONTINUOUS
 10
5.390000
 20
0.588720
  0
SEQEND
  8
0
  0
SOLID
  8
0
 62
    15
 10
5.843640
 20
5.709000
 11
6.492640
 21
6.082120
 12
5.701960
 22
5.551040
 13
6.350960
 23
5.924160
  0
POLYLINE
  8
0
  6
CONTINUOUS
 66
     1
 40
0.000000
 41
0.000000
  0
VERTEX
  8
0
  6
CONTINUOUS
 10
5.843640
 20
5.709000
  0
VERTEX
  8
0
  6
CONTINUOUS
 10
6.492640
 20
6.082120
  0
VERTEX
  8
0
  6
CONTINUOUS
 10
6.350960
 20
5.924160
  0
VERTEX
  8
0
  6
CONTINUOUS
 10
5.701960
 20
5.551040
  0
VERTEX
  8
0
  6
CONTINUOUS
 10
5.843640
 20
5.709000
  0
SEQEND
  8
0
  0
SOLID
  8
0
 62
    15
 10
2.894760
 20
6.941440
 11
3.543760
 21
7.314560
 12
4.461600
 22
7.077400
 13
5.110600
 23
7.450520
  0
POLYLINE
  8
0
  6
CONTINUOUS
 66
     1
 40
0.000000
 41
0.000000
  0
VERTEX
  8
0
  6
CONTINUOUS
 10
2.894760
 20
6.941440
  0
VERTEX
  8
0
  6
CONTINUOUS
 10
3.543760
 20
7.314560
  0
VERTEX
  8
0
  6
CONTINUOUS
 10
5.110600
 20
7.450520
  0
VERTEX
  8
0
  6
CONTINUOUS
 10
4.461600
 20
7.077400
  0
VERTEX
  8
0
  6
CONTINUOUS
 10
2.894760
 20
6.941440
  0
SEQEND
  8
0
  0
SOLID
  8
0
 62
    15
 10
4.461600
 20
7.077400
 11
5.110600
 21
7.450520
 12
4.483160
 22
7.077400
 13
5.132160
 23
7.450520
  0
POLYLINE
  8
0
  6
CONTINUOUS
 66
     1
 40
0.000000
 41
0.000000
  0
VERTEX
  8
0
  6
CONTINUOUS
 10
4.461600
 20
7.077400
  0
VERTEX
  8
0
  6
CONTINUOUS
 10
5.110600
 20
7.450520
  0
VERTEX
  8
0
  6
CONTINUOUS
 10
5.132160
 20
7.450520
  0
VERTEX
  8
0
  6
CONTINUOUS
 10
4.483160
 20
7.077400
  0
VERTEX
  8
0
  6
CONTINUOUS
 10
4.461600
 20
7.077400
  0
SEQEND
  8
0
  0
SOLID
  8
0
 62
    15
 10
4.483160
 20
7.077400
 11
5.132160
 21
7.450520
 12
6.050000
 22
6.941440
 13
6.699000
 23
7.314560
  0
POLYLINE
  8
0
  6
CONTINUOUS
 66
     1
 40
0.000000
 41
0.000000
  0
VERTEX
  8
0
  6
CONTINUOUS
 10
4.483160
 20
7.077400
  0
VERTEX
  8
0
  6
CONTINUOUS
 10
5.132160
 20
7.450520
  0
VERTEX
  8
0
  6
CONTINUOUS
 10
6.699000
 20
7.314560
  0
VERTEX
  8
0
  6
CONTINUOUS
 10
6.050000
 20
6.941440
  0
VERTEX
  8
0
  6
CONTINUOUS
 10
4.483160
 20
7.077400
  0
SEQEND
  8
0
  0
SOLID
  8
0
 62
    15
 10
5.914480
 20
6.147240
 11
6.563480
 21
6.520360
 12
5.913160
 22
6.057920
 13
6.562160
 23
6.431040
  0
POLYLINE
  8
0
  6
CONTINUOUS
 66
     1
 40
0.000000
 41
0.000000
  0
VERTEX
  8
0
  6
CONTINUOUS
 10
5.914480
 20
6.147240
  0
VERTEX
  8
0
  6
CONTINUOUS
 10
6.563480
 20
6.520360
  0
VERTEX
  8
0
  6
CONTINUOUS
 10
6.562160
 20
6.431040
  0
VERTEX
  8
0
  6
CONTINUOUS
 10
5.913160
 20
6.057920
  0
VERTEX
  8
0
  6
CONTINUOUS
 10
5.914480
 20
6.147240
  0
SEQEND
  8
0
  0
SOLID
  8
0
 62
    15
 10
6.050000
 20
6.941440
 11
6.699000
 21
7.314560
 12
6.050000
 22
6.163960
 13
6.699000
 23
6.537080
  0
POLYLINE
  8
0
  6
CONTINUOUS
 66
     1
 40
0.000000
 41
0.000000
  0
VERTEX
  8
0
  6
CONTINUOUS
 10
6.050000
 20
6.941440
  0
VERTEX
  8
0
  6
CONTINUOUS
 10
6.699000
 20
7.314560
  0
VERTEX
  8
0
  6
CONTINUOUS
 10
6.699000
 20
6.537080
  0
VERTEX
  8
0
  6
CONTINUOUS
 10
6.050000
 20
6.163960
  0
VERTEX
  8
0
  6
CONTINUOUS
 10
6.050000
 20
6.941440
  0
SEQEND
  8
0
  0
SOLID
  8
0
 62
    15
 10
5.913160
 20
6.057920
 11
6.562160
 21
6.431040
 12
5.911400
 22
5.984440
 13
6.560400
 23
6.357560
  0
POLYLINE
  8
0
  6
CONTINUOUS
 66
     1
 40
0.000000
 41
0.000000
  0
VERTEX
  8
0
  6
CONTINUOUS
 10
5.913160
 20
6.057920
  0
VERTEX
  8
0
  6
CONTINUOUS
 10
6.562160
 20
6.431040
  0
VERTEX
  8
0
  6
CONTINUOUS
 10
6.560400
 20
6.357560
  0
VERTEX
  8
0
  6
CONTINUOUS
 10
5.911400
 20
5.984440
  0
VERTEX
  8
0
  6
CONTINUOUS
 10
5.913160
 20
6.057920
  0
SEQEND
  8
0
  0
SOLID
  8
0
 62
    15
 10
5.911400
 20
5.984440
 11
6.560400
 21
6.357560
 12
5.903480
 22
5.871800
 13
6.552480
 23
6.244920
  0
POLYLINE
  8
0
  6
CONTINUOUS
 66
     1
 40
0.000000
 41
0.000000
  0
VERTEX
  8
0
  6
CONTINUOUS
 10
5.911400
 20
5.984440
  0
VERTEX
  8
0
  6
CONTINUOUS
 10
6.560400
 20
6.357560
  0
VERTEX
  8
0
  6
CONTINUOUS
 10
6.552480
 20
6.244920
  0
VERTEX
  8
0
  6
CONTINUOUS
 10
5.903480
 20
5.871800
  0
VERTEX
  8
0
  6
CONTINUOUS
 10
5.911400
 20
5.984440
  0
SEQEND
  8
0
  0
SOLID
  8
0
 62
    15
 10
5.903480
 20
5.871800
 11
6.552480
 21
6.244920
 12
5.882800
 22
5.787320
 13
6.531800
 23
6.160440
  0
POLYLINE
  8
0
  6
CONTINUOUS
 66
     1
 40
0.000000
 41
0.000000
  0
VERTEX
  8
0
  6
CONTINUOUS
 10
5.903480
 20
5.871800
  0
VERTEX
  8
0
  6
CONTINUOUS
 10
6.552480
 20
6.244920
  0
VERTEX
  8
0
  6
CONTINUOUS
 10
6.531800
 20
6.160440
  0
VERTEX
  8
0
  6
CONTINUOUS
 10
5.882800
 20
5.787320
  0
VERTEX
  8
0
  6
CONTINUOUS
 10
5.903480
 20
5.871800
  0
SEQEND
  8
0
  0
SOLID
  8
0
 62
    15
 10
5.882800
 20
5.787320
 11
6.531800
 21
6.160440
 12
5.843640
 22
5.709000
 13
6.492640
 23
6.082120
  0
POLYLINE
  8
0
  6
CONTINUOUS
 66
     1
 40
0.000000
 41
0.000000
  0
VERTEX
  8
0
  6
CONTINUOUS
 10
5.882800
 20
5.787320
  0
VERTEX
  8
0
  6
CONTINUOUS
 10
6.531800
 20
6.160440
  0
VERTEX
  8
0
  6
CONTINUOUS
 10
6.492640
 20
6.082120
  0
VERTEX
  8
0
  6
CONTINUOUS
 10
5.843640
 20
5.709000
  0
VERTEX
  8
0
  6
CONTINUOUS
 10
5.882800
 20
5.787320
  0
SEQEND
  8
0
  0
SOLID
  8
0
 62
    15
 10
3.879040
 20
4.267120
 11
4.528040
 21
4.640240
 12
3.879040
 22
4.091120
 13
4.528040
 23
4.464240
  0
POLYLINE
  8
0
  6
CONTINUOUS
 66
     1
 40
0.000000
 41
0.000000
  0
VERTEX
  8
0
  6
CONTINUOUS
 10
3.879040
 20
4.267120
  0
VERTEX
  8
0
  6
CONTINUOUS
 10
4.528040
 20
4.640240
  0
VERTEX
  8
0
  6
CONTINUOUS
 10
4.528040
 20
4.464240
  0
VERTEX
  8
0
  6
CONTINUOUS
 10
3.879040
 20
4.091120
  0
VERTEX
  8
0
  6
CONTINUOUS
 10
3.879040
 20
4.267120
  0
SEQEND
  8
0
  0
SOLID
  8
0
 62
    15
 10
5.701960
 20
5.551040
 11
6.350960
 21
5.924160
 12
5.639480
 22
5.479760
 13
6.288480
 23
5.852880
  0
POLYLINE
  8
0
  6
CONTINUOUS
 66
     1
 40
0.000000
 41
0.000000
  0
VERTEX
  8
0
  6
CONTINUOUS
 10
5.701960
 20
5.551040
  0
VERTEX
  8
0
  6
CONTINUOUS
 10
6.350960
 20
5.924160
  0
VERTEX
  8
0
  6
CONTINUOUS
 10
6.288480
 20
5.852880
  0
VERTEX
  8
0
  6
CONTINUOUS
 10
5.639480
 20
5.479760
  0
VERTEX
  8
0
  6
CONTINUOUS
 10
5.701960
 20
5.551040
  0
SEQEND
  8
0
  0
SOLID
  8
0
 62
    15
 10
5.348640
 20
4.891920
 11
5.997640
 21
5.265040
 12
5.293200
 22
4.806560
 13
5.941760
 23
5.179680
  0
POLYLINE
  8
0
  6
CONTINUOUS
 66
     1
 40
0.000000
 41
0.000000
  0
VERTEX
  8
0
  6
CONTINUOUS
 10
5.348640
 20
4.891920
  0
VERTEX
  8
0
  6
CONTINUOUS
 10
5.997640
 20
5.265040
  0
VERTEX
  8
0
  6
CONTINUOUS
 10
5.941760
 20
5.179680
  0
VERTEX
  8
0
  6
CONTINUOUS
 10
5.293200
 20
4.806560
  0
VERTEX
  8
0
  6
CONTINUOUS
 10
5.348640
 20
4.891920
  0
SEQEND
  8
0
  0
SOLID
  8
0
 62
    15
 10
5.393080
 20
4.922280
 11
6.042080
 21
5.295840
 12
5.348640
 22
4.891920
 13
5.997640
 23
5.265040
  0
POLYLINE
  8
0
  6
CONTINUOUS
 66
     1
 40
0.000000
 41
0.000000
  0
VERTEX
  8
0
  6
CONTINUOUS
 10
5.393080
 20
4.922280
  0
VERTEX
  8
0
  6
CONTINUOUS
 10
6.042080
 20
5.295840
  0
VERTEX
  8
0
  6
CONTINUOUS
 10
5.997640
 20
5.265040
  0
VERTEX
  8
0
  6
CONTINUOUS
 10
5.348640
 20
4.891920
  0
VERTEX
  8
0
  6
CONTINUOUS
 10
5.393080
 20
4.922280
  0
SEQEND
  8
0
  0
SOLID
  8
0
 62
    15
 10
5.450280
 20
5.102240
 11
6.099280
 21
5.475360
 12
5.450280
 22
4.942520
 13
6.099280
 23
5.315640
  0
POLYLINE
  8
0
  6
CONTINUOUS
 66
     1
 40
0.000000
 41
0.000000
  0
VERTEX
  8
0
  6
CONTINUOUS
 10
5.450280
 20
5.102240
  0
VERTEX
  8
0
  6
CONTINUOUS
 10
6.099280
 20
5.475360
  0
VERTEX
  8
0
  6
CONTINUOUS
 10
6.099280
 20
5.315640
  0
VERTEX
  8
0
  6
CONTINUOUS
 10
5.450280
 20
4.942520
  0
VERTEX
  8
0
  6
CONTINUOUS
 10
5.450280
 20
5.102240
  0
SEQEND
  8
0
  0
SOLID
  8
0
 62
    15
 10
5.569520
 20
5.409360
 11
6.218520
 21
5.782480
 12
5.569520
 22
5.115000
 13
6.218520
 23
5.488120
  0
POLYLINE
  8
0
  6
CONTINUOUS
 66
     1
 40
0.000000
 41
0.000000
  0
VERTEX
  8
0
  6
CONTINUOUS
 10
5.569520
 20
5.409360
  0
VERTEX
  8
0
  6
CONTINUOUS
 10
6.218520
 20
5.782480
  0
VERTEX
  8
0
  6
CONTINUOUS
 10
6.218520
 20
5.488120
  0
VERTEX
  8
0
  6
CONTINUOUS
 10
5.569520
 20
5.115000
  0
VERTEX
  8
0
  6
CONTINUOUS
 10
5.569520
 20
5.409360
  0
SEQEND
  8
0
  0
SOLID
  8
0
 62
    15
 10
5.639480
 20
5.479760
 11
6.288480
 21
5.852880
 12
5.617480
 22
5.414640
 13
6.266480
 23
5.787760
  0
POLYLINE
  8
0
  6
CONTINUOUS
 66
     1
 40
0.000000
 41
0.000000
  0
VERTEX
  8
0
  6
CONTINUOUS
 10
5.639480
 20
5.479760
  0
VERTEX
  8
0
  6
CONTINUOUS
 10
6.288480
 20
5.852880
  0
VERTEX
  8
0
  6
CONTINUOUS
 10
6.266480
 20
5.787760
  0
VERTEX
  8
0
  6
CONTINUOUS
 10
5.617480
 20
5.414640
  0
VERTEX
  8
0
  6
CONTINUOUS
 10
5.639480
 20
5.479760
  0
SEQEND
  8
0
  0
SOLID
  8
0
 62
    15
 10
5.293200
 20
4.806560
 11
5.941760
 21
5.179680
 12
5.269440
 22
4.698320
 13
5.918440
 23
5.071440
  0
POLYLINE
  8
0
  6
CONTINUOUS
 66
     1
 40
0.000000
 41
0.000000
  0
VERTEX
  8
0
  6
CONTINUOUS
 10
5.293200
 20
4.806560
  0
VERTEX
  8
0
  6
CONTINUOUS
 10
5.941760
 20
5.179680
  0
VERTEX
  8
0
  6
CONTINUOUS
 10
5.918440
 20
5.071440
  0
VERTEX
  8
0
  6
CONTINUOUS
 10
5.269440
 20
4.698320
  0
VERTEX
  8
0
  6
CONTINUOUS
 10
5.293200
 20
4.806560
  0
SEQEND
  8
0
  0
SOLID
  8
0
 62
    15
 10
5.269440
 20
4.698320
 11
5.918440
 21
5.071440
 12
5.264600
 22
4.580840
 13
5.913600
 23
4.953960
  0
POLYLINE
  8
0
  6
CONTINUOUS
 66
     1
 40
0.000000
 41
0.000000
  0
VERTEX
  8
0
  6
CONTINUOUS
 10
5.269440
 20
4.698320
  0
VERTEX
  8
0
  6
CONTINUOUS
 10
5.918440
 20
5.071440
  0
VERTEX
  8
0
  6
CONTINUOUS
 10
5.913600
 20
4.953960
  0
VERTEX
  8
0
  6
CONTINUOUS
 10
5.264600
 20
4.580840
  0
VERTEX
  8
0
  6
CONTINUOUS
 10
5.269440
 20
4.698320
  0
SEQEND
  8
0
  0
SOLID
  8
0
 62
    15
 10
5.264600
 20
4.580840
 11
5.913600
 21
4.953960
 12
5.264600
 22
4.091120
 13
5.913600
 23
4.464240
  0
POLYLINE
  8
0
  6
CONTINUOUS
 66
     1
 40
0.000000
 41
0.000000
  0
VERTEX
  8
0
  6
CONTINUOUS
 10
5.264600
 20
4.580840
  0
VERTEX
  8
0
  6
CONTINUOUS
 10
5.913600
 20
4.953960
  0
VERTEX
  8
0
  6
CONTINUOUS
 10
5.913600
 20
4.464240
  0
VERTEX
  8
0
  6
CONTINUOUS
 10
5.264600
 20
4.091120
  0
VERTEX
  8
0
  6
CONTINUOUS
 10
5.264600
 20
4.580840
  0
SEQEND
  8
0
  0
POLYLINE
  8
0
  6
CONTINUOUS
 66
     1
 40
0.000000
 41
0.000000
  0
VERTEX
  8
0
  6
CONTINUOUS
 10
3.879040
 20
4.267120
  0
VERTEX
  8
0
  6
CONTINUOUS
 10
3.879040
 20
4.091120
  0
VERTEX
  8
0
  6
CONTINUOUS
 10
3.680160
 20
4.091120
  0
VERTEX
  8
0
  6
CONTINUOUS
 10
3.680160
 20
4.580840
  0
VERTEX
  8
0
  6
CONTINUOUS
 10
3.675320
 20
4.698320
  0
VERTEX
  8
0
  6
CONTINUOUS
 10
3.651560
 20
4.806560
  0
VERTEX
  8
0
  6
CONTINUOUS
 10
3.596120
 20
4.891920
  0
VERTEX
  8
0
  6
CONTINUOUS
 10
3.551680
 20
4.922280
  0
VERTEX
  8
0
  6
CONTINUOUS
 10
3.494480
 20
4.942520
  0
VERTEX
  8
0
  6
CONTINUOUS
 10
3.494480
 20
5.102240
  0
VERTEX
  8
0
  6
CONTINUOUS
 10
3.375240
 20
5.115000
  0
VERTEX
  8
0
  6
CONTINUOUS
 10
3.375240
 20
5.409360
  0
VERTEX
  8
0
  6
CONTINUOUS
 10
3.327280
 20
5.414640
  0
VERTEX
  8
0
  6
CONTINUOUS
 10
3.304840
 20
5.479760
  0
VERTEX
  8
0
  6
CONTINUOUS
 10
3.242800
 20
5.551040
  0
VERTEX
  8
0
  6
CONTINUOUS
 10
3.101120
 20
5.709000
  0
VERTEX
  8
0
  6
CONTINUOUS
 10
3.061520
 20
5.787320
  0
VERTEX
  8
0
  6
CONTINUOUS
 10
3.041280
 20
5.871800
  0
VERTEX
  8
0
  6
CONTINUOUS
 10
3.032920
 20
5.984440
  0
VERTEX
  8
0
  6
CONTINUOUS
 10
3.031600
 20
6.057920
  0
VERTEX
  8
0
  6
CONTINUOUS
 10
3.030280
 20
6.147240
  0
VERTEX
  8
0
  6
CONTINUOUS
 10
2.894760
 20
6.163960
  0
VERTEX
  8
0
  6
CONTINUOUS
 10
2.894760
 20
6.941440
  0
VERTEX
  8
0
  6
CONTINUOUS
 10
4.461600
 20
7.077400
  0
VERTEX
  8
0
  6
CONTINUOUS
 10
4.483160
 20
7.077400
  0
VERTEX
  8
0
  6
CONTINUOUS
 10
6.050000
 20
6.941440
  0
VERTEX
  8
0
  6
CONTINUOUS
 10
6.050000
 20
6.163960
  0
VERTEX
  8
0
  6
CONTINUOUS
 10
5.914480
 20
6.147240
  0
VERTEX
  8
0
  6
CONTINUOUS
 10
5.913160
 20
6.057920
  0
VERTEX
  8
0
  6
CONTINUOUS
 10
5.911400
 20
5.984440
  0
VERTEX
  8
0
  6
CONTINUOUS
 10
5.903480
 20
5.871800
  0
VERTEX
  8
0
  6
CONTINUOUS
 10
5.882800
 20
5.787320
  0
VERTEX
  8
0
  6
CONTINUOUS
 10
5.843640
 20
5.709000
  0
VERTEX
  8
0
  6
CONTINUOUS
 10
5.701960
 20
5.551040
  0
VERTEX
  8
0
  6
CONTINUOUS
 10
5.639480
 20
5.479760
  0
VERTEX
  8
0
  6
CONTINUOUS
 10
5.617480
 20
5.414640
  0
VERTEX
  8
0
  6
CONTINUOUS
 10
5.569520
 20
5.409360
  0
VERTEX
  8
0
  6
CONTINUOUS
 10
5.569520
 20
5.115000
  0
VERTEX
  8
0
  6
CONTINUOUS
 10
5.450280
 20
5.102240
  0
VERTEX
  8
0
  6
CONTINUOUS
 10
5.450280
 20
4.942520
  0
VERTEX
  8
0
  6
CONTINUOUS
 10
5.393080
 20
4.922280
  0
VERTEX
  8
0
  6
CONTINUOUS
 10
5.348640
 20
4.891920
  0
VERTEX
  8
0
  6
CONTINUOUS
 10
5.293200
 20
4.806560
  0
VERTEX
  8
0
  6
CONTINUOUS
 10
5.269440
 20
4.698320
  0
VERTEX
  8
0
  6
CONTINUOUS
 10
5.264600
 20
4.580840
  0
VERTEX
  8
0
  6
CONTINUOUS
 10
5.264600
 20
4.091120
  0
VERTEX
  8
0
  6
CONTINUOUS
 10
5.065720
 20
4.091120
  0
VERTEX
  8
0
  6
CONTINUOUS
 10
5.065720
 20
4.267120
  0
VERTEX
  8
0
  6
CONTINUOUS
 10
3.879040
 20
4.267120
  0
SEQEND
  8
0
  0
TEXT
  8
0
 10
3.864080
 20
3.813920
 40
0.138002
  1
BA  1259  
 41
1.000000
  7
SN0
 71
     0
 72
     5
 11
4.640775
 21
3.813920
  0
TEXT
  8
0
 10
4.639800
 20
3.813920
 40
0.138002
  1
3" x 3-3/16"
 41
1.000000
  7
SN0
 71
     0
 72
     5
 11
5.498145
 21
3.813920
  0
TEXT
  8
0
 10
3.864080
 20
3.622080
 40
0.138002
  1
BA  562 Top
 41
1.000000
  7
SN0
 71
     0
 72
     5
 11
4.788255
 21
3.622080
  0
TEXT
  8
0
 10
3.864080
 20
9.255840
 40
0.138002
  1
BA  1259  
 41
1.000000
  7
SN0
 71
     0
 72
     5
 11
4.640775
 21
9.255840
  0
TEXT
  8
0
 10
4.639800
 20
9.255840
 40
0.138002
  1
3" x 3-3/16"
 41
1.000000
  7
SN0
 71
     0
 72
     5
 11
5.498145
 21
9.255840
  0
TEXT
  8
0
 10
3.864080
 20
9.064000
 40
0.138002
  1
BA  562 Top
 41
1.000000
  7
SN0
 71
     0
 72
     5
 11
4.788255
 21
9.064000
  0
ENDSEC
  0
EOF
