  0
SECTION
  2
HEADER
  9
$ACADVER
  1
AC1006
  9
$EXTMIN
 10
3.246760
 20
1.532960
  9
$EXTMAX
 10
6.437640
 20
6.635640
  9
$LTSCALE
 40
0.044000
  9
$PDMODE
 70
    35
  9
$PDSIZE
 40
0.035200
  0
ENDSEC
  0
SECTION
  2
TABLES
  0
TABLE
  2
LTYPE
 70
     9
  0
LTYPE
  2
CONTINUOUS
 70
    64
  3
Solid line
 72
    65
 73
     0
 40
0.000000
  0
LTYPE
  2
DASHED
 70
    64
  3
__ __ __ __ __ __ __ __ __ __ __ __ __ __ __
 72
    65
 73
     2
 40
0.000330
 49
0.000220
 49
-0.000110
  0
LTYPE
  2
HIDDEN
 70
    64
  3
 _ _ _ _ _ _ _ _ _ _ _ _ _ _ _ _ _ _ _ _ _ _
 72
    65
 73
     2
 40
0.000165
 49
0.000110
 49
-0.000055
  0
LTYPE
  2
CENTER
 70
    64
  3
____ _ ____ _ ____ _ ____ _ ____ _ ____ _ ____
 72
    65
 73
     4
 40
0.000880
 49
0.000550
 49
-0.000110
 49
0.000110
 49
-0.000110
  0
LTYPE
  2
PHANTOM
 70
    64
  3
_____ _ _ _____ _ _ _____ _ _ _____ _ _ ____
 72
    65
 73
     6
 40
0.001100
 49
0.000550
 49
-0.000110
 49
0.000110
 49
-0.000110
 49
0.000110
 49
-0.000110
  0
LTYPE
  2
DOT
 70
    64
  3
...............................................
 72
    65
 73
     2
 40
0.000110
 49
0.000000
 49
-0.000110
  0
LTYPE
  2
DASHDOT
 70
    64
  3
__ . __ . __ . __ . __ . __ . __ . __ . __ . __
 72
    65
 73
     4
 40
0.000440
 49
0.000220
 49
-0.000110
 49
0.000000
 49
-0.000110
  0
LTYPE
  2
BORDER
 70
    64
  3
__ __ . __ __ . __ __ . __ __ . __ __ . __ __
 72
    65
 73
     6
 40
0.000770
 49
0.000220
 49
-0.000110
 49
0.000220
 49
-0.000110
 49
0.000000
 49
-0.000110
  0
LTYPE
  2
DIVIDE
 70
    64
  3
__ . . __ . . __ . . __ . . __ . . __ . . __
 72
    65
 73
     6
 40
0.000550
 49
0.000220
 49
-0.000110
 49
0.000000
 49
-0.000110
 49
0.000000
 49
-0.000110
  0
LTYPE
  2
DOTDOT
 70
    64
  3
 . .  . .  . .  . .  . .  . . 
 72
    65
 73
     5
 40
0.000242
 49
-0.000110
 49
0.000000
 49
-0.000110
 49
0.000000
 49
-0.000110
  0
ENDTAB
  0
TABLE
  2
STYLE
 70
     4
  0
STYLE
 70
     0
  2
SN0
 40
0.000000
 41
0.000440
 50
0.000000
 71
     0
 42
0.000000
  3
ROMAND
  0
STYLE
 70
    68
  2
SV0
 40
0.000000
 41
0.000440
 50
0.000000
 71
     0
 42
0.000000
  3
ROMAND
  0
STYLE
 70
     0
  2
SN1
 40
0.000000
 41
0.000440
 50
0.000000
 71
     0
 42
0.000000
  3
SCRIPTS
  0
STYLE
 70
    68
  2
SV1
 40
0.000000
 41
0.000440
 50
0.000000
 71
     0
 42
0.000000
  3
SCRIPTS
  0
ENDTAB
  0
TABLE
  2
LAYER
 70
     3
  0
LAYER
  2
FOREGROUND
 70
    64
 62
     7
  6
CONTINUOUS
  0
LAYER
  2
BACKGROUND
 70
    65
 62
    -7
  6
CONTINUOUS
  0
LAYER
  2
0
 70
    64
 62
     7
  6
CONTINUOUS
  0
ENDTAB
  0
ENDSEC
  0
SECTION
  2
ENTITIES
  0
POLYLINE
  8
FOREGROUND
  6
CONTINUOUS
 66
     1
 40
0.000000
 41
0.000000
  0
VERTEX
  8
FOREGROUND
  6
CONTINUOUS
 10
0.000000
 20
8.168600
  0
VERTEX
  8
FOREGROUND
  6
CONTINUOUS
 10
8.499920
 20
8.168600
  0
VERTEX
  8
FOREGROUND
  6
CONTINUOUS
 10
8.499920
 20
-2.831400
  0
VERTEX
  8
FOREGROUND
  6
CONTINUOUS
 10
0.000000
 20
-2.831400
  0
VERTEX
  8
FOREGROUND
  6
CONTINUOUS
 10
0.000000
 20
8.168600
  0
SEQEND
  8
0
  0
POLYLINE
  8
FOREGROUND
  6
CONTINUOUS
 66
     1
 40
0.000000
 41
0.000000
  0
VERTEX
  8
FOREGROUND
  6
CONTINUOUS
 10
0.000000
 20
8.168600
  0
VERTEX
  8
FOREGROUND
  6
CONTINUOUS
 10
8.499920
 20
8.168600
  0
VERTEX
  8
FOREGROUND
  6
CONTINUOUS
 10
8.499920
 20
-2.831400
  0
VERTEX
  8
FOREGROUND
  6
CONTINUOUS
 10
0.000000
 20
-2.831400
  0
VERTEX
  8
FOREGROUND
  6
CONTINUOUS
 10
0.000000
 20
8.168600
  0
SEQEND
  8
0
  0
TEXT
  8
0
 10
4.415400
 20
5.704600
 40
0.137990
  1
BA  1258
 41
1.000000
  7
SN0
 71
     0
 72
     5
 11
5.098394
 21
5.704600
  0
TEXT
  8
0
 10
4.612080
 20
5.513200
 40
0.137990
  1
3/4"
 41
1.000000
  7
SN0
 71
     0
 72
     5
 11
4.901657
 21
5.513200
  0
TEXT
  8
0
 10
5.044600
 20
2.735480
 40
0.126530
  1
Add 1/4" to top of profile
 41
1.000000
  7
SN1
 71
     0
 72
     5
 11
6.677202
 21
2.735480
  0
TEXT
  8
0
 10
3.247640
 20
2.696760
 40
0.126530
  1
Add 1/4" to top of profile
 41
1.000000
  7
SN1
 71
     0
 72
     5
 11
4.880242
 21
2.696760
  0
TEXT
  8
0
 10
5.813280
 20
5.229840
 40
0.126530
  1
rounds
 41
1.000000
  7
SN1
 71
     0
 72
     5
 11
6.280175
 21
5.229840
  0
POLYLINE
  8
0
  6
CONTINUOUS
 66
     1
 40
0.014080
 41
0.014080
  0
VERTEX
  8
0
  6
CONTINUOUS
 10
4.481840
 20
5.878840
  0
VERTEX
  8
0
  6
CONTINUOUS
 10
4.481840
 20
6.628160
  0
VERTEX
  8
0
  6
CONTINUOUS
 10
4.821520
 20
6.628160
  0
VERTEX
  8
0
  6
CONTINUOUS
 10
4.821520
 20
6.569200
  0
VERTEX
  8
0
  6
CONTINUOUS
 10
4.834280
 20
6.568760
  0
VERTEX
  8
0
  6
CONTINUOUS
 10
4.846600
 20
6.566560
  0
VERTEX
  8
0
  6
CONTINUOUS
 10
4.858920
 20
6.563480
  0
VERTEX
  8
0
  6
CONTINUOUS
 10
4.870360
 20
6.559520
  0
VERTEX
  8
0
  6
CONTINUOUS
 10
4.880920
 20
6.554240
  0
VERTEX
  8
0
  6
CONTINUOUS
 10
4.891480
 20
6.548080
  0
VERTEX
  8
0
  6
CONTINUOUS
 10
4.901160
 20
6.540600
  0
VERTEX
  8
0
  6
CONTINUOUS
 10
4.909960
 20
6.532680
  0
VERTEX
  8
0
  6
CONTINUOUS
 10
4.917880
 20
6.523880
  0
VERTEX
  8
0
  6
CONTINUOUS
 10
4.925360
 20
6.514200
  0
VERTEX
  8
0
  6
CONTINUOUS
 10
4.931520
 20
6.503640
  0
VERTEX
  8
0
  6
CONTINUOUS
 10
4.936800
 20
6.493080
  0
VERTEX
  8
0
  6
CONTINUOUS
 10
4.940760
 20
6.481640
  0
VERTEX
  8
0
  6
CONTINUOUS
 10
4.943840
 20
6.469320
  0
VERTEX
  8
0
  6
CONTINUOUS
 10
4.946040
 20
6.457000
  0
VERTEX
  8
0
  6
CONTINUOUS
 10
4.946480
 20
6.444240
  0
VERTEX
  8
0
  6
CONTINUOUS
 10
5.007640
 20
6.444240
  0
VERTEX
  8
0
  6
CONTINUOUS
 10
5.007640
 20
5.878840
  0
VERTEX
  8
0
  6
CONTINUOUS
 10
4.481840
 20
5.878840
  0
SEQEND
  8
0
  0
POLYLINE
  8
0
  6
CONTINUOUS
 66
     1
 40
0.000000
 41
0.000000
  0
VERTEX
  8
0
  6
CONTINUOUS
 10
5.770160
 20
1.644720
  0
VERTEX
  8
0
  6
CONTINUOUS
 10
5.770160
 20
2.394040
  0
VERTEX
  8
0
  6
CONTINUOUS
 10
6.109400
 20
2.394040
  0
VERTEX
  8
0
  6
CONTINUOUS
 10
6.109400
 20
2.334640
  0
VERTEX
  8
0
  6
CONTINUOUS
 10
6.122160
 20
2.334200
  0
VERTEX
  8
0
  6
CONTINUOUS
 10
6.134480
 20
2.332000
  0
VERTEX
  8
0
  6
CONTINUOUS
 10
6.146800
 20
2.328920
  0
VERTEX
  8
0
  6
CONTINUOUS
 10
6.158240
 20
2.324960
  0
VERTEX
  8
0
  6
CONTINUOUS
 10
6.168800
 20
2.319680
  0
VERTEX
  8
0
  6
CONTINUOUS
 10
6.179360
 20
2.313520
  0
VERTEX
  8
0
  6
CONTINUOUS
 10
6.189040
 20
2.306040
  0
VERTEX
  8
0
  6
CONTINUOUS
 10
6.197840
 20
2.298120
  0
VERTEX
  8
0
  6
CONTINUOUS
 10
6.205760
 20
2.289320
  0
VERTEX
  8
0
  6
CONTINUOUS
 10
6.213240
 20
2.279640
  0
VERTEX
  8
0
  6
CONTINUOUS
 10
6.219400
 20
2.269520
  0
VERTEX
  8
0
  6
CONTINUOUS
 10
6.224680
 20
2.258520
  0
VERTEX
  8
0
  6
CONTINUOUS
 10
6.228640
 20
2.247080
  0
VERTEX
  8
0
  6
CONTINUOUS
 10
6.231720
 20
2.235200
  0
VERTEX
  8
0
  6
CONTINUOUS
 10
6.233920
 20
2.222880
  0
VERTEX
  8
0
  6
CONTINUOUS
 10
6.234360
 20
2.210120
  0
VERTEX
  8
0
  6
CONTINUOUS
 10
6.295960
 20
2.210120
  0
VERTEX
  8
0
  6
CONTINUOUS
 10
6.295960
 20
1.644720
  0
VERTEX
  8
0
  6
CONTINUOUS
 10
5.770160
 20
1.644720
  0
SEQEND
  8
0
  0
TEXT
  8
0
 10
4.539040
 20
3.480400
 40
0.137990
  1
BA  1258
 41
1.000000
  7
SN0
 71
     0
 72
     5
 11
5.222034
 21
3.480400
  0
TEXT
  8
0
 10
4.735720
 20
3.288560
 40
0.137990
  1
3/4"
 41
1.000000
  7
SN0
 71
     0
 72
     5
 11
5.025297
 21
3.288560
  0
SOLID
  8
0
 62
    15
 10
4.723840
 20
4.387240
 11
5.366240
 21
4.755520
 12
4.738800
 22
4.368760
 13
5.381200
 23
4.737040
  0
POLYLINE
  8
0
  6
CONTINUOUS
 66
     1
 40
0.000000
 41
0.000000
  0
VERTEX
  8
0
  6
CONTINUOUS
 10
4.723840
 20
4.387240
  0
VERTEX
  8
0
  6
CONTINUOUS
 10
5.366240
 20
4.755520
  0
VERTEX
  8
0
  6
CONTINUOUS
 10
5.381200
 20
4.737040
  0
VERTEX
  8
0
  6
CONTINUOUS
 10
4.738800
 20
4.368760
  0
VERTEX
  8
0
  6
CONTINUOUS
 10
4.723840
 20
4.387240
  0
SEQEND
  8
0
  0
SOLID
  8
0
 62
    15
 10
4.635400
 20
4.483160
 11
5.277800
 21
4.851440
 12
4.635400
 22
4.423760
 13
5.277800
 23
4.792480
  0
POLYLINE
  8
0
  6
CONTINUOUS
 66
     1
 40
0.000000
 41
0.000000
  0
VERTEX
  8
0
  6
CONTINUOUS
 10
4.635400
 20
4.483160
  0
VERTEX
  8
0
  6
CONTINUOUS
 10
5.277800
 20
4.851440
  0
VERTEX
  8
0
  6
CONTINUOUS
 10
5.277800
 20
4.792480
  0
VERTEX
  8
0
  6
CONTINUOUS
 10
4.635400
 20
4.423760
  0
VERTEX
  8
0
  6
CONTINUOUS
 10
4.635400
 20
4.483160
  0
SEQEND
  8
0
  0
SOLID
  8
0
 62
    15
 10
4.635400
 20
4.423760
 11
5.277800
 21
4.792480
 12
4.660480
 22
4.421560
 13
5.302880
 23
4.789840
  0
POLYLINE
  8
0
  6
CONTINUOUS
 66
     1
 40
0.000000
 41
0.000000
  0
VERTEX
  8
0
  6
CONTINUOUS
 10
4.635400
 20
4.423760
  0
VERTEX
  8
0
  6
CONTINUOUS
 10
5.277800
 20
4.792480
  0
VERTEX
  8
0
  6
CONTINUOUS
 10
5.302880
 20
4.789840
  0
VERTEX
  8
0
  6
CONTINUOUS
 10
4.660480
 20
4.421560
  0
VERTEX
  8
0
  6
CONTINUOUS
 10
4.635400
 20
4.423760
  0
SEQEND
  8
0
  0
SOLID
  8
0
 62
    15
 10
4.660480
 20
4.421560
 11
5.302880
 21
4.789840
 12
4.684240
 22
4.414080
 13
5.326640
 23
4.782360
  0
POLYLINE
  8
0
  6
CONTINUOUS
 66
     1
 40
0.000000
 41
0.000000
  0
VERTEX
  8
0
  6
CONTINUOUS
 10
4.660480
 20
4.421560
  0
VERTEX
  8
0
  6
CONTINUOUS
 10
5.302880
 20
4.789840
  0
VERTEX
  8
0
  6
CONTINUOUS
 10
5.326640
 20
4.782360
  0
VERTEX
  8
0
  6
CONTINUOUS
 10
4.684240
 20
4.414080
  0
VERTEX
  8
0
  6
CONTINUOUS
 10
4.660480
 20
4.421560
  0
SEQEND
  8
0
  0
SOLID
  8
0
 62
    15
 10
4.684240
 20
4.414080
 11
5.326640
 21
4.782360
 12
4.705360
 22
4.402640
 13
5.347760
 23
4.770920
  0
POLYLINE
  8
0
  6
CONTINUOUS
 66
     1
 40
0.000000
 41
0.000000
  0
VERTEX
  8
0
  6
CONTINUOUS
 10
4.684240
 20
4.414080
  0
VERTEX
  8
0
  6
CONTINUOUS
 10
5.326640
 20
4.782360
  0
VERTEX
  8
0
  6
CONTINUOUS
 10
5.347760
 20
4.770920
  0
VERTEX
  8
0
  6
CONTINUOUS
 10
4.705360
 20
4.402640
  0
VERTEX
  8
0
  6
CONTINUOUS
 10
4.684240
 20
4.414080
  0
SEQEND
  8
0
  0
SOLID
  8
0
 62
    15
 10
4.705360
 20
4.402640
 11
5.347760
 21
4.770920
 12
4.723840
 22
4.387240
 13
5.366240
 23
4.755520
  0
POLYLINE
  8
0
  6
CONTINUOUS
 66
     1
 40
0.000000
 41
0.000000
  0
VERTEX
  8
0
  6
CONTINUOUS
 10
4.705360
 20
4.402640
  0
VERTEX
  8
0
  6
CONTINUOUS
 10
5.347760
 20
4.770920
  0
VERTEX
  8
0
  6
CONTINUOUS
 10
5.366240
 20
4.755520
  0
VERTEX
  8
0
  6
CONTINUOUS
 10
4.723840
 20
4.387240
  0
VERTEX
  8
0
  6
CONTINUOUS
 10
4.705360
 20
4.402640
  0
SEQEND
  8
0
  0
SOLID
  8
0
 62
    15
 10
4.296160
 20
4.483160
 11
4.938120
 21
4.851440
 12
4.635400
 22
4.483160
 13
5.277800
 23
4.851440
  0
POLYLINE
  8
0
  6
CONTINUOUS
 66
     1
 40
0.000000
 41
0.000000
  0
VERTEX
  8
0
  6
CONTINUOUS
 10
4.296160
 20
4.483160
  0
VERTEX
  8
0
  6
CONTINUOUS
 10
4.938120
 20
4.851440
  0
VERTEX
  8
0
  6
CONTINUOUS
 10
5.277800
 20
4.851440
  0
VERTEX
  8
0
  6
CONTINUOUS
 10
4.635400
 20
4.483160
  0
VERTEX
  8
0
  6
CONTINUOUS
 10
4.296160
 20
4.483160
  0
SEQEND
  8
0
  0
SOLID
  8
0
 62
    15
 10
4.738800
 20
4.368760
 11
5.381200
 21
4.737040
 12
4.750680
 22
4.347640
 13
5.393080
 23
4.715920
  0
POLYLINE
  8
0
  6
CONTINUOUS
 66
     1
 40
0.000000
 41
0.000000
  0
VERTEX
  8
0
  6
CONTINUOUS
 10
4.738800
 20
4.368760
  0
VERTEX
  8
0
  6
CONTINUOUS
 10
5.381200
 20
4.737040
  0
VERTEX
  8
0
  6
CONTINUOUS
 10
5.393080
 20
4.715920
  0
VERTEX
  8
0
  6
CONTINUOUS
 10
4.750680
 20
4.347640
  0
VERTEX
  8
0
  6
CONTINUOUS
 10
4.738800
 20
4.368760
  0
SEQEND
  8
0
  0
SOLID
  8
0
 62
    15
 10
4.750680
 20
4.347640
 11
5.393080
 21
4.715920
 12
4.757720
 22
4.324320
 13
5.400120
 23
4.692600
  0
POLYLINE
  8
0
  6
CONTINUOUS
 66
     1
 40
0.000000
 41
0.000000
  0
VERTEX
  8
0
  6
CONTINUOUS
 10
4.750680
 20
4.347640
  0
VERTEX
  8
0
  6
CONTINUOUS
 10
5.393080
 20
4.715920
  0
VERTEX
  8
0
  6
CONTINUOUS
 10
5.400120
 20
4.692600
  0
VERTEX
  8
0
  6
CONTINUOUS
 10
4.757720
 20
4.324320
  0
VERTEX
  8
0
  6
CONTINUOUS
 10
4.750680
 20
4.347640
  0
SEQEND
  8
0
  0
SOLID
  8
0
 62
    15
 10
4.757720
 20
4.324320
 11
5.400120
 21
4.692600
 12
4.760360
 22
4.299240
 13
5.402760
 23
4.667520
  0
POLYLINE
  8
0
  6
CONTINUOUS
 66
     1
 40
0.000000
 41
0.000000
  0
VERTEX
  8
0
  6
CONTINUOUS
 10
4.757720
 20
4.324320
  0
VERTEX
  8
0
  6
CONTINUOUS
 10
5.400120
 20
4.692600
  0
VERTEX
  8
0
  6
CONTINUOUS
 10
5.402760
 20
4.667520
  0
VERTEX
  8
0
  6
CONTINUOUS
 10
4.760360
 20
4.299240
  0
VERTEX
  8
0
  6
CONTINUOUS
 10
4.757720
 20
4.324320
  0
SEQEND
  8
0
  0
SOLID
  8
0
 62
    15
 10
4.760360
 20
4.299240
 11
5.402760
 21
4.667520
 12
4.821520
 22
4.299240
 13
5.463920
 23
4.667520
  0
POLYLINE
  8
0
  6
CONTINUOUS
 66
     1
 40
0.000000
 41
0.000000
  0
VERTEX
  8
0
  6
CONTINUOUS
 10
4.760360
 20
4.299240
  0
VERTEX
  8
0
  6
CONTINUOUS
 10
5.402760
 20
4.667520
  0
VERTEX
  8
0
  6
CONTINUOUS
 10
5.463920
 20
4.667520
  0
VERTEX
  8
0
  6
CONTINUOUS
 10
4.821520
 20
4.299240
  0
VERTEX
  8
0
  6
CONTINUOUS
 10
4.760360
 20
4.299240
  0
SEQEND
  8
0
  0
SOLID
  8
0
 62
    15
 10
4.821520
 20
4.299240
 11
5.463920
 21
4.667520
 12
4.821520
 22
3.733840
 13
5.463920
 23
4.102120
  0
POLYLINE
  8
0
  6
CONTINUOUS
 66
     1
 40
0.000000
 41
0.000000
  0
VERTEX
  8
0
  6
CONTINUOUS
 10
4.821520
 20
4.299240
  0
VERTEX
  8
0
  6
CONTINUOUS
 10
5.463920
 20
4.667520
  0
VERTEX
  8
0
  6
CONTINUOUS
 10
5.463920
 20
4.102120
  0
VERTEX
  8
0
  6
CONTINUOUS
 10
4.821520
 20
3.733840
  0
VERTEX
  8
0
  6
CONTINUOUS
 10
4.821520
 20
4.299240
  0
SEQEND
  8
0
  0
POLYLINE
  8
0
  6
CONTINUOUS
 66
     1
 40
0.000000
 41
0.000000
  0
VERTEX
  8
0
  6
CONTINUOUS
 10
4.296160
 20
3.733840
  0
VERTEX
  8
0
  6
CONTINUOUS
 10
4.296160
 20
4.483160
  0
VERTEX
  8
0
  6
CONTINUOUS
 10
4.635400
 20
4.483160
  0
VERTEX
  8
0
  6
CONTINUOUS
 10
4.635400
 20
4.423760
  0
VERTEX
  8
0
  6
CONTINUOUS
 10
4.660480
 20
4.421560
  0
VERTEX
  8
0
  6
CONTINUOUS
 10
4.684240
 20
4.414080
  0
VERTEX
  8
0
  6
CONTINUOUS
 10
4.705360
 20
4.402640
  0
VERTEX
  8
0
  6
CONTINUOUS
 10
4.723840
 20
4.387240
  0
VERTEX
  8
0
  6
CONTINUOUS
 10
4.738800
 20
4.368760
  0
VERTEX
  8
0
  6
CONTINUOUS
 10
4.750680
 20
4.347640
  0
VERTEX
  8
0
  6
CONTINUOUS
 10
4.757720
 20
4.324320
  0
VERTEX
  8
0
  6
CONTINUOUS
 10
4.760360
 20
4.299240
  0
VERTEX
  8
0
  6
CONTINUOUS
 10
4.821520
 20
4.299240
  0
VERTEX
  8
0
  6
CONTINUOUS
 10
4.821520
 20
3.733840
  0
VERTEX
  8
0
  6
CONTINUOUS
 10
4.296160
 20
3.733840
  0
SEQEND
  8
0
  0
POLYLINE
  8
0
  6
CONTINUOUS
 66
     1
 40
0.000000
 41
0.000000
  0
VERTEX
  8
0
  6
CONTINUOUS
 10
6.108520
 20
2.393160
  0
VERTEX
  8
0
  6
CONTINUOUS
 10
6.108520
 20
2.640000
  0
VERTEX
  8
0
  6
CONTINUOUS
 10
5.606480
 20
2.640000
  0
SEQEND
  8
0
  0
POLYLINE
  8
0
  6
CONTINUOUS
 66
     1
 40
0.000000
 41
0.000000
  0
VERTEX
  8
0
  6
CONTINUOUS
 10
4.182200
 20
1.533400
  0
VERTEX
  8
0
  6
CONTINUOUS
 10
4.182200
 20
2.282280
  0
VERTEX
  8
0
  6
CONTINUOUS
 10
3.842960
 20
2.282280
  0
VERTEX
  8
0
  6
CONTINUOUS
 10
3.842960
 20
2.223320
  0
VERTEX
  8
0
  6
CONTINUOUS
 10
3.830200
 20
2.222880
  0
VERTEX
  8
0
  6
CONTINUOUS
 10
3.817880
 20
2.220680
  0
VERTEX
  8
0
  6
CONTINUOUS
 10
3.805560
 20
2.217600
  0
VERTEX
  8
0
  6
CONTINUOUS
 10
3.794120
 20
2.213640
  0
VERTEX
  8
0
  6
CONTINUOUS
 10
3.783560
 20
2.208360
  0
VERTEX
  8
0
  6
CONTINUOUS
 10
3.773000
 20
2.202200
  0
VERTEX
  8
0
  6
CONTINUOUS
 10
3.763320
 20
2.194720
  0
VERTEX
  8
0
  6
CONTINUOUS
 10
3.754520
 20
2.186800
  0
VERTEX
  8
0
  6
CONTINUOUS
 10
3.746600
 20
2.178000
  0
VERTEX
  8
0
  6
CONTINUOUS
 10
3.739120
 20
2.168320
  0
VERTEX
  8
0
  6
CONTINUOUS
 10
3.732960
 20
2.157760
  0
VERTEX
  8
0
  6
CONTINUOUS
 10
3.727680
 20
2.147200
  0
VERTEX
  8
0
  6
CONTINUOUS
 10
3.723720
 20
2.135760
  0
VERTEX
  8
0
  6
CONTINUOUS
 10
3.720640
 20
2.123440
  0
VERTEX
  8
0
  6
CONTINUOUS
 10
3.718440
 20
2.111120
  0
VERTEX
  8
0
  6
CONTINUOUS
 10
3.718000
 20
2.098360
  0
VERTEX
  8
0
  6
CONTINUOUS
 10
3.656840
 20
2.098360
  0
VERTEX
  8
0
  6
CONTINUOUS
 10
3.656840
 20
1.533400
  0
VERTEX
  8
0
  6
CONTINUOUS
 10
4.182200
 20
1.533400
  0
SEQEND
  8
0
  0
POLYLINE
  8
0
  6
CONTINUOUS
 66
     1
 40
0.000000
 41
0.000000
  0
VERTEX
  8
0
  6
CONTINUOUS
 10
3.843840
 20
2.281840
  0
VERTEX
  8
0
  6
CONTINUOUS
 10
3.843840
 20
2.528680
  0
VERTEX
  8
0
  6
CONTINUOUS
 10
4.346320
 20
2.528680
  0
SEQEND
  8
0
  0
ENDSEC
  0
EOF
