  0
SECTION
  2
HEADER
  9
$ACADVER
  1
AC1006
  9
$EXTMIN
 10
3.063720
 20
2.599080
  9
$EXTMAX
 10
6.351840
 20
8.231520
  9
$LTSCALE
 40
0.044000
  9
$PDMODE
 70
    35
  9
$PDSIZE
 40
0.035200
  0
ENDSEC
  0
SECTION
  2
TABLES
  0
TABLE
  2
LTYPE
 70
     9
  0
LTYPE
  2
CONTINUOUS
 70
    64
  3
Solid line
 72
    65
 73
     0
 40
0.000000
  0
LTYPE
  2
DASHED
 70
    64
  3
__ __ __ __ __ __ __ __ __ __ __ __ __ __ __
 72
    65
 73
     2
 40
0.000330
 49
0.000220
 49
-0.000110
  0
LTYPE
  2
HIDDEN
 70
    64
  3
 _ _ _ _ _ _ _ _ _ _ _ _ _ _ _ _ _ _ _ _ _ _
 72
    65
 73
     2
 40
0.000165
 49
0.000110
 49
-0.000055
  0
LTYPE
  2
CENTER
 70
    64
  3
____ _ ____ _ ____ _ ____ _ ____ _ ____ _ ____
 72
    65
 73
     4
 40
0.000880
 49
0.000550
 49
-0.000110
 49
0.000110
 49
-0.000110
  0
LTYPE
  2
PHANTOM
 70
    64
  3
_____ _ _ _____ _ _ _____ _ _ _____ _ _ ____
 72
    65
 73
     6
 40
0.001100
 49
0.000550
 49
-0.000110
 49
0.000110
 49
-0.000110
 49
0.000110
 49
-0.000110
  0
LTYPE
  2
DOT
 70
    64
  3
...............................................
 72
    65
 73
     2
 40
0.000110
 49
0.000000
 49
-0.000110
  0
LTYPE
  2
DASHDOT
 70
    64
  3
__ . __ . __ . __ . __ . __ . __ . __ . __ . __
 72
    65
 73
     4
 40
0.000440
 49
0.000220
 49
-0.000110
 49
0.000000
 49
-0.000110
  0
LTYPE
  2
BORDER
 70
    64
  3
__ __ . __ __ . __ __ . __ __ . __ __ . __ __
 72
    65
 73
     6
 40
0.000770
 49
0.000220
 49
-0.000110
 49
0.000220
 49
-0.000110
 49
0.000000
 49
-0.000110
  0
LTYPE
  2
DIVIDE
 70
    64
  3
__ . . __ . . __ . . __ . . __ . . __ . . __
 72
    65
 73
     6
 40
0.000550
 49
0.000220
 49
-0.000110
 49
0.000000
 49
-0.000110
 49
0.000000
 49
-0.000110
  0
LTYPE
  2
DOTDOT
 70
    64
  3
 . .  . .  . .  . .  . .  . . 
 72
    65
 73
     5
 40
0.000242
 49
-0.000110
 49
0.000000
 49
-0.000110
 49
0.000000
 49
-0.000110
  0
ENDTAB
  0
TABLE
  2
STYLE
 70
     2
  0
STYLE
 70
     0
  2
SN0
 40
0.000000
 41
0.000440
 50
0.000000
 71
     0
 42
0.000000
  3
ROMAND
  0
STYLE
 70
    68
  2
SV0
 40
0.000000
 41
0.000440
 50
0.000000
 71
     0
 42
0.000000
  3
ROMAND
  0
ENDTAB
  0
TABLE
  2
LAYER
 70
     3
  0
LAYER
  2
FOREGROUND
 70
    64
 62
     7
  6
CONTINUOUS
  0
LAYER
  2
BACKGROUND
 70
    65
 62
    -7
  6
CONTINUOUS
  0
LAYER
  2
0
 70
    64
 62
     7
  6
CONTINUOUS
  0
ENDTAB
  0
ENDSEC
  0
SECTION
  2
ENTITIES
  0
POLYLINE
  8
FOREGROUND
  6
CONTINUOUS
 66
     1
 40
0.000000
 41
0.000000
  0
VERTEX
  8
FOREGROUND
  6
CONTINUOUS
 10
0.000000
 20
10.830600
  0
VERTEX
  8
FOREGROUND
  6
CONTINUOUS
 10
8.499920
 20
10.830600
  0
VERTEX
  8
FOREGROUND
  6
CONTINUOUS
 10
8.499920
 20
-0.169400
  0
VERTEX
  8
FOREGROUND
  6
CONTINUOUS
 10
0.000000
 20
-0.169400
  0
VERTEX
  8
FOREGROUND
  6
CONTINUOUS
 10
0.000000
 20
10.830600
  0
SEQEND
  8
0
  0
POLYLINE
  8
FOREGROUND
  6
CONTINUOUS
 66
     1
 40
0.000000
 41
0.000000
  0
VERTEX
  8
FOREGROUND
  6
CONTINUOUS
 10
0.000000
 20
10.830600
  0
VERTEX
  8
FOREGROUND
  6
CONTINUOUS
 10
8.499920
 20
10.830600
  0
VERTEX
  8
FOREGROUND
  6
CONTINUOUS
 10
8.499920
 20
-0.169400
  0
VERTEX
  8
FOREGROUND
  6
CONTINUOUS
 10
0.000000
 20
-0.169400
  0
VERTEX
  8
FOREGROUND
  6
CONTINUOUS
 10
0.000000
 20
10.830600
  0
SEQEND
  8
0
  0
POLYLINE
  8
0
  6
CONTINUOUS
 66
     1
 40
0.014080
 41
0.014080
  0
VERTEX
  8
0
  6
CONTINUOUS
 10
5.514520
 20
7.293000
  0
VERTEX
  8
0
  6
CONTINUOUS
 10
5.514520
 20
7.499360
  0
VERTEX
  8
0
  6
CONTINUOUS
 10
5.513640
 20
7.522240
  0
VERTEX
  8
0
  6
CONTINUOUS
 10
5.510560
 20
7.543360
  0
VERTEX
  8
0
  6
CONTINUOUS
 10
5.505720
 20
7.563160
  0
VERTEX
  8
0
  6
CONTINUOUS
 10
5.491200
 20
7.597920
  0
VERTEX
  8
0
  6
CONTINUOUS
 10
5.470960
 20
7.626960
  0
VERTEX
  8
0
  6
CONTINUOUS
 10
5.459080
 20
7.639280
  0
VERTEX
  8
0
  6
CONTINUOUS
 10
5.431800
 20
7.659520
  0
VERTEX
  8
0
  6
CONTINUOUS
 10
5.401880
 20
7.674040
  0
VERTEX
  8
0
  6
CONTINUOUS
 10
5.369760
 20
7.682840
  0
VERTEX
  8
0
  6
CONTINUOUS
 10
5.336760
 20
7.685920
  0
VERTEX
  8
0
  6
CONTINUOUS
 10
5.303320
 20
7.683720
  0
VERTEX
  8
0
  6
CONTINUOUS
 10
5.271200
 20
7.676680
  0
VERTEX
  8
0
  6
CONTINUOUS
 10
5.241280
 20
7.663920
  0
VERTEX
  8
0
  6
CONTINUOUS
 10
5.214000
 20
7.646320
  0
VERTEX
  8
0
  6
CONTINUOUS
 10
5.191560
 20
7.623880
  0
VERTEX
  8
0
  6
CONTINUOUS
 10
5.181880
 20
7.610680
  0
VERTEX
  8
0
  6
CONTINUOUS
 10
5.167360
 20
7.580760
  0
VERTEX
  8
0
  6
CONTINUOUS
 10
5.162520
 20
7.564040
  0
VERTEX
  8
0
  6
CONTINUOUS
 10
5.159440
 20
7.546000
  0
VERTEX
  8
0
  6
CONTINUOUS
 10
5.158560
 20
7.527080
  0
VERTEX
  8
0
  6
CONTINUOUS
 10
5.121160
 20
7.527080
  0
VERTEX
  8
0
  6
CONTINUOUS
 10
5.091240
 20
7.634440
  0
VERTEX
  8
0
  6
CONTINUOUS
 10
4.757280
 20
7.623880
  0
VERTEX
  8
0
  6
CONTINUOUS
 10
4.696120
 20
7.623440
  0
VERTEX
  8
0
  6
CONTINUOUS
 10
4.613400
 20
7.627400
  0
VERTEX
  8
0
  6
CONTINUOUS
 10
4.564560
 20
7.633560
  0
VERTEX
  8
0
  6
CONTINUOUS
 10
4.520120
 20
7.643680
  0
VERTEX
  8
0
  6
CONTINUOUS
 10
4.480960
 20
7.658200
  0
VERTEX
  8
0
  6
CONTINUOUS
 10
4.463360
 20
7.667440
  0
VERTEX
  8
0
  6
CONTINUOUS
 10
4.431680
 20
7.689880
  0
VERTEX
  8
0
  6
CONTINUOUS
 10
4.417600
 20
7.703080
  0
VERTEX
  8
0
  6
CONTINUOUS
 10
4.393840
 20
7.734760
  0
VERTEX
  8
0
  6
CONTINUOUS
 10
4.383720
 20
7.752800
  0
VERTEX
  8
0
  6
CONTINUOUS
 10
4.374920
 20
7.773040
  0
VERTEX
  8
0
  6
CONTINUOUS
 10
4.367440
 20
7.795040
  0
VERTEX
  8
0
  6
CONTINUOUS
 10
4.358640
 20
7.832000
  0
VERTEX
  8
0
  6
CONTINUOUS
 10
4.352920
 20
7.873360
  0
VERTEX
  8
0
  6
CONTINUOUS
 10
4.254360
 20
7.873360
  0
VERTEX
  8
0
  6
CONTINUOUS
 10
4.242920
 20
7.986880
  0
VERTEX
  8
0
  6
CONTINUOUS
 10
4.148760
 20
7.986880
  0
VERTEX
  8
0
  6
CONTINUOUS
 10
4.136880
 20
8.026920
  0
VERTEX
  8
0
  6
CONTINUOUS
 10
4.120160
 20
8.063880
  0
VERTEX
  8
0
  6
CONTINUOUS
 10
4.106960
 20
8.086320
  0
VERTEX
  8
0
  6
CONTINUOUS
 10
4.092000
 20
8.107000
  0
VERTEX
  8
0
  6
CONTINUOUS
 10
4.058120
 20
8.143520
  0
VERTEX
  8
0
  6
CONTINUOUS
 10
4.038760
 20
8.159360
  0
VERTEX
  8
0
  6
CONTINUOUS
 10
4.018520
 20
8.173440
  0
VERTEX
  8
0
  6
CONTINUOUS
 10
3.975400
 20
8.196760
  0
VERTEX
  8
0
  6
CONTINUOUS
 10
3.952960
 20
8.205560
  0
VERTEX
  8
0
  6
CONTINUOUS
 10
3.929640
 20
8.212600
  0
VERTEX
  8
0
  6
CONTINUOUS
 10
3.882120
 20
8.221840
  0
VERTEX
  8
0
  6
CONTINUOUS
 10
3.857920
 20
8.223600
  0
VERTEX
  8
0
  6
CONTINUOUS
 10
3.833720
 20
8.223600
  0
VERTEX
  8
0
  6
CONTINUOUS
 10
3.809960
 20
8.221840
  0
VERTEX
  8
0
  6
CONTINUOUS
 10
3.762440
 20
8.212600
  0
VERTEX
  8
0
  6
CONTINUOUS
 10
3.739560
 20
8.205120
  0
VERTEX
  8
0
  6
CONTINUOUS
 10
3.717560
 20
8.195880
  0
VERTEX
  8
0
  6
CONTINUOUS
 10
3.696000
 20
8.184440
  0
VERTEX
  8
0
  6
CONTINUOUS
 10
3.675760
 20
8.171240
  0
VERTEX
  8
0
  6
CONTINUOUS
 10
3.656400
 20
8.156280
  0
VERTEX
  8
0
  6
CONTINUOUS
 10
3.637920
 20
8.139120
  0
VERTEX
  8
0
  6
CONTINUOUS
 10
3.613280
 20
8.109640
  0
VERTEX
  8
0
  6
CONTINUOUS
 10
3.592160
 20
8.076200
  0
VERTEX
  8
0
  6
CONTINUOUS
 10
3.574560
 20
8.037920
  0
VERTEX
  8
0
  6
CONTINUOUS
 10
3.561800
 20
7.994800
  0
VERTEX
  8
0
  6
CONTINUOUS
 10
3.475120
 20
7.994800
  0
VERTEX
  8
0
  6
CONTINUOUS
 10
3.465440
 20
7.863680
  0
VERTEX
  8
0
  6
CONTINUOUS
 10
3.439920
 20
7.861920
  0
VERTEX
  8
0
  6
CONTINUOUS
 10
3.417480
 20
7.856640
  0
VERTEX
  8
0
  6
CONTINUOUS
 10
3.388440
 20
7.843880
  0
VERTEX
  8
0
  6
CONTINUOUS
 10
3.364680
 20
7.825840
  0
VERTEX
  8
0
  6
CONTINUOUS
 10
3.351480
 20
7.812200
  0
VERTEX
  8
0
  6
CONTINUOUS
 10
3.340480
 20
7.797680
  0
VERTEX
  8
0
  6
CONTINUOUS
 10
3.323320
 20
7.766880
  0
VERTEX
  8
0
  6
CONTINUOUS
 10
3.312320
 20
7.737840
  0
VERTEX
  8
0
  6
CONTINUOUS
 10
3.303960
 20
7.702640
  0
VERTEX
  8
0
  6
CONTINUOUS
 10
3.300880
 20
7.681960
  0
VERTEX
  8
0
  6
CONTINUOUS
 10
3.289000
 20
7.646760
  0
VERTEX
  8
0
  6
CONTINUOUS
 10
3.273160
 20
7.618160
  0
VERTEX
  8
0
  6
CONTINUOUS
 10
3.255560
 20
7.597040
  0
VERTEX
  8
0
  6
CONTINUOUS
 10
3.232240
 20
7.577240
  0
VERTEX
  8
0
  6
CONTINUOUS
 10
3.213320
 20
7.565360
  0
VERTEX
  8
0
  6
CONTINUOUS
 10
3.191320
 20
7.555680
  0
VERTEX
  8
0
  6
CONTINUOUS
 10
3.166240
 20
7.548200
  0
VERTEX
  8
0
  6
CONTINUOUS
 10
3.137640
 20
7.543360
  0
VERTEX
  8
0
  6
CONTINUOUS
 10
3.105080
 20
7.541600
  0
VERTEX
  8
0
  6
CONTINUOUS
 10
3.105080
 20
7.293000
  0
VERTEX
  8
0
  6
CONTINUOUS
 10
5.514520
 20
7.293000
  0
SEQEND
  8
0
  0
POLYLINE
  8
0
  6
CONTINUOUS
 66
     1
 40
0.000000
 41
0.000000
  0
VERTEX
  8
0
  6
CONTINUOUS
 10
5.473600
 20
3.071640
  0
VERTEX
  8
0
  6
CONTINUOUS
 10
5.473600
 20
3.278000
  0
VERTEX
  8
0
  6
CONTINUOUS
 10
5.472720
 20
3.300880
  0
VERTEX
  8
0
  6
CONTINUOUS
 10
5.469640
 20
3.322000
  0
VERTEX
  8
0
  6
CONTINUOUS
 10
5.464800
 20
3.341800
  0
VERTEX
  8
0
  6
CONTINUOUS
 10
5.458200
 20
3.360280
  0
VERTEX
  8
0
  6
CONTINUOUS
 10
5.450280
 20
3.377000
  0
VERTEX
  8
0
  6
CONTINUOUS
 10
5.430040
 20
3.406040
  0
VERTEX
  8
0
  6
CONTINUOUS
 10
5.404960
 20
3.428920
  0
VERTEX
  8
0
  6
CONTINUOUS
 10
5.376360
 20
3.446080
  0
VERTEX
  8
0
  6
CONTINUOUS
 10
5.345120
 20
3.457960
  0
VERTEX
  8
0
  6
CONTINUOUS
 10
5.312560
 20
3.463680
  0
VERTEX
  8
0
  6
CONTINUOUS
 10
5.279120
 20
3.464560
  0
VERTEX
  8
0
  6
CONTINUOUS
 10
5.246560
 20
3.459720
  0
VERTEX
  8
0
  6
CONTINUOUS
 10
5.215320
 20
3.449600
  0
VERTEX
  8
0
  6
CONTINUOUS
 10
5.186720
 20
3.434640
  0
VERTEX
  8
0
  6
CONTINUOUS
 10
5.161640
 20
3.414400
  0
VERTEX
  8
0
  6
CONTINUOUS
 10
5.141400
 20
3.389320
  0
VERTEX
  8
0
  6
CONTINUOUS
 10
5.126880
 20
3.359400
  0
VERTEX
  8
0
  6
CONTINUOUS
 10
5.122040
 20
3.342680
  0
VERTEX
  8
0
  6
CONTINUOUS
 10
5.118960
 20
3.324640
  0
VERTEX
  8
0
  6
CONTINUOUS
 10
5.118080
 20
3.305720
  0
VERTEX
  8
0
  6
CONTINUOUS
 10
5.080240
 20
3.305720
  0
VERTEX
  8
0
  6
CONTINUOUS
 10
5.050320
 20
3.413520
  0
VERTEX
  8
0
  6
CONTINUOUS
 10
4.716800
 20
3.402520
  0
VERTEX
  8
0
  6
CONTINUOUS
 10
4.655640
 20
3.402080
  0
VERTEX
  8
0
  6
CONTINUOUS
 10
4.572480
 20
3.406040
  0
VERTEX
  8
0
  6
CONTINUOUS
 10
4.547400
 20
3.408680
  0
VERTEX
  8
0
  6
CONTINUOUS
 10
4.500760
 20
3.417040
  0
VERTEX
  8
0
  6
CONTINUOUS
 10
4.459400
 20
3.429360
  0
VERTEX
  8
0
  6
CONTINUOUS
 10
4.440040
 20
3.436840
  0
VERTEX
  8
0
  6
CONTINUOUS
 10
4.422440
 20
3.446080
  0
VERTEX
  8
0
  6
CONTINUOUS
 10
4.390760
 20
3.468520
  0
VERTEX
  8
0
  6
CONTINUOUS
 10
4.364360
 20
3.496680
  0
VERTEX
  8
0
  6
CONTINUOUS
 10
4.352920
 20
3.513400
  0
VERTEX
  8
0
  6
CONTINUOUS
 10
4.342800
 20
3.531440
  0
VERTEX
  8
0
  6
CONTINUOUS
 10
4.334000
 20
3.551680
  0
VERTEX
  8
0
  6
CONTINUOUS
 10
4.326520
 20
3.573680
  0
VERTEX
  8
0
  6
CONTINUOUS
 10
4.317720
 20
3.610640
  0
VERTEX
  8
0
  6
CONTINUOUS
 10
4.312000
 20
3.652000
  0
VERTEX
  8
0
  6
CONTINUOUS
 10
4.213880
 20
3.652000
  0
VERTEX
  8
0
  6
CONTINUOUS
 10
4.202440
 20
3.765520
  0
VERTEX
  8
0
  6
CONTINUOUS
 10
4.107840
 20
3.765520
  0
VERTEX
  8
0
  6
CONTINUOUS
 10
4.095960
 20
3.805560
  0
VERTEX
  8
0
  6
CONTINUOUS
 10
4.079240
 20
3.842520
  0
VERTEX
  8
0
  6
CONTINUOUS
 10
4.066040
 20
3.864960
  0
VERTEX
  8
0
  6
CONTINUOUS
 10
4.051080
 20
3.885640
  0
VERTEX
  8
0
  6
CONTINUOUS
 10
4.017200
 20
3.922160
  0
VERTEX
  8
0
  6
CONTINUOUS
 10
3.978040
 20
3.952080
  0
VERTEX
  8
0
  6
CONTINUOUS
 10
3.934920
 20
3.975400
  0
VERTEX
  8
0
  6
CONTINUOUS
 10
3.912040
 20
3.984200
  0
VERTEX
  8
0
  6
CONTINUOUS
 10
3.888720
 20
3.991240
  0
VERTEX
  8
0
  6
CONTINUOUS
 10
3.841200
 20
4.000480
  0
VERTEX
  8
0
  6
CONTINUOUS
 10
3.817440
 20
4.002240
  0
VERTEX
  8
0
  6
CONTINUOUS
 10
3.793240
 20
4.002240
  0
VERTEX
  8
0
  6
CONTINUOUS
 10
3.769040
 20
4.000480
  0
VERTEX
  8
0
  6
CONTINUOUS
 10
3.721960
 20
3.991240
  0
VERTEX
  8
0
  6
CONTINUOUS
 10
3.699080
 20
3.983760
  0
VERTEX
  8
0
  6
CONTINUOUS
 10
3.677080
 20
3.974520
  0
VERTEX
  8
0
  6
CONTINUOUS
 10
3.655520
 20
3.963080
  0
VERTEX
  8
0
  6
CONTINUOUS
 10
3.635280
 20
3.949880
  0
VERTEX
  8
0
  6
CONTINUOUS
 10
3.615920
 20
3.934920
  0
VERTEX
  8
0
  6
CONTINUOUS
 10
3.597440
 20
3.917760
  0
VERTEX
  8
0
  6
CONTINUOUS
 10
3.572800
 20
3.888280
  0
VERTEX
  8
0
  6
CONTINUOUS
 10
3.551680
 20
3.854840
  0
VERTEX
  8
0
  6
CONTINUOUS
 10
3.534080
 20
3.816560
  0
VERTEX
  8
0
  6
CONTINUOUS
 10
3.521320
 20
3.773440
  0
VERTEX
  8
0
  6
CONTINUOUS
 10
3.434640
 20
3.773440
  0
VERTEX
  8
0
  6
CONTINUOUS
 10
3.424960
 20
3.642320
  0
VERTEX
  8
0
  6
CONTINUOUS
 10
3.399440
 20
3.640560
  0
VERTEX
  8
0
  6
CONTINUOUS
 10
3.377000
 20
3.635280
  0
VERTEX
  8
0
  6
CONTINUOUS
 10
3.347960
 20
3.622520
  0
VERTEX
  8
0
  6
CONTINUOUS
 10
3.324200
 20
3.604480
  0
VERTEX
  8
0
  6
CONTINUOUS
 10
3.311000
 20
3.590840
  0
VERTEX
  8
0
  6
CONTINUOUS
 10
3.300000
 20
3.576320
  0
VERTEX
  8
0
  6
CONTINUOUS
 10
3.282840
 20
3.545520
  0
VERTEX
  8
0
  6
CONTINUOUS
 10
3.271840
 20
3.516480
  0
VERTEX
  8
0
  6
CONTINUOUS
 10
3.263480
 20
3.481280
  0
VERTEX
  8
0
  6
CONTINUOUS
 10
3.260400
 20
3.460600
  0
VERTEX
  8
0
  6
CONTINUOUS
 10
3.248520
 20
3.425400
  0
VERTEX
  8
0
  6
CONTINUOUS
 10
3.232680
 20
3.397240
  0
VERTEX
  8
0
  6
CONTINUOUS
 10
3.215080
 20
3.375680
  0
VERTEX
  8
0
  6
CONTINUOUS
 10
3.191760
 20
3.355880
  0
VERTEX
  8
0
  6
CONTINUOUS
 10
3.162280
 20
3.339600
  0
VERTEX
  8
0
  6
CONTINUOUS
 10
3.138520
 20
3.330800
  0
VERTEX
  8
0
  6
CONTINUOUS
 10
3.111680
 20
3.324640
  0
VERTEX
  8
0
  6
CONTINUOUS
 10
3.081320
 20
3.321120
  0
VERTEX
  8
0
  6
CONTINUOUS
 10
3.064600
 20
3.320680
  0
VERTEX
  8
0
  6
CONTINUOUS
 10
3.064600
 20
3.072080
  0
VERTEX
  8
0
  6
CONTINUOUS
 10
5.473600
 20
3.071640
  0
SEQEND
  8
0
  0
SOLID
  8
0
 62
    15
 10
4.073520
 20
5.913600
 11
4.838240
 21
5.905240
 12
4.073520
 22
5.815480
 13
4.838240
 23
5.806680
  0
POLYLINE
  8
0
  6
CONTINUOUS
 66
     1
 40
0.000000
 41
0.000000
  0
VERTEX
  8
0
  6
CONTINUOUS
 10
4.073520
 20
5.913600
  0
VERTEX
  8
0
  6
CONTINUOUS
 10
4.838240
 20
5.905240
  0
VERTEX
  8
0
  6
CONTINUOUS
 10
4.838240
 20
5.806680
  0
VERTEX
  8
0
  6
CONTINUOUS
 10
4.073520
 20
5.815480
  0
VERTEX
  8
0
  6
CONTINUOUS
 10
4.073520
 20
5.913600
  0
SEQEND
  8
0
  0
SOLID
  8
0
 62
    15
 10
3.743960
 20
7.030760
 11
4.508240
 21
7.021960
 12
3.748800
 22
7.002160
 13
4.513080
 23
6.993360
  0
POLYLINE
  8
0
  6
CONTINUOUS
 66
     1
 40
0.000000
 41
0.000000
  0
VERTEX
  8
0
  6
CONTINUOUS
 10
3.743960
 20
7.030760
  0
VERTEX
  8
0
  6
CONTINUOUS
 10
4.508240
 20
7.021960
  0
VERTEX
  8
0
  6
CONTINUOUS
 10
4.513080
 20
6.993360
  0
VERTEX
  8
0
  6
CONTINUOUS
 10
3.748800
 20
7.002160
  0
VERTEX
  8
0
  6
CONTINUOUS
 10
3.743960
 20
7.030760
  0
SEQEND
  8
0
  0
SOLID
  8
0
 62
    15
 10
3.748800
 20
7.002160
 11
4.513080
 21
6.993360
 12
3.765960
 22
6.954640
 13
4.530240
 23
6.946280
  0
POLYLINE
  8
0
  6
CONTINUOUS
 66
     1
 40
0.000000
 41
0.000000
  0
VERTEX
  8
0
  6
CONTINUOUS
 10
3.748800
 20
7.002160
  0
VERTEX
  8
0
  6
CONTINUOUS
 10
4.513080
 20
6.993360
  0
VERTEX
  8
0
  6
CONTINUOUS
 10
4.530240
 20
6.946280
  0
VERTEX
  8
0
  6
CONTINUOUS
 10
3.765960
 20
6.954640
  0
VERTEX
  8
0
  6
CONTINUOUS
 10
3.748800
 20
7.002160
  0
SEQEND
  8
0
  0
SOLID
  8
0
 62
    15
 10
3.765960
 20
6.954640
 11
4.530240
 21
6.946280
 12
3.790600
 22
6.919880
 13
4.554880
 23
6.911080
  0
POLYLINE
  8
0
  6
CONTINUOUS
 66
     1
 40
0.000000
 41
0.000000
  0
VERTEX
  8
0
  6
CONTINUOUS
 10
3.765960
 20
6.954640
  0
VERTEX
  8
0
  6
CONTINUOUS
 10
4.530240
 20
6.946280
  0
VERTEX
  8
0
  6
CONTINUOUS
 10
4.554880
 20
6.911080
  0
VERTEX
  8
0
  6
CONTINUOUS
 10
3.790600
 20
6.919880
  0
VERTEX
  8
0
  6
CONTINUOUS
 10
3.765960
 20
6.954640
  0
SEQEND
  8
0
  0
SOLID
  8
0
 62
    15
 10
3.790600
 20
6.919880
 11
4.554880
 21
6.911080
 12
3.818760
 22
6.895240
 13
4.583040
 23
6.886440
  0
POLYLINE
  8
0
  6
CONTINUOUS
 66
     1
 40
0.000000
 41
0.000000
  0
VERTEX
  8
0
  6
CONTINUOUS
 10
3.790600
 20
6.919880
  0
VERTEX
  8
0
  6
CONTINUOUS
 10
4.554880
 20
6.911080
  0
VERTEX
  8
0
  6
CONTINUOUS
 10
4.583040
 20
6.886440
  0
VERTEX
  8
0
  6
CONTINUOUS
 10
3.818760
 20
6.895240
  0
VERTEX
  8
0
  6
CONTINUOUS
 10
3.790600
 20
6.919880
  0
SEQEND
  8
0
  0
SOLID
  8
0
 62
    15
 10
3.818760
 20
6.895240
 11
4.583040
 21
6.886440
 12
3.846920
 22
6.878960
 13
4.611640
 23
6.870600
  0
POLYLINE
  8
0
  6
CONTINUOUS
 66
     1
 40
0.000000
 41
0.000000
  0
VERTEX
  8
0
  6
CONTINUOUS
 10
3.818760
 20
6.895240
  0
VERTEX
  8
0
  6
CONTINUOUS
 10
4.583040
 20
6.886440
  0
VERTEX
  8
0
  6
CONTINUOUS
 10
4.611640
 20
6.870600
  0
VERTEX
  8
0
  6
CONTINUOUS
 10
3.846920
 20
6.878960
  0
VERTEX
  8
0
  6
CONTINUOUS
 10
3.818760
 20
6.895240
  0
SEQEND
  8
0
  0
SOLID
  8
0
 62
    15
 10
3.846920
 20
6.878960
 11
4.611640
 21
6.870600
 12
3.872000
 22
6.869720
 13
4.636720
 23
6.861360
  0
POLYLINE
  8
0
  6
CONTINUOUS
 66
     1
 40
0.000000
 41
0.000000
  0
VERTEX
  8
0
  6
CONTINUOUS
 10
3.846920
 20
6.878960
  0
VERTEX
  8
0
  6
CONTINUOUS
 10
4.611640
 20
6.870600
  0
VERTEX
  8
0
  6
CONTINUOUS
 10
4.636720
 20
6.861360
  0
VERTEX
  8
0
  6
CONTINUOUS
 10
3.872000
 20
6.869720
  0
VERTEX
  8
0
  6
CONTINUOUS
 10
3.846920
 20
6.878960
  0
SEQEND
  8
0
  0
SOLID
  8
0
 62
    15
 10
3.872000
 20
6.869720
 11
4.636720
 21
6.861360
 12
3.890480
 22
6.865760
 13
4.654760
 23
6.856960
  0
POLYLINE
  8
0
  6
CONTINUOUS
 66
     1
 40
0.000000
 41
0.000000
  0
VERTEX
  8
0
  6
CONTINUOUS
 10
3.872000
 20
6.869720
  0
VERTEX
  8
0
  6
CONTINUOUS
 10
4.636720
 20
6.861360
  0
VERTEX
  8
0
  6
CONTINUOUS
 10
4.654760
 20
6.856960
  0
VERTEX
  8
0
  6
CONTINUOUS
 10
3.890480
 20
6.865760
  0
VERTEX
  8
0
  6
CONTINUOUS
 10
3.872000
 20
6.869720
  0
SEQEND
  8
0
  0
SOLID
  8
0
 62
    15
 10
3.890480
 20
6.865760
 11
4.654760
 21
6.856960
 12
3.906320
 22
6.863560
 13
4.671040
 23
6.854760
  0
POLYLINE
  8
0
  6
CONTINUOUS
 66
     1
 40
0.000000
 41
0.000000
  0
VERTEX
  8
0
  6
CONTINUOUS
 10
3.890480
 20
6.865760
  0
VERTEX
  8
0
  6
CONTINUOUS
 10
4.654760
 20
6.856960
  0
VERTEX
  8
0
  6
CONTINUOUS
 10
4.671040
 20
6.854760
  0
VERTEX
  8
0
  6
CONTINUOUS
 10
3.906320
 20
6.863560
  0
VERTEX
  8
0
  6
CONTINUOUS
 10
3.890480
 20
6.865760
  0
SEQEND
  8
0
  0
SOLID
  8
0
 62
    15
 10
3.906320
 20
6.863560
 11
4.671040
 21
6.854760
 12
3.925680
 22
6.859160
 13
4.689960
 23
6.850800
  0
POLYLINE
  8
0
  6
CONTINUOUS
 66
     1
 40
0.000000
 41
0.000000
  0
VERTEX
  8
0
  6
CONTINUOUS
 10
3.906320
 20
6.863560
  0
VERTEX
  8
0
  6
CONTINUOUS
 10
4.671040
 20
6.854760
  0
VERTEX
  8
0
  6
CONTINUOUS
 10
4.689960
 20
6.850800
  0
VERTEX
  8
0
  6
CONTINUOUS
 10
3.925680
 20
6.859160
  0
VERTEX
  8
0
  6
CONTINUOUS
 10
3.906320
 20
6.863560
  0
SEQEND
  8
0
  0
SOLID
  8
0
 62
    15
 10
3.925680
 20
6.859160
 11
4.689960
 21
6.850800
 12
3.952520
 22
6.850800
 13
4.716800
 23
6.842440
  0
POLYLINE
  8
0
  6
CONTINUOUS
 66
     1
 40
0.000000
 41
0.000000
  0
VERTEX
  8
0
  6
CONTINUOUS
 10
3.925680
 20
6.859160
  0
VERTEX
  8
0
  6
CONTINUOUS
 10
4.689960
 20
6.850800
  0
VERTEX
  8
0
  6
CONTINUOUS
 10
4.716800
 20
6.842440
  0
VERTEX
  8
0
  6
CONTINUOUS
 10
3.952520
 20
6.850800
  0
VERTEX
  8
0
  6
CONTINUOUS
 10
3.925680
 20
6.859160
  0
SEQEND
  8
0
  0
SOLID
  8
0
 62
    15
 10
3.952520
 20
6.850800
 11
4.716800
 21
6.842440
 12
3.982440
 22
6.837160
 13
4.746720
 23
6.828360
  0
POLYLINE
  8
0
  6
CONTINUOUS
 66
     1
 40
0.000000
 41
0.000000
  0
VERTEX
  8
0
  6
CONTINUOUS
 10
3.952520
 20
6.850800
  0
VERTEX
  8
0
  6
CONTINUOUS
 10
4.716800
 20
6.842440
  0
VERTEX
  8
0
  6
CONTINUOUS
 10
4.746720
 20
6.828360
  0
VERTEX
  8
0
  6
CONTINUOUS
 10
3.982440
 20
6.837160
  0
VERTEX
  8
0
  6
CONTINUOUS
 10
3.952520
 20
6.850800
  0
SEQEND
  8
0
  0
SOLID
  8
0
 62
    15
 10
3.982440
 20
6.837160
 11
4.746720
 21
6.828360
 12
4.012360
 22
6.816480
 13
4.777080
 23
6.808120
  0
POLYLINE
  8
0
  6
CONTINUOUS
 66
     1
 40
0.000000
 41
0.000000
  0
VERTEX
  8
0
  6
CONTINUOUS
 10
3.982440
 20
6.837160
  0
VERTEX
  8
0
  6
CONTINUOUS
 10
4.746720
 20
6.828360
  0
VERTEX
  8
0
  6
CONTINUOUS
 10
4.777080
 20
6.808120
  0
VERTEX
  8
0
  6
CONTINUOUS
 10
4.012360
 20
6.816480
  0
VERTEX
  8
0
  6
CONTINUOUS
 10
3.982440
 20
6.837160
  0
SEQEND
  8
0
  0
SOLID
  8
0
 62
    15
 10
4.012360
 20
6.816480
 11
4.777080
 21
6.808120
 12
4.038760
 22
6.788320
 13
4.803040
 23
6.779520
  0
POLYLINE
  8
0
  6
CONTINUOUS
 66
     1
 40
0.000000
 41
0.000000
  0
VERTEX
  8
0
  6
CONTINUOUS
 10
4.012360
 20
6.816480
  0
VERTEX
  8
0
  6
CONTINUOUS
 10
4.777080
 20
6.808120
  0
VERTEX
  8
0
  6
CONTINUOUS
 10
4.803040
 20
6.779520
  0
VERTEX
  8
0
  6
CONTINUOUS
 10
4.038760
 20
6.788320
  0
VERTEX
  8
0
  6
CONTINUOUS
 10
4.012360
 20
6.816480
  0
SEQEND
  8
0
  0
SOLID
  8
0
 62
    15
 10
4.038760
 20
6.788320
 11
4.803040
 21
6.779520
 12
4.056800
 22
6.750480
 13
4.821520
 23
6.742120
  0
POLYLINE
  8
0
  6
CONTINUOUS
 66
     1
 40
0.000000
 41
0.000000
  0
VERTEX
  8
0
  6
CONTINUOUS
 10
4.038760
 20
6.788320
  0
VERTEX
  8
0
  6
CONTINUOUS
 10
4.803040
 20
6.779520
  0
VERTEX
  8
0
  6
CONTINUOUS
 10
4.821520
 20
6.742120
  0
VERTEX
  8
0
  6
CONTINUOUS
 10
4.056800
 20
6.750480
  0
VERTEX
  8
0
  6
CONTINUOUS
 10
4.038760
 20
6.788320
  0
SEQEND
  8
0
  0
SOLID
  8
0
 62
    15
 10
4.056800
 20
6.750480
 11
4.821520
 21
6.742120
 12
4.063840
 22
6.702520
 13
4.828560
 23
6.694160
  0
POLYLINE
  8
0
  6
CONTINUOUS
 66
     1
 40
0.000000
 41
0.000000
  0
VERTEX
  8
0
  6
CONTINUOUS
 10
4.056800
 20
6.750480
  0
VERTEX
  8
0
  6
CONTINUOUS
 10
4.821520
 20
6.742120
  0
VERTEX
  8
0
  6
CONTINUOUS
 10
4.828560
 20
6.694160
  0
VERTEX
  8
0
  6
CONTINUOUS
 10
4.063840
 20
6.702520
  0
VERTEX
  8
0
  6
CONTINUOUS
 10
4.056800
 20
6.750480
  0
SEQEND
  8
0
  0
SOLID
  8
0
 62
    15
 10
4.063840
 20
6.702520
 11
4.828560
 21
6.694160
 12
4.194960
 22
6.692840
 13
4.959240
 23
6.684480
  0
POLYLINE
  8
0
  6
CONTINUOUS
 66
     1
 40
0.000000
 41
0.000000
  0
VERTEX
  8
0
  6
CONTINUOUS
 10
4.063840
 20
6.702520
  0
VERTEX
  8
0
  6
CONTINUOUS
 10
4.828560
 20
6.694160
  0
VERTEX
  8
0
  6
CONTINUOUS
 10
4.959240
 20
6.684480
  0
VERTEX
  8
0
  6
CONTINUOUS
 10
4.194960
 20
6.692840
  0
VERTEX
  8
0
  6
CONTINUOUS
 10
4.063840
 20
6.702520
  0
SEQEND
  8
0
  0
SOLID
  8
0
 62
    15
 10
4.194960
 20
6.692840
 11
4.959240
 21
6.684480
 12
4.194960
 22
6.606160
 13
4.959240
 23
6.597800
  0
POLYLINE
  8
0
  6
CONTINUOUS
 66
     1
 40
0.000000
 41
0.000000
  0
VERTEX
  8
0
  6
CONTINUOUS
 10
4.194960
 20
6.692840
  0
VERTEX
  8
0
  6
CONTINUOUS
 10
4.959240
 20
6.684480
  0
VERTEX
  8
0
  6
CONTINUOUS
 10
4.959240
 20
6.597800
  0
VERTEX
  8
0
  6
CONTINUOUS
 10
4.194960
 20
6.606160
  0
VERTEX
  8
0
  6
CONTINUOUS
 10
4.194960
 20
6.692840
  0
SEQEND
  8
0
  0
SOLID
  8
0
 62
    15
 10
4.194960
 20
6.606160
 11
4.959240
 21
6.597800
 12
4.251280
 22
6.588120
 13
5.015560
 23
6.579320
  0
POLYLINE
  8
0
  6
CONTINUOUS
 66
     1
 40
0.000000
 41
0.000000
  0
VERTEX
  8
0
  6
CONTINUOUS
 10
4.194960
 20
6.606160
  0
VERTEX
  8
0
  6
CONTINUOUS
 10
4.959240
 20
6.597800
  0
VERTEX
  8
0
  6
CONTINUOUS
 10
5.015560
 20
6.579320
  0
VERTEX
  8
0
  6
CONTINUOUS
 10
4.251280
 20
6.588120
  0
VERTEX
  8
0
  6
CONTINUOUS
 10
4.194960
 20
6.606160
  0
SEQEND
  8
0
  0
SOLID
  8
0
 62
    15
 10
4.251280
 20
6.588120
 11
5.015560
 21
6.579320
 12
4.299240
 22
6.562160
 13
5.063960
 23
6.553800
  0
POLYLINE
  8
0
  6
CONTINUOUS
 66
     1
 40
0.000000
 41
0.000000
  0
VERTEX
  8
0
  6
CONTINUOUS
 10
4.251280
 20
6.588120
  0
VERTEX
  8
0
  6
CONTINUOUS
 10
5.015560
 20
6.579320
  0
VERTEX
  8
0
  6
CONTINUOUS
 10
5.063960
 20
6.553800
  0
VERTEX
  8
0
  6
CONTINUOUS
 10
4.299240
 20
6.562160
  0
VERTEX
  8
0
  6
CONTINUOUS
 10
4.251280
 20
6.588120
  0
SEQEND
  8
0
  0
SOLID
  8
0
 62
    15
 10
4.299240
 20
6.562160
 11
5.063960
 21
6.553800
 12
4.339280
 22
6.530040
 13
5.104000
 23
6.521680
  0
POLYLINE
  8
0
  6
CONTINUOUS
 66
     1
 40
0.000000
 41
0.000000
  0
VERTEX
  8
0
  6
CONTINUOUS
 10
4.299240
 20
6.562160
  0
VERTEX
  8
0
  6
CONTINUOUS
 10
5.063960
 20
6.553800
  0
VERTEX
  8
0
  6
CONTINUOUS
 10
5.104000
 20
6.521680
  0
VERTEX
  8
0
  6
CONTINUOUS
 10
4.339280
 20
6.530040
  0
VERTEX
  8
0
  6
CONTINUOUS
 10
4.299240
 20
6.562160
  0
SEQEND
  8
0
  0
SOLID
  8
0
 62
    15
 10
4.339280
 20
6.530040
 11
5.104000
 21
6.521680
 12
4.371400
 22
6.492640
 13
5.136120
 23
6.483840
  0
POLYLINE
  8
0
  6
CONTINUOUS
 66
     1
 40
0.000000
 41
0.000000
  0
VERTEX
  8
0
  6
CONTINUOUS
 10
4.339280
 20
6.530040
  0
VERTEX
  8
0
  6
CONTINUOUS
 10
5.104000
 20
6.521680
  0
VERTEX
  8
0
  6
CONTINUOUS
 10
5.136120
 20
6.483840
  0
VERTEX
  8
0
  6
CONTINUOUS
 10
4.371400
 20
6.492640
  0
VERTEX
  8
0
  6
CONTINUOUS
 10
4.339280
 20
6.530040
  0
SEQEND
  8
0
  0
SOLID
  8
0
 62
    15
 10
4.371400
 20
6.492640
 11
5.136120
 21
6.483840
 12
4.396040
 22
6.450840
 13
5.160320
 23
6.442040
  0
POLYLINE
  8
0
  6
CONTINUOUS
 66
     1
 40
0.000000
 41
0.000000
  0
VERTEX
  8
0
  6
CONTINUOUS
 10
4.371400
 20
6.492640
  0
VERTEX
  8
0
  6
CONTINUOUS
 10
5.136120
 20
6.483840
  0
VERTEX
  8
0
  6
CONTINUOUS
 10
5.160320
 20
6.442040
  0
VERTEX
  8
0
  6
CONTINUOUS
 10
4.396040
 20
6.450840
  0
VERTEX
  8
0
  6
CONTINUOUS
 10
4.371400
 20
6.492640
  0
SEQEND
  8
0
  0
SOLID
  8
0
 62
    15
 10
4.396040
 20
6.450840
 11
5.160320
 21
6.442040
 12
4.412760
 22
6.405520
 13
5.177040
 23
6.397160
  0
POLYLINE
  8
0
  6
CONTINUOUS
 66
     1
 40
0.000000
 41
0.000000
  0
VERTEX
  8
0
  6
CONTINUOUS
 10
4.396040
 20
6.450840
  0
VERTEX
  8
0
  6
CONTINUOUS
 10
5.160320
 20
6.442040
  0
VERTEX
  8
0
  6
CONTINUOUS
 10
5.177040
 20
6.397160
  0
VERTEX
  8
0
  6
CONTINUOUS
 10
4.412760
 20
6.405520
  0
VERTEX
  8
0
  6
CONTINUOUS
 10
4.396040
 20
6.450840
  0
SEQEND
  8
0
  0
SOLID
  8
0
 62
    15
 10
4.412760
 20
6.405520
 11
5.177040
 21
6.397160
 12
4.422000
 22
6.358440
 13
5.186280
 23
6.350080
  0
POLYLINE
  8
0
  6
CONTINUOUS
 66
     1
 40
0.000000
 41
0.000000
  0
VERTEX
  8
0
  6
CONTINUOUS
 10
4.412760
 20
6.405520
  0
VERTEX
  8
0
  6
CONTINUOUS
 10
5.177040
 20
6.397160
  0
VERTEX
  8
0
  6
CONTINUOUS
 10
5.186280
 20
6.350080
  0
VERTEX
  8
0
  6
CONTINUOUS
 10
4.422000
 20
6.358440
  0
VERTEX
  8
0
  6
CONTINUOUS
 10
4.412760
 20
6.405520
  0
SEQEND
  8
0
  0
SOLID
  8
0
 62
    15
 10
4.422000
 20
6.358440
 11
5.186280
 21
6.350080
 12
4.423760
 22
6.310480
 13
5.188480
 23
6.301680
  0
POLYLINE
  8
0
  6
CONTINUOUS
 66
     1
 40
0.000000
 41
0.000000
  0
VERTEX
  8
0
  6
CONTINUOUS
 10
4.422000
 20
6.358440
  0
VERTEX
  8
0
  6
CONTINUOUS
 10
5.186280
 20
6.350080
  0
VERTEX
  8
0
  6
CONTINUOUS
 10
5.188480
 20
6.301680
  0
VERTEX
  8
0
  6
CONTINUOUS
 10
4.423760
 20
6.310480
  0
VERTEX
  8
0
  6
CONTINUOUS
 10
4.422000
 20
6.358440
  0
SEQEND
  8
0
  0
SOLID
  8
0
 62
    15
 10
4.423760
 20
6.310480
 11
5.188480
 21
6.301680
 12
4.418480
 22
6.262520
 13
5.182760
 23
6.253720
  0
POLYLINE
  8
0
  6
CONTINUOUS
 66
     1
 40
0.000000
 41
0.000000
  0
VERTEX
  8
0
  6
CONTINUOUS
 10
4.423760
 20
6.310480
  0
VERTEX
  8
0
  6
CONTINUOUS
 10
5.188480
 20
6.301680
  0
VERTEX
  8
0
  6
CONTINUOUS
 10
5.182760
 20
6.253720
  0
VERTEX
  8
0
  6
CONTINUOUS
 10
4.418480
 20
6.262520
  0
VERTEX
  8
0
  6
CONTINUOUS
 10
4.423760
 20
6.310480
  0
SEQEND
  8
0
  0
SOLID
  8
0
 62
    15
 10
4.418480
 20
6.262520
 11
5.182760
 21
6.253720
 12
4.405720
 22
6.215440
 13
5.170440
 23
6.207080
  0
POLYLINE
  8
0
  6
CONTINUOUS
 66
     1
 40
0.000000
 41
0.000000
  0
VERTEX
  8
0
  6
CONTINUOUS
 10
4.418480
 20
6.262520
  0
VERTEX
  8
0
  6
CONTINUOUS
 10
5.182760
 20
6.253720
  0
VERTEX
  8
0
  6
CONTINUOUS
 10
5.170440
 20
6.207080
  0
VERTEX
  8
0
  6
CONTINUOUS
 10
4.405720
 20
6.215440
  0
VERTEX
  8
0
  6
CONTINUOUS
 10
4.418480
 20
6.262520
  0
SEQEND
  8
0
  0
SOLID
  8
0
 62
    15
 10
4.405720
 20
6.215440
 11
5.170440
 21
6.207080
 12
4.386360
 22
6.171000
 13
5.150640
 23
6.162200
  0
POLYLINE
  8
0
  6
CONTINUOUS
 66
     1
 40
0.000000
 41
0.000000
  0
VERTEX
  8
0
  6
CONTINUOUS
 10
4.405720
 20
6.215440
  0
VERTEX
  8
0
  6
CONTINUOUS
 10
5.170440
 20
6.207080
  0
VERTEX
  8
0
  6
CONTINUOUS
 10
5.150640
 20
6.162200
  0
VERTEX
  8
0
  6
CONTINUOUS
 10
4.386360
 20
6.171000
  0
VERTEX
  8
0
  6
CONTINUOUS
 10
4.405720
 20
6.215440
  0
SEQEND
  8
0
  0
SOLID
  8
0
 62
    15
 10
4.386360
 20
6.171000
 11
5.150640
 21
6.162200
 12
4.359960
 22
6.129640
 13
5.124240
 23
6.120840
  0
POLYLINE
  8
0
  6
CONTINUOUS
 66
     1
 40
0.000000
 41
0.000000
  0
VERTEX
  8
0
  6
CONTINUOUS
 10
4.386360
 20
6.171000
  0
VERTEX
  8
0
  6
CONTINUOUS
 10
5.150640
 20
6.162200
  0
VERTEX
  8
0
  6
CONTINUOUS
 10
5.124240
 20
6.120840
  0
VERTEX
  8
0
  6
CONTINUOUS
 10
4.359960
 20
6.129640
  0
VERTEX
  8
0
  6
CONTINUOUS
 10
4.386360
 20
6.171000
  0
SEQEND
  8
0
  0
SOLID
  8
0
 62
    15
 10
4.359960
 20
6.129640
 11
5.124240
 21
6.120840
 12
4.326520
 22
6.092680
 13
5.090800
 23
6.084320
  0
POLYLINE
  8
0
  6
CONTINUOUS
 66
     1
 40
0.000000
 41
0.000000
  0
VERTEX
  8
0
  6
CONTINUOUS
 10
4.359960
 20
6.129640
  0
VERTEX
  8
0
  6
CONTINUOUS
 10
5.124240
 20
6.120840
  0
VERTEX
  8
0
  6
CONTINUOUS
 10
5.090800
 20
6.084320
  0
VERTEX
  8
0
  6
CONTINUOUS
 10
4.326520
 20
6.092680
  0
VERTEX
  8
0
  6
CONTINUOUS
 10
4.359960
 20
6.129640
  0
SEQEND
  8
0
  0
SOLID
  8
0
 62
    15
 10
4.326520
 20
6.092680
 11
5.090800
 21
6.084320
 12
4.286480
 22
6.061440
 13
5.051200
 23
6.052640
  0
POLYLINE
  8
0
  6
CONTINUOUS
 66
     1
 40
0.000000
 41
0.000000
  0
VERTEX
  8
0
  6
CONTINUOUS
 10
4.326520
 20
6.092680
  0
VERTEX
  8
0
  6
CONTINUOUS
 10
5.090800
 20
6.084320
  0
VERTEX
  8
0
  6
CONTINUOUS
 10
5.051200
 20
6.052640
  0
VERTEX
  8
0
  6
CONTINUOUS
 10
4.286480
 20
6.061440
  0
VERTEX
  8
0
  6
CONTINUOUS
 10
4.326520
 20
6.092680
  0
SEQEND
  8
0
  0
SOLID
  8
0
 62
    15
 10
4.286480
 20
6.061440
 11
5.051200
 21
6.052640
 12
4.240280
 22
6.036800
 13
5.004560
 23
6.028000
  0
POLYLINE
  8
0
  6
CONTINUOUS
 66
     1
 40
0.000000
 41
0.000000
  0
VERTEX
  8
0
  6
CONTINUOUS
 10
4.286480
 20
6.061440
  0
VERTEX
  8
0
  6
CONTINUOUS
 10
5.051200
 20
6.052640
  0
VERTEX
  8
0
  6
CONTINUOUS
 10
5.004560
 20
6.028000
  0
VERTEX
  8
0
  6
CONTINUOUS
 10
4.240280
 20
6.036800
  0
VERTEX
  8
0
  6
CONTINUOUS
 10
4.286480
 20
6.061440
  0
SEQEND
  8
0
  0
SOLID
  8
0
 62
    15
 10
4.240280
 20
6.036800
 11
5.004560
 21
6.028000
 12
4.187480
 22
6.019640
 13
4.951760
 23
6.011280
  0
POLYLINE
  8
0
  6
CONTINUOUS
 66
     1
 40
0.000000
 41
0.000000
  0
VERTEX
  8
0
  6
CONTINUOUS
 10
4.240280
 20
6.036800
  0
VERTEX
  8
0
  6
CONTINUOUS
 10
5.004560
 20
6.028000
  0
VERTEX
  8
0
  6
CONTINUOUS
 10
4.951760
 20
6.011280
  0
VERTEX
  8
0
  6
CONTINUOUS
 10
4.187480
 20
6.019640
  0
VERTEX
  8
0
  6
CONTINUOUS
 10
4.240280
 20
6.036800
  0
SEQEND
  8
0
  0
SOLID
  8
0
 62
    15
 10
4.187480
 20
6.019640
 11
4.951760
 21
6.011280
 12
4.187480
 22
5.925480
 13
4.951760
 23
5.916680
  0
POLYLINE
  8
0
  6
CONTINUOUS
 66
     1
 40
0.000000
 41
0.000000
  0
VERTEX
  8
0
  6
CONTINUOUS
 10
4.187480
 20
6.019640
  0
VERTEX
  8
0
  6
CONTINUOUS
 10
4.951760
 20
6.011280
  0
VERTEX
  8
0
  6
CONTINUOUS
 10
4.951760
 20
5.916680
  0
VERTEX
  8
0
  6
CONTINUOUS
 10
4.187480
 20
5.925480
  0
VERTEX
  8
0
  6
CONTINUOUS
 10
4.187480
 20
6.019640
  0
SEQEND
  8
0
  0
SOLID
  8
0
 62
    15
 10
4.187480
 20
5.925480
 11
4.951760
 21
5.916680
 12
4.073520
 22
5.913600
 13
4.838240
 23
5.905240
  0
POLYLINE
  8
0
  6
CONTINUOUS
 66
     1
 40
0.000000
 41
0.000000
  0
VERTEX
  8
0
  6
CONTINUOUS
 10
4.187480
 20
5.925480
  0
VERTEX
  8
0
  6
CONTINUOUS
 10
4.951760
 20
5.916680
  0
VERTEX
  8
0
  6
CONTINUOUS
 10
4.838240
 20
5.905240
  0
VERTEX
  8
0
  6
CONTINUOUS
 10
4.073520
 20
5.913600
  0
VERTEX
  8
0
  6
CONTINUOUS
 10
4.187480
 20
5.925480
  0
SEQEND
  8
0
  0
SOLID
  8
0
 62
    15
 10
3.742200
 20
7.062880
 11
4.506480
 21
7.054520
 12
3.743960
 22
7.030760
 13
4.508240
 23
7.021960
  0
POLYLINE
  8
0
  6
CONTINUOUS
 66
     1
 40
0.000000
 41
0.000000
  0
VERTEX
  8
0
  6
CONTINUOUS
 10
3.742200
 20
7.062880
  0
VERTEX
  8
0
  6
CONTINUOUS
 10
4.506480
 20
7.054520
  0
VERTEX
  8
0
  6
CONTINUOUS
 10
4.508240
 20
7.021960
  0
VERTEX
  8
0
  6
CONTINUOUS
 10
3.743960
 20
7.030760
  0
VERTEX
  8
0
  6
CONTINUOUS
 10
3.742200
 20
7.062880
  0
SEQEND
  8
0
  0
SOLID
  8
0
 62
    15
 10
4.073520
 20
5.815480
 11
4.838240
 21
5.806680
 12
4.019400
 22
5.807120
 13
4.783680
 23
5.798320
  0
POLYLINE
  8
0
  6
CONTINUOUS
 66
     1
 40
0.000000
 41
0.000000
  0
VERTEX
  8
0
  6
CONTINUOUS
 10
4.073520
 20
5.815480
  0
VERTEX
  8
0
  6
CONTINUOUS
 10
4.838240
 20
5.806680
  0
VERTEX
  8
0
  6
CONTINUOUS
 10
4.783680
 20
5.798320
  0
VERTEX
  8
0
  6
CONTINUOUS
 10
4.019400
 20
5.807120
  0
VERTEX
  8
0
  6
CONTINUOUS
 10
4.073520
 20
5.815480
  0
SEQEND
  8
0
  0
SOLID
  8
0
 62
    15
 10
4.019400
 20
5.807120
 11
4.783680
 21
5.798320
 12
3.973200
 22
5.793480
 13
4.737920
 23
5.784680
  0
POLYLINE
  8
0
  6
CONTINUOUS
 66
     1
 40
0.000000
 41
0.000000
  0
VERTEX
  8
0
  6
CONTINUOUS
 10
4.019400
 20
5.807120
  0
VERTEX
  8
0
  6
CONTINUOUS
 10
4.783680
 20
5.798320
  0
VERTEX
  8
0
  6
CONTINUOUS
 10
4.737920
 20
5.784680
  0
VERTEX
  8
0
  6
CONTINUOUS
 10
3.973200
 20
5.793480
  0
VERTEX
  8
0
  6
CONTINUOUS
 10
4.019400
 20
5.807120
  0
SEQEND
  8
0
  0
SOLID
  8
0
 62
    15
 10
3.973200
 20
5.793480
 11
4.737920
 21
5.784680
 12
3.934920
 22
5.774560
 13
4.699200
 23
5.765760
  0
POLYLINE
  8
0
  6
CONTINUOUS
 66
     1
 40
0.000000
 41
0.000000
  0
VERTEX
  8
0
  6
CONTINUOUS
 10
3.973200
 20
5.793480
  0
VERTEX
  8
0
  6
CONTINUOUS
 10
4.737920
 20
5.784680
  0
VERTEX
  8
0
  6
CONTINUOUS
 10
4.699200
 20
5.765760
  0
VERTEX
  8
0
  6
CONTINUOUS
 10
3.934920
 20
5.774560
  0
VERTEX
  8
0
  6
CONTINUOUS
 10
3.973200
 20
5.793480
  0
SEQEND
  8
0
  0
SOLID
  8
0
 62
    15
 10
3.934920
 20
5.774560
 11
4.699200
 21
5.765760
 12
3.903680
 22
5.750360
 13
4.667960
 23
5.742000
  0
POLYLINE
  8
0
  6
CONTINUOUS
 66
     1
 40
0.000000
 41
0.000000
  0
VERTEX
  8
0
  6
CONTINUOUS
 10
3.934920
 20
5.774560
  0
VERTEX
  8
0
  6
CONTINUOUS
 10
4.699200
 20
5.765760
  0
VERTEX
  8
0
  6
CONTINUOUS
 10
4.667960
 20
5.742000
  0
VERTEX
  8
0
  6
CONTINUOUS
 10
3.903680
 20
5.750360
  0
VERTEX
  8
0
  6
CONTINUOUS
 10
3.934920
 20
5.774560
  0
SEQEND
  8
0
  0
SOLID
  8
0
 62
    15
 10
3.903680
 20
5.750360
 11
4.667960
 21
5.742000
 12
3.878160
 22
5.721320
 13
4.642880
 23
5.712960
  0
POLYLINE
  8
0
  6
CONTINUOUS
 66
     1
 40
0.000000
 41
0.000000
  0
VERTEX
  8
0
  6
CONTINUOUS
 10
3.903680
 20
5.750360
  0
VERTEX
  8
0
  6
CONTINUOUS
 10
4.667960
 20
5.742000
  0
VERTEX
  8
0
  6
CONTINUOUS
 10
4.642880
 20
5.712960
  0
VERTEX
  8
0
  6
CONTINUOUS
 10
3.878160
 20
5.721320
  0
VERTEX
  8
0
  6
CONTINUOUS
 10
3.903680
 20
5.750360
  0
SEQEND
  8
0
  0
SOLID
  8
0
 62
    15
 10
3.878160
 20
5.721320
 11
4.642880
 21
5.712960
 12
3.858800
 22
5.687440
 13
4.623080
 23
5.678640
  0
POLYLINE
  8
0
  6
CONTINUOUS
 66
     1
 40
0.000000
 41
0.000000
  0
VERTEX
  8
0
  6
CONTINUOUS
 10
3.878160
 20
5.721320
  0
VERTEX
  8
0
  6
CONTINUOUS
 10
4.642880
 20
5.712960
  0
VERTEX
  8
0
  6
CONTINUOUS
 10
4.623080
 20
5.678640
  0
VERTEX
  8
0
  6
CONTINUOUS
 10
3.858800
 20
5.687440
  0
VERTEX
  8
0
  6
CONTINUOUS
 10
3.878160
 20
5.721320
  0
SEQEND
  8
0
  0
SOLID
  8
0
 62
    15
 10
3.858800
 20
5.687440
 11
4.623080
 21
5.678640
 12
3.844280
 22
5.648280
 13
4.608560
 23
5.639480
  0
POLYLINE
  8
0
  6
CONTINUOUS
 66
     1
 40
0.000000
 41
0.000000
  0
VERTEX
  8
0
  6
CONTINUOUS
 10
3.858800
 20
5.687440
  0
VERTEX
  8
0
  6
CONTINUOUS
 10
4.623080
 20
5.678640
  0
VERTEX
  8
0
  6
CONTINUOUS
 10
4.608560
 20
5.639480
  0
VERTEX
  8
0
  6
CONTINUOUS
 10
3.844280
 20
5.648280
  0
VERTEX
  8
0
  6
CONTINUOUS
 10
3.858800
 20
5.687440
  0
SEQEND
  8
0
  0
SOLID
  8
0
 62
    15
 10
3.844280
 20
5.648280
 11
4.608560
 21
5.639480
 12
3.834160
 22
5.603840
 13
4.598440
 23
5.595480
  0
POLYLINE
  8
0
  6
CONTINUOUS
 66
     1
 40
0.000000
 41
0.000000
  0
VERTEX
  8
0
  6
CONTINUOUS
 10
3.844280
 20
5.648280
  0
VERTEX
  8
0
  6
CONTINUOUS
 10
4.608560
 20
5.639480
  0
VERTEX
  8
0
  6
CONTINUOUS
 10
4.598440
 20
5.595480
  0
VERTEX
  8
0
  6
CONTINUOUS
 10
3.834160
 20
5.603840
  0
VERTEX
  8
0
  6
CONTINUOUS
 10
3.844280
 20
5.648280
  0
SEQEND
  8
0
  0
SOLID
  8
0
 62
    15
 10
3.834160
 20
5.603840
 11
4.598440
 21
5.595480
 12
3.828000
 22
5.555000
 13
4.592280
 23
5.546200
  0
POLYLINE
  8
0
  6
CONTINUOUS
 66
     1
 40
0.000000
 41
0.000000
  0
VERTEX
  8
0
  6
CONTINUOUS
 10
3.834160
 20
5.603840
  0
VERTEX
  8
0
  6
CONTINUOUS
 10
4.598440
 20
5.595480
  0
VERTEX
  8
0
  6
CONTINUOUS
 10
4.592280
 20
5.546200
  0
VERTEX
  8
0
  6
CONTINUOUS
 10
3.828000
 20
5.555000
  0
VERTEX
  8
0
  6
CONTINUOUS
 10
3.834160
 20
5.603840
  0
SEQEND
  8
0
  0
SOLID
  8
0
 62
    15
 10
3.828000
 20
5.555000
 11
4.592280
 21
5.546200
 12
3.824480
 22
5.500880
 13
4.589200
 23
5.492080
  0
POLYLINE
  8
0
  6
CONTINUOUS
 66
     1
 40
0.000000
 41
0.000000
  0
VERTEX
  8
0
  6
CONTINUOUS
 10
3.828000
 20
5.555000
  0
VERTEX
  8
0
  6
CONTINUOUS
 10
4.592280
 20
5.546200
  0
VERTEX
  8
0
  6
CONTINUOUS
 10
4.589200
 20
5.492080
  0
VERTEX
  8
0
  6
CONTINUOUS
 10
3.824480
 20
5.500880
  0
VERTEX
  8
0
  6
CONTINUOUS
 10
3.828000
 20
5.555000
  0
SEQEND
  8
0
  0
SOLID
  8
0
 62
    15
 10
3.824480
 20
5.500880
 11
4.589200
 21
5.492080
 12
3.824040
 22
5.441920
 13
4.588320
 23
5.433560
  0
POLYLINE
  8
0
  6
CONTINUOUS
 66
     1
 40
0.000000
 41
0.000000
  0
VERTEX
  8
0
  6
CONTINUOUS
 10
3.824480
 20
5.500880
  0
VERTEX
  8
0
  6
CONTINUOUS
 10
4.589200
 20
5.492080
  0
VERTEX
  8
0
  6
CONTINUOUS
 10
4.588320
 20
5.433560
  0
VERTEX
  8
0
  6
CONTINUOUS
 10
3.824040
 20
5.441920
  0
VERTEX
  8
0
  6
CONTINUOUS
 10
3.824480
 20
5.500880
  0
SEQEND
  8
0
  0
SOLID
  8
0
 62
    15
 10
3.824040
 20
5.441920
 11
4.588320
 21
5.433560
 12
3.824920
 22
5.378560
 13
4.589200
 23
5.369760
  0
POLYLINE
  8
0
  6
CONTINUOUS
 66
     1
 40
0.000000
 41
0.000000
  0
VERTEX
  8
0
  6
CONTINUOUS
 10
3.824040
 20
5.441920
  0
VERTEX
  8
0
  6
CONTINUOUS
 10
4.588320
 20
5.433560
  0
VERTEX
  8
0
  6
CONTINUOUS
 10
4.589200
 20
5.369760
  0
VERTEX
  8
0
  6
CONTINUOUS
 10
3.824920
 20
5.378560
  0
VERTEX
  8
0
  6
CONTINUOUS
 10
3.824040
 20
5.441920
  0
SEQEND
  8
0
  0
SOLID
  8
0
 62
    15
 10
3.824920
 20
5.378560
 11
4.589200
 21
5.369760
 12
3.827120
 22
5.310360
 13
4.591840
 23
5.301560
  0
POLYLINE
  8
0
  6
CONTINUOUS
 66
     1
 40
0.000000
 41
0.000000
  0
VERTEX
  8
0
  6
CONTINUOUS
 10
3.824920
 20
5.378560
  0
VERTEX
  8
0
  6
CONTINUOUS
 10
4.589200
 20
5.369760
  0
VERTEX
  8
0
  6
CONTINUOUS
 10
4.591840
 20
5.301560
  0
VERTEX
  8
0
  6
CONTINUOUS
 10
3.827120
 20
5.310360
  0
VERTEX
  8
0
  6
CONTINUOUS
 10
3.824920
 20
5.378560
  0
SEQEND
  8
0
  0
SOLID
  8
0
 62
    15
 10
3.827120
 20
5.310360
 11
4.591840
 21
5.301560
 12
3.830200
 22
5.237320
 13
4.594480
 23
5.228520
  0
POLYLINE
  8
0
  6
CONTINUOUS
 66
     1
 40
0.000000
 41
0.000000
  0
VERTEX
  8
0
  6
CONTINUOUS
 10
3.827120
 20
5.310360
  0
VERTEX
  8
0
  6
CONTINUOUS
 10
4.591840
 20
5.301560
  0
VERTEX
  8
0
  6
CONTINUOUS
 10
4.594480
 20
5.228520
  0
VERTEX
  8
0
  6
CONTINUOUS
 10
3.830200
 20
5.237320
  0
VERTEX
  8
0
  6
CONTINUOUS
 10
3.827120
 20
5.310360
  0
SEQEND
  8
0
  0
SOLID
  8
0
 62
    15
 10
3.830200
 20
5.237320
 11
4.594480
 21
5.228520
 12
3.832840
 22
5.159440
 13
4.597560
 23
5.151080
  0
POLYLINE
  8
0
  6
CONTINUOUS
 66
     1
 40
0.000000
 41
0.000000
  0
VERTEX
  8
0
  6
CONTINUOUS
 10
3.830200
 20
5.237320
  0
VERTEX
  8
0
  6
CONTINUOUS
 10
4.594480
 20
5.228520
  0
VERTEX
  8
0
  6
CONTINUOUS
 10
4.597560
 20
5.151080
  0
VERTEX
  8
0
  6
CONTINUOUS
 10
3.832840
 20
5.159440
  0
VERTEX
  8
0
  6
CONTINUOUS
 10
3.830200
 20
5.237320
  0
SEQEND
  8
0
  0
SOLID
  8
0
 62
    15
 10
3.832840
 20
5.159440
 11
4.597560
 21
5.151080
 12
3.835040
 22
5.077160
 13
4.599320
 23
5.068800
  0
POLYLINE
  8
0
  6
CONTINUOUS
 66
     1
 40
0.000000
 41
0.000000
  0
VERTEX
  8
0
  6
CONTINUOUS
 10
3.832840
 20
5.159440
  0
VERTEX
  8
0
  6
CONTINUOUS
 10
4.597560
 20
5.151080
  0
VERTEX
  8
0
  6
CONTINUOUS
 10
4.599320
 20
5.068800
  0
VERTEX
  8
0
  6
CONTINUOUS
 10
3.835040
 20
5.077160
  0
VERTEX
  8
0
  6
CONTINUOUS
 10
3.832840
 20
5.159440
  0
SEQEND
  8
0
  0
SOLID
  8
0
 62
    15
 10
3.835040
 20
5.077160
 11
4.599320
 21
5.068800
 12
3.727240
 22
5.047240
 13
4.491520
 23
5.038440
  0
POLYLINE
  8
0
  6
CONTINUOUS
 66
     1
 40
0.000000
 41
0.000000
  0
VERTEX
  8
0
  6
CONTINUOUS
 10
3.835040
 20
5.077160
  0
VERTEX
  8
0
  6
CONTINUOUS
 10
4.599320
 20
5.068800
  0
VERTEX
  8
0
  6
CONTINUOUS
 10
4.491520
 20
5.038440
  0
VERTEX
  8
0
  6
CONTINUOUS
 10
3.727240
 20
5.047240
  0
VERTEX
  8
0
  6
CONTINUOUS
 10
3.835040
 20
5.077160
  0
SEQEND
  8
0
  0
SOLID
  8
0
 62
    15
 10
3.727240
 20
5.047240
 11
4.491520
 21
5.038440
 12
3.727240
 22
5.009400
 13
4.491520
 23
5.001040
  0
POLYLINE
  8
0
  6
CONTINUOUS
 66
     1
 40
0.000000
 41
0.000000
  0
VERTEX
  8
0
  6
CONTINUOUS
 10
3.727240
 20
5.047240
  0
VERTEX
  8
0
  6
CONTINUOUS
 10
4.491520
 20
5.038440
  0
VERTEX
  8
0
  6
CONTINUOUS
 10
4.491520
 20
5.001040
  0
VERTEX
  8
0
  6
CONTINUOUS
 10
3.727240
 20
5.009400
  0
VERTEX
  8
0
  6
CONTINUOUS
 10
3.727240
 20
5.047240
  0
SEQEND
  8
0
  0
SOLID
  8
0
 62
    15
 10
3.727240
 20
5.009400
 11
4.491520
 21
5.001040
 12
3.764200
 22
5.005440
 13
4.528480
 23
4.997080
  0
POLYLINE
  8
0
  6
CONTINUOUS
 66
     1
 40
0.000000
 41
0.000000
  0
VERTEX
  8
0
  6
CONTINUOUS
 10
3.727240
 20
5.009400
  0
VERTEX
  8
0
  6
CONTINUOUS
 10
4.491520
 20
5.001040
  0
VERTEX
  8
0
  6
CONTINUOUS
 10
4.528480
 20
4.997080
  0
VERTEX
  8
0
  6
CONTINUOUS
 10
3.764200
 20
5.005440
  0
VERTEX
  8
0
  6
CONTINUOUS
 10
3.727240
 20
5.009400
  0
SEQEND
  8
0
  0
SOLID
  8
0
 62
    15
 10
3.764200
 20
5.005440
 11
4.528480
 21
4.997080
 12
3.796320
 22
4.994440
 13
4.561040
 23
4.985640
  0
POLYLINE
  8
0
  6
CONTINUOUS
 66
     1
 40
0.000000
 41
0.000000
  0
VERTEX
  8
0
  6
CONTINUOUS
 10
3.764200
 20
5.005440
  0
VERTEX
  8
0
  6
CONTINUOUS
 10
4.528480
 20
4.997080
  0
VERTEX
  8
0
  6
CONTINUOUS
 10
4.561040
 20
4.985640
  0
VERTEX
  8
0
  6
CONTINUOUS
 10
3.796320
 20
4.994440
  0
VERTEX
  8
0
  6
CONTINUOUS
 10
3.764200
 20
5.005440
  0
SEQEND
  8
0
  0
SOLID
  8
0
 62
    15
 10
3.796320
 20
4.994440
 11
4.561040
 21
4.985640
 12
3.824040
 22
4.976840
 13
4.588320
 23
4.968040
  0
POLYLINE
  8
0
  6
CONTINUOUS
 66
     1
 40
0.000000
 41
0.000000
  0
VERTEX
  8
0
  6
CONTINUOUS
 10
3.796320
 20
4.994440
  0
VERTEX
  8
0
  6
CONTINUOUS
 10
4.561040
 20
4.985640
  0
VERTEX
  8
0
  6
CONTINUOUS
 10
4.588320
 20
4.968040
  0
VERTEX
  8
0
  6
CONTINUOUS
 10
3.824040
 20
4.976840
  0
VERTEX
  8
0
  6
CONTINUOUS
 10
3.796320
 20
4.994440
  0
SEQEND
  8
0
  0
SOLID
  8
0
 62
    15
 10
3.824040
 20
4.976840
 11
4.588320
 21
4.968040
 12
3.846480
 22
4.953960
 13
4.611200
 23
4.945160
  0
POLYLINE
  8
0
  6
CONTINUOUS
 66
     1
 40
0.000000
 41
0.000000
  0
VERTEX
  8
0
  6
CONTINUOUS
 10
3.824040
 20
4.976840
  0
VERTEX
  8
0
  6
CONTINUOUS
 10
4.588320
 20
4.968040
  0
VERTEX
  8
0
  6
CONTINUOUS
 10
4.611200
 20
4.945160
  0
VERTEX
  8
0
  6
CONTINUOUS
 10
3.846480
 20
4.953960
  0
VERTEX
  8
0
  6
CONTINUOUS
 10
3.824040
 20
4.976840
  0
SEQEND
  8
0
  0
SOLID
  8
0
 62
    15
 10
3.846480
 20
4.953960
 11
4.611200
 21
4.945160
 12
3.864080
 22
4.927120
 13
4.628800
 23
4.918320
  0
POLYLINE
  8
0
  6
CONTINUOUS
 66
     1
 40
0.000000
 41
0.000000
  0
VERTEX
  8
0
  6
CONTINUOUS
 10
3.846480
 20
4.953960
  0
VERTEX
  8
0
  6
CONTINUOUS
 10
4.611200
 20
4.945160
  0
VERTEX
  8
0
  6
CONTINUOUS
 10
4.628800
 20
4.918320
  0
VERTEX
  8
0
  6
CONTINUOUS
 10
3.864080
 20
4.927120
  0
VERTEX
  8
0
  6
CONTINUOUS
 10
3.846480
 20
4.953960
  0
SEQEND
  8
0
  0
SOLID
  8
0
 62
    15
 10
3.864080
 20
4.927120
 11
4.628800
 21
4.918320
 12
3.876840
 22
4.896760
 13
4.641120
 23
4.888400
  0
POLYLINE
  8
0
  6
CONTINUOUS
 66
     1
 40
0.000000
 41
0.000000
  0
VERTEX
  8
0
  6
CONTINUOUS
 10
3.864080
 20
4.927120
  0
VERTEX
  8
0
  6
CONTINUOUS
 10
4.628800
 20
4.918320
  0
VERTEX
  8
0
  6
CONTINUOUS
 10
4.641120
 20
4.888400
  0
VERTEX
  8
0
  6
CONTINUOUS
 10
3.876840
 20
4.896760
  0
VERTEX
  8
0
  6
CONTINUOUS
 10
3.864080
 20
4.927120
  0
SEQEND
  8
0
  0
SOLID
  8
0
 62
    15
 10
3.876840
 20
4.896760
 11
4.641120
 21
4.888400
 12
3.884320
 22
4.864640
 13
4.648600
 23
4.856280
  0
POLYLINE
  8
0
  6
CONTINUOUS
 66
     1
 40
0.000000
 41
0.000000
  0
VERTEX
  8
0
  6
CONTINUOUS
 10
3.876840
 20
4.896760
  0
VERTEX
  8
0
  6
CONTINUOUS
 10
4.641120
 20
4.888400
  0
VERTEX
  8
0
  6
CONTINUOUS
 10
4.648600
 20
4.856280
  0
VERTEX
  8
0
  6
CONTINUOUS
 10
3.884320
 20
4.864640
  0
VERTEX
  8
0
  6
CONTINUOUS
 10
3.876840
 20
4.896760
  0
SEQEND
  8
0
  0
SOLID
  8
0
 62
    15
 10
3.884320
 20
4.864640
 11
4.648600
 21
4.856280
 12
3.886520
 22
4.831640
 13
4.650800
 23
4.823280
  0
POLYLINE
  8
0
  6
CONTINUOUS
 66
     1
 40
0.000000
 41
0.000000
  0
VERTEX
  8
0
  6
CONTINUOUS
 10
3.884320
 20
4.864640
  0
VERTEX
  8
0
  6
CONTINUOUS
 10
4.648600
 20
4.856280
  0
VERTEX
  8
0
  6
CONTINUOUS
 10
4.650800
 20
4.823280
  0
VERTEX
  8
0
  6
CONTINUOUS
 10
3.886520
 20
4.831640
  0
VERTEX
  8
0
  6
CONTINUOUS
 10
3.884320
 20
4.864640
  0
SEQEND
  8
0
  0
SOLID
  8
0
 62
    15
 10
3.886520
 20
4.831640
 11
4.650800
 21
4.823280
 12
3.883000
 22
4.798640
 13
4.647720
 23
4.789840
  0
POLYLINE
  8
0
  6
CONTINUOUS
 66
     1
 40
0.000000
 41
0.000000
  0
VERTEX
  8
0
  6
CONTINUOUS
 10
3.886520
 20
4.831640
  0
VERTEX
  8
0
  6
CONTINUOUS
 10
4.650800
 20
4.823280
  0
VERTEX
  8
0
  6
CONTINUOUS
 10
4.647720
 20
4.789840
  0
VERTEX
  8
0
  6
CONTINUOUS
 10
3.883000
 20
4.798640
  0
VERTEX
  8
0
  6
CONTINUOUS
 10
3.886520
 20
4.831640
  0
SEQEND
  8
0
  0
SOLID
  8
0
 62
    15
 10
3.883000
 20
4.798640
 11
4.647720
 21
4.789840
 12
3.874200
 22
4.766520
 13
4.638920
 23
4.757720
  0
POLYLINE
  8
0
  6
CONTINUOUS
 66
     1
 40
0.000000
 41
0.000000
  0
VERTEX
  8
0
  6
CONTINUOUS
 10
3.883000
 20
4.798640
  0
VERTEX
  8
0
  6
CONTINUOUS
 10
4.647720
 20
4.789840
  0
VERTEX
  8
0
  6
CONTINUOUS
 10
4.638920
 20
4.757720
  0
VERTEX
  8
0
  6
CONTINUOUS
 10
3.874200
 20
4.766520
  0
VERTEX
  8
0
  6
CONTINUOUS
 10
3.883000
 20
4.798640
  0
SEQEND
  8
0
  0
SOLID
  8
0
 62
    15
 10
3.874200
 20
4.766520
 11
4.638920
 21
4.757720
 12
3.859680
 22
4.736160
 13
4.624400
 23
4.727800
  0
POLYLINE
  8
0
  6
CONTINUOUS
 66
     1
 40
0.000000
 41
0.000000
  0
VERTEX
  8
0
  6
CONTINUOUS
 10
3.874200
 20
4.766520
  0
VERTEX
  8
0
  6
CONTINUOUS
 10
4.638920
 20
4.757720
  0
VERTEX
  8
0
  6
CONTINUOUS
 10
4.624400
 20
4.727800
  0
VERTEX
  8
0
  6
CONTINUOUS
 10
3.859680
 20
4.736160
  0
VERTEX
  8
0
  6
CONTINUOUS
 10
3.874200
 20
4.766520
  0
SEQEND
  8
0
  0
SOLID
  8
0
 62
    15
 10
3.859680
 20
4.736160
 11
4.624400
 21
4.727800
 12
3.839880
 22
4.709320
 13
4.604160
 23
4.700960
  0
POLYLINE
  8
0
  6
CONTINUOUS
 66
     1
 40
0.000000
 41
0.000000
  0
VERTEX
  8
0
  6
CONTINUOUS
 10
3.859680
 20
4.736160
  0
VERTEX
  8
0
  6
CONTINUOUS
 10
4.624400
 20
4.727800
  0
VERTEX
  8
0
  6
CONTINUOUS
 10
4.604160
 20
4.700960
  0
VERTEX
  8
0
  6
CONTINUOUS
 10
3.839880
 20
4.709320
  0
VERTEX
  8
0
  6
CONTINUOUS
 10
3.859680
 20
4.736160
  0
SEQEND
  8
0
  0
SOLID
  8
0
 62
    15
 10
3.839880
 20
4.709320
 11
4.604160
 21
4.700960
 12
3.813920
 22
4.686440
 13
4.578200
 23
4.678080
  0
POLYLINE
  8
0
  6
CONTINUOUS
 66
     1
 40
0.000000
 41
0.000000
  0
VERTEX
  8
0
  6
CONTINUOUS
 10
3.839880
 20
4.709320
  0
VERTEX
  8
0
  6
CONTINUOUS
 10
4.604160
 20
4.700960
  0
VERTEX
  8
0
  6
CONTINUOUS
 10
4.578200
 20
4.678080
  0
VERTEX
  8
0
  6
CONTINUOUS
 10
3.813920
 20
4.686440
  0
VERTEX
  8
0
  6
CONTINUOUS
 10
3.839880
 20
4.709320
  0
SEQEND
  8
0
  0
SOLID
  8
0
 62
    15
 10
3.813920
 20
4.686440
 11
4.578200
 21
4.678080
 12
3.781800
 22
4.669280
 13
4.546080
 23
4.660480
  0
POLYLINE
  8
0
  6
CONTINUOUS
 66
     1
 40
0.000000
 41
0.000000
  0
VERTEX
  8
0
  6
CONTINUOUS
 10
3.813920
 20
4.686440
  0
VERTEX
  8
0
  6
CONTINUOUS
 10
4.578200
 20
4.678080
  0
VERTEX
  8
0
  6
CONTINUOUS
 10
4.546080
 20
4.660480
  0
VERTEX
  8
0
  6
CONTINUOUS
 10
3.781800
 20
4.669280
  0
VERTEX
  8
0
  6
CONTINUOUS
 10
3.813920
 20
4.686440
  0
SEQEND
  8
0
  0
SOLID
  8
0
 62
    15
 10
3.743960
 20
4.657840
 11
4.508240
 21
4.649040
 12
3.699520
 22
4.653880
 13
4.464240
 23
4.645080
  0
POLYLINE
  8
0
  6
CONTINUOUS
 66
     1
 40
0.000000
 41
0.000000
  0
VERTEX
  8
0
  6
CONTINUOUS
 10
3.743960
 20
4.657840
  0
VERTEX
  8
0
  6
CONTINUOUS
 10
4.508240
 20
4.649040
  0
VERTEX
  8
0
  6
CONTINUOUS
 10
4.464240
 20
4.645080
  0
VERTEX
  8
0
  6
CONTINUOUS
 10
3.699520
 20
4.653880
  0
VERTEX
  8
0
  6
CONTINUOUS
 10
3.743960
 20
4.657840
  0
SEQEND
  8
0
  0
SOLID
  8
0
 62
    15
 10
3.781800
 20
4.669280
 11
4.546080
 21
4.660480
 12
3.743960
 22
4.657840
 13
4.508240
 23
4.649040
  0
POLYLINE
  8
0
  6
CONTINUOUS
 66
     1
 40
0.000000
 41
0.000000
  0
VERTEX
  8
0
  6
CONTINUOUS
 10
3.781800
 20
4.669280
  0
VERTEX
  8
0
  6
CONTINUOUS
 10
4.546080
 20
4.660480
  0
VERTEX
  8
0
  6
CONTINUOUS
 10
4.508240
 20
4.649040
  0
VERTEX
  8
0
  6
CONTINUOUS
 10
3.743960
 20
4.657840
  0
VERTEX
  8
0
  6
CONTINUOUS
 10
3.781800
 20
4.669280
  0
SEQEND
  8
0
  0
SOLID
  8
0
 62
    15
 10
3.699520
 20
4.653880
 11
4.464240
 21
4.645080
 12
3.493160
 22
4.653880
 13
4.257880
 23
4.645080
  0
POLYLINE
  8
0
  6
CONTINUOUS
 66
     1
 40
0.000000
 41
0.000000
  0
VERTEX
  8
0
  6
CONTINUOUS
 10
3.699520
 20
4.653880
  0
VERTEX
  8
0
  6
CONTINUOUS
 10
4.464240
 20
4.645080
  0
VERTEX
  8
0
  6
CONTINUOUS
 10
4.257880
 20
4.645080
  0
VERTEX
  8
0
  6
CONTINUOUS
 10
3.493160
 20
4.653880
  0
VERTEX
  8
0
  6
CONTINUOUS
 10
3.699520
 20
4.653880
  0
SEQEND
  8
0
  0
POLYLINE
  8
0
  6
CONTINUOUS
 66
     1
 40
0.000000
 41
0.000000
  0
VERTEX
  8
0
  6
CONTINUOUS
 10
3.493600
 20
4.653880
  0
VERTEX
  8
0
  6
CONTINUOUS
 10
3.493600
 20
7.062880
  0
VERTEX
  8
0
  6
CONTINUOUS
 10
3.742200
 20
7.062880
  0
VERTEX
  8
0
  6
CONTINUOUS
 10
3.743960
 20
7.030760
  0
VERTEX
  8
0
  6
CONTINUOUS
 10
3.748800
 20
7.002160
  0
VERTEX
  8
0
  6
CONTINUOUS
 10
3.765960
 20
6.954640
  0
VERTEX
  8
0
  6
CONTINUOUS
 10
3.790600
 20
6.919880
  0
VERTEX
  8
0
  6
CONTINUOUS
 10
3.818760
 20
6.895240
  0
VERTEX
  8
0
  6
CONTINUOUS
 10
3.846920
 20
6.878960
  0
VERTEX
  8
0
  6
CONTINUOUS
 10
3.872000
 20
6.869720
  0
VERTEX
  8
0
  6
CONTINUOUS
 10
3.925680
 20
6.859160
  0
VERTEX
  8
0
  6
CONTINUOUS
 10
3.952520
 20
6.850800
  0
VERTEX
  8
0
  6
CONTINUOUS
 10
3.982440
 20
6.837160
  0
VERTEX
  8
0
  6
CONTINUOUS
 10
4.012360
 20
6.816480
  0
VERTEX
  8
0
  6
CONTINUOUS
 10
4.038760
 20
6.788320
  0
VERTEX
  8
0
  6
CONTINUOUS
 10
4.056800
 20
6.750480
  0
VERTEX
  8
0
  6
CONTINUOUS
 10
4.063840
 20
6.702520
  0
VERTEX
  8
0
  6
CONTINUOUS
 10
4.194960
 20
6.692840
  0
VERTEX
  8
0
  6
CONTINUOUS
 10
4.194960
 20
6.606160
  0
VERTEX
  8
0
  6
CONTINUOUS
 10
4.251280
 20
6.588120
  0
VERTEX
  8
0
  6
CONTINUOUS
 10
4.299240
 20
6.562160
  0
VERTEX
  8
0
  6
CONTINUOUS
 10
4.339280
 20
6.530040
  0
VERTEX
  8
0
  6
CONTINUOUS
 10
4.371400
 20
6.492640
  0
VERTEX
  8
0
  6
CONTINUOUS
 10
4.396040
 20
6.450840
  0
VERTEX
  8
0
  6
CONTINUOUS
 10
4.412760
 20
6.405520
  0
VERTEX
  8
0
  6
CONTINUOUS
 10
4.422000
 20
6.358440
  0
VERTEX
  8
0
  6
CONTINUOUS
 10
4.423760
 20
6.310480
  0
VERTEX
  8
0
  6
CONTINUOUS
 10
4.418480
 20
6.262520
  0
VERTEX
  8
0
  6
CONTINUOUS
 10
4.405720
 20
6.215440
  0
VERTEX
  8
0
  6
CONTINUOUS
 10
4.386360
 20
6.171000
  0
VERTEX
  8
0
  6
CONTINUOUS
 10
4.359960
 20
6.129640
  0
VERTEX
  8
0
  6
CONTINUOUS
 10
4.326520
 20
6.092680
  0
VERTEX
  8
0
  6
CONTINUOUS
 10
4.286480
 20
6.061440
  0
VERTEX
  8
0
  6
CONTINUOUS
 10
4.240280
 20
6.036800
  0
VERTEX
  8
0
  6
CONTINUOUS
 10
4.187480
 20
6.019640
  0
VERTEX
  8
0
  6
CONTINUOUS
 10
4.187480
 20
5.925480
  0
VERTEX
  8
0
  6
CONTINUOUS
 10
4.073520
 20
5.913600
  0
VERTEX
  8
0
  6
CONTINUOUS
 10
4.073520
 20
5.815480
  0
VERTEX
  8
0
  6
CONTINUOUS
 10
4.019400
 20
5.807120
  0
VERTEX
  8
0
  6
CONTINUOUS
 10
3.973200
 20
5.793480
  0
VERTEX
  8
0
  6
CONTINUOUS
 10
3.934920
 20
5.774560
  0
VERTEX
  8
0
  6
CONTINUOUS
 10
3.903680
 20
5.750360
  0
VERTEX
  8
0
  6
CONTINUOUS
 10
3.878160
 20
5.721320
  0
VERTEX
  8
0
  6
CONTINUOUS
 10
3.858800
 20
5.687440
  0
VERTEX
  8
0
  6
CONTINUOUS
 10
3.844280
 20
5.648280
  0
VERTEX
  8
0
  6
CONTINUOUS
 10
3.834160
 20
5.603840
  0
VERTEX
  8
0
  6
CONTINUOUS
 10
3.828000
 20
5.555000
  0
VERTEX
  8
0
  6
CONTINUOUS
 10
3.824480
 20
5.500880
  0
VERTEX
  8
0
  6
CONTINUOUS
 10
3.824920
 20
5.378560
  0
VERTEX
  8
0
  6
CONTINUOUS
 10
3.835040
 20
5.077160
  0
VERTEX
  8
0
  6
CONTINUOUS
 10
3.727240
 20
5.047240
  0
VERTEX
  8
0
  6
CONTINUOUS
 10
3.727240
 20
5.009400
  0
VERTEX
  8
0
  6
CONTINUOUS
 10
3.764200
 20
5.005440
  0
VERTEX
  8
0
  6
CONTINUOUS
 10
3.796320
 20
4.994440
  0
VERTEX
  8
0
  6
CONTINUOUS
 10
3.824040
 20
4.976840
  0
VERTEX
  8
0
  6
CONTINUOUS
 10
3.846480
 20
4.953960
  0
VERTEX
  8
0
  6
CONTINUOUS
 10
3.864080
 20
4.927120
  0
VERTEX
  8
0
  6
CONTINUOUS
 10
3.876840
 20
4.896760
  0
VERTEX
  8
0
  6
CONTINUOUS
 10
3.884320
 20
4.864640
  0
VERTEX
  8
0
  6
CONTINUOUS
 10
3.886520
 20
4.831640
  0
VERTEX
  8
0
  6
CONTINUOUS
 10
3.883000
 20
4.798640
  0
VERTEX
  8
0
  6
CONTINUOUS
 10
3.874200
 20
4.766520
  0
VERTEX
  8
0
  6
CONTINUOUS
 10
3.859680
 20
4.736160
  0
VERTEX
  8
0
  6
CONTINUOUS
 10
3.839880
 20
4.709320
  0
VERTEX
  8
0
  6
CONTINUOUS
 10
3.813920
 20
4.686440
  0
VERTEX
  8
0
  6
CONTINUOUS
 10
3.781800
 20
4.669280
  0
VERTEX
  8
0
  6
CONTINUOUS
 10
3.743960
 20
4.657840
  0
VERTEX
  8
0
  6
CONTINUOUS
 10
3.699520
 20
4.653880
  0
VERTEX
  8
0
  6
CONTINUOUS
 10
3.493160
 20
4.653880
  0
VERTEX
  8
0
  6
CONTINUOUS
 10
3.493600
 20
4.653880
  0
SEQEND
  8
0
  0
TEXT
  8
0
 10
3.999600
 20
4.332680
 40
0.138117
  1
BA  1257
 41
1.000000
  7
SN0
 71
     0
 72
     5
 11
4.682533
 21
4.332680
  0
TEXT
  8
0
 10
3.751440
 20
4.141280
 40
0.138117
  1
15/16" x 2-7/16"
 41
1.000000
  7
SN0
 71
     0
 72
     5
 11
4.930310
 21
4.141280
  0
TEXT
  8
0
 10
3.650680
 20
7.561840
 40
0.138117
  1
BA  1257
 41
1.000000
  7
SN0
 71
     0
 72
     5
 11
4.333613
 21
7.561840
  0
TEXT
  8
0
 10
3.402960
 20
7.370440
 40
0.138117
  1
15/16" x 2-7/16"
 41
1.000000
  7
SN0
 71
     0
 72
     5
 11
4.581830
 21
7.370440
  0
TEXT
  8
0
 10
3.903680
 20
2.826120
 40
0.138117
  1
BA  1257
 41
1.000000
  7
SN0
 71
     0
 72
     5
 11
4.586613
 21
2.826120
  0
TEXT
  8
0
 10
3.821400
 20
2.634280
 40
0.138117
  1
.93" x 2.41"
 41
1.000000
  7
SN0
 71
     0
 72
     5
 11
4.671054
 21
2.634280
  0
TEXT
  8
0
 10
5.925920
 20
7.459320
 40
0.138117
  1
apron
 41
1.000000
  7
SN0
 71
     0
 72
     5
 11
6.350888
 21
7.459320
  0
ENDSEC
  0
EOF
