  0
SECTION
  2
HEADER
  9
$ACADVER
  1
AC1006
  9
$EXTMIN
 10
2.710400
 20
1.242120
  9
$EXTMAX
 10
6.788760
 20
5.961560
  9
$LTSCALE
 40
0.044000
  9
$PDMODE
 70
    35
  9
$PDSIZE
 40
0.035200
  0
ENDSEC
  0
SECTION
  2
TABLES
  0
TABLE
  2
LTYPE
 70
     9
  0
LTYPE
  2
CONTINUOUS
 70
    64
  3
Solid line
 72
    65
 73
     0
 40
0.000000
  0
LTYPE
  2
DASHED
 70
    64
  3
__ __ __ __ __ __ __ __ __ __ __ __ __ __ __
 72
    65
 73
     2
 40
0.000330
 49
0.000220
 49
-0.000110
  0
LTYPE
  2
HIDDEN
 70
    64
  3
 _ _ _ _ _ _ _ _ _ _ _ _ _ _ _ _ _ _ _ _ _ _
 72
    65
 73
     2
 40
0.000165
 49
0.000110
 49
-0.000055
  0
LTYPE
  2
CENTER
 70
    64
  3
____ _ ____ _ ____ _ ____ _ ____ _ ____ _ ____
 72
    65
 73
     4
 40
0.000880
 49
0.000550
 49
-0.000110
 49
0.000110
 49
-0.000110
  0
LTYPE
  2
PHANTOM
 70
    64
  3
_____ _ _ _____ _ _ _____ _ _ _____ _ _ ____
 72
    65
 73
     6
 40
0.001100
 49
0.000550
 49
-0.000110
 49
0.000110
 49
-0.000110
 49
0.000110
 49
-0.000110
  0
LTYPE
  2
DOT
 70
    64
  3
...............................................
 72
    65
 73
     2
 40
0.000110
 49
0.000000
 49
-0.000110
  0
LTYPE
  2
DASHDOT
 70
    64
  3
__ . __ . __ . __ . __ . __ . __ . __ . __ . __
 72
    65
 73
     4
 40
0.000440
 49
0.000220
 49
-0.000110
 49
0.000000
 49
-0.000110
  0
LTYPE
  2
BORDER
 70
    64
  3
__ __ . __ __ . __ __ . __ __ . __ __ . __ __
 72
    65
 73
     6
 40
0.000770
 49
0.000220
 49
-0.000110
 49
0.000220
 49
-0.000110
 49
0.000000
 49
-0.000110
  0
LTYPE
  2
DIVIDE
 70
    64
  3
__ . . __ . . __ . . __ . . __ . . __ . . __
 72
    65
 73
     6
 40
0.000550
 49
0.000220
 49
-0.000110
 49
0.000000
 49
-0.000110
 49
0.000000
 49
-0.000110
  0
LTYPE
  2
DOTDOT
 70
    64
  3
 . .  . .  . .  . .  . .  . . 
 72
    65
 73
     5
 40
0.000242
 49
-0.000110
 49
0.000000
 49
-0.000110
 49
0.000000
 49
-0.000110
  0
ENDTAB
  0
TABLE
  2
STYLE
 70
     2
  0
STYLE
 70
     0
  2
SN0
 40
0.000000
 41
0.000440
 50
0.000000
 71
     0
 42
0.000000
  3
ROMAND
  0
STYLE
 70
    68
  2
SV0
 40
0.000000
 41
0.000440
 50
0.000000
 71
     0
 42
0.000000
  3
ROMAND
  0
ENDTAB
  0
TABLE
  2
LAYER
 70
     3
  0
LAYER
  2
FOREGROUND
 70
    64
 62
     7
  6
CONTINUOUS
  0
LAYER
  2
BACKGROUND
 70
    65
 62
    -7
  6
CONTINUOUS
  0
LAYER
  2
0
 70
    64
 62
     7
  6
CONTINUOUS
  0
ENDTAB
  0
ENDSEC
  0
SECTION
  2
ENTITIES
  0
POLYLINE
  8
FOREGROUND
  6
CONTINUOUS
 66
     1
 40
0.000000
 41
0.000000
  0
VERTEX
  8
FOREGROUND
  6
CONTINUOUS
 10
0.000000
 20
7.203680
  0
VERTEX
  8
FOREGROUND
  6
CONTINUOUS
 10
8.499920
 20
7.203680
  0
VERTEX
  8
FOREGROUND
  6
CONTINUOUS
 10
8.499920
 20
-3.796320
  0
VERTEX
  8
FOREGROUND
  6
CONTINUOUS
 10
0.000000
 20
-3.796320
  0
VERTEX
  8
FOREGROUND
  6
CONTINUOUS
 10
0.000000
 20
7.203680
  0
SEQEND
  8
0
  0
POLYLINE
  8
FOREGROUND
  6
CONTINUOUS
 66
     1
 40
0.000000
 41
0.000000
  0
VERTEX
  8
FOREGROUND
  6
CONTINUOUS
 10
0.000000
 20
7.203680
  0
VERTEX
  8
FOREGROUND
  6
CONTINUOUS
 10
8.499920
 20
7.203680
  0
VERTEX
  8
FOREGROUND
  6
CONTINUOUS
 10
8.499920
 20
-3.796320
  0
VERTEX
  8
FOREGROUND
  6
CONTINUOUS
 10
0.000000
 20
-3.796320
  0
VERTEX
  8
FOREGROUND
  6
CONTINUOUS
 10
0.000000
 20
7.203680
  0
SEQEND
  8
0
  0
POLYLINE
  8
0
  6
CONTINUOUS
 66
     1
 40
0.014080
 41
0.014080
  0
VERTEX
  8
0
  6
CONTINUOUS
 10
6.373840
 20
5.197280
  0
VERTEX
  8
0
  6
CONTINUOUS
 10
3.088800
 20
5.197280
  0
VERTEX
  8
0
  6
CONTINUOUS
 10
2.720960
 20
5.565560
  0
VERTEX
  8
0
  6
CONTINUOUS
 10
3.103320
 20
5.947920
  0
VERTEX
  8
0
  6
CONTINUOUS
 10
3.453560
 20
5.597240
  0
VERTEX
  8
0
  6
CONTINUOUS
 10
3.523520
 20
5.641240
  0
VERTEX
  8
0
  6
CONTINUOUS
 10
3.600960
 20
5.683040
  0
VERTEX
  8
0
  6
CONTINUOUS
 10
3.696440
 20
5.728360
  0
VERTEX
  8
0
  6
CONTINUOUS
 10
3.808640
 20
5.775000
  0
VERTEX
  8
0
  6
CONTINUOUS
 10
3.903680
 20
5.808880
  0
VERTEX
  8
0
  6
CONTINUOUS
 10
4.007080
 20
5.841440
  0
VERTEX
  8
0
  6
CONTINUOUS
 10
4.118400
 20
5.870920
  0
VERTEX
  8
0
  6
CONTINUOUS
 10
4.237640
 20
5.896880
  0
VERTEX
  8
0
  6
CONTINUOUS
 10
4.364800
 20
5.918000
  0
VERTEX
  8
0
  6
CONTINUOUS
 10
4.452800
 20
5.929000
  0
VERTEX
  8
0
  6
CONTINUOUS
 10
4.544320
 20
5.936920
  0
VERTEX
  8
0
  6
CONTINUOUS
 10
4.638480
 20
5.942200
  0
VERTEX
  8
0
  6
CONTINUOUS
 10
4.735280
 20
5.943960
  0
VERTEX
  8
0
  6
CONTINUOUS
 10
4.835160
 20
5.941760
  0
VERTEX
  8
0
  6
CONTINUOUS
 10
4.937240
 20
5.935600
  0
VERTEX
  8
0
  6
CONTINUOUS
 10
5.041520
 20
5.925480
  0
VERTEX
  8
0
  6
CONTINUOUS
 10
5.148440
 20
5.910520
  0
VERTEX
  8
0
  6
CONTINUOUS
 10
5.257120
 20
5.890720
  0
VERTEX
  8
0
  6
CONTINUOUS
 10
5.368000
 20
5.865640
  0
VERTEX
  8
0
  6
CONTINUOUS
 10
5.480640
 20
5.835280
  0
VERTEX
  8
0
  6
CONTINUOUS
 10
5.595480
 20
5.799200
  0
VERTEX
  8
0
  6
CONTINUOUS
 10
5.711640
 20
5.756960
  0
VERTEX
  8
0
  6
CONTINUOUS
 10
5.829120
 20
5.708560
  0
VERTEX
  8
0
  6
CONTINUOUS
 10
5.948360
 20
5.653120
  0
VERTEX
  8
0
  6
CONTINUOUS
 10
6.008640
 20
5.623200
  0
VERTEX
  8
0
  6
CONTINUOUS
 10
6.068920
 20
5.591080
  0
VERTEX
  8
0
  6
CONTINUOUS
 10
6.428840
 20
5.951000
  0
VERTEX
  8
0
  6
CONTINUOUS
 10
6.778640
 20
5.600760
  0
VERTEX
  8
0
  6
CONTINUOUS
 10
6.373840
 20
5.196400
  0
SEQEND
  8
0
  0
SOLID
  8
0
 62
    15
 10
4.935480
 20
3.113880
 11
5.581840
 21
2.739440
 12
4.821960
 22
2.973080
 13
5.468320
 23
2.599080
  0
POLYLINE
  8
0
  6
CONTINUOUS
 66
     1
 40
0.000000
 41
0.000000
  0
VERTEX
  8
0
  6
CONTINUOUS
 10
4.935480
 20
3.113880
  0
VERTEX
  8
0
  6
CONTINUOUS
 10
5.581840
 20
2.739440
  0
VERTEX
  8
0
  6
CONTINUOUS
 10
5.468320
 20
2.599080
  0
VERTEX
  8
0
  6
CONTINUOUS
 10
4.821960
 20
2.973080
  0
VERTEX
  8
0
  6
CONTINUOUS
 10
4.935480
 20
3.113880
  0
SEQEND
  8
0
  0
SOLID
  8
0
 62
    15
 10
5.848920
 20
3.984640
 11
6.494840
 21
3.610200
 12
5.353040
 22
3.984640
 13
5.999400
 23
3.610200
  0
POLYLINE
  8
0
  6
CONTINUOUS
 66
     1
 40
0.000000
 41
0.000000
  0
VERTEX
  8
0
  6
CONTINUOUS
 10
5.848920
 20
3.984640
  0
VERTEX
  8
0
  6
CONTINUOUS
 10
6.494840
 20
3.610200
  0
VERTEX
  8
0
  6
CONTINUOUS
 10
5.999400
 20
3.610200
  0
VERTEX
  8
0
  6
CONTINUOUS
 10
5.353040
 20
3.984640
  0
VERTEX
  8
0
  6
CONTINUOUS
 10
5.848920
 20
3.984640
  0
SEQEND
  8
0
  0
SOLID
  8
0
 62
    15
 10
5.353040
 20
3.984640
 11
5.999400
 21
3.610200
 12
5.339400
 22
3.922160
 13
5.985760
 23
3.547720
  0
POLYLINE
  8
0
  6
CONTINUOUS
 66
     1
 40
0.000000
 41
0.000000
  0
VERTEX
  8
0
  6
CONTINUOUS
 10
5.353040
 20
3.984640
  0
VERTEX
  8
0
  6
CONTINUOUS
 10
5.999400
 20
3.610200
  0
VERTEX
  8
0
  6
CONTINUOUS
 10
5.985760
 20
3.547720
  0
VERTEX
  8
0
  6
CONTINUOUS
 10
5.339400
 20
3.922160
  0
VERTEX
  8
0
  6
CONTINUOUS
 10
5.353040
 20
3.984640
  0
SEQEND
  8
0
  0
SOLID
  8
0
 62
    15
 10
5.339400
 20
3.922160
 11
5.985760
 21
3.547720
 12
5.316960
 22
3.842080
 13
5.963320
 23
3.467640
  0
POLYLINE
  8
0
  6
CONTINUOUS
 66
     1
 40
0.000000
 41
0.000000
  0
VERTEX
  8
0
  6
CONTINUOUS
 10
5.339400
 20
3.922160
  0
VERTEX
  8
0
  6
CONTINUOUS
 10
5.985760
 20
3.547720
  0
VERTEX
  8
0
  6
CONTINUOUS
 10
5.963320
 20
3.467640
  0
VERTEX
  8
0
  6
CONTINUOUS
 10
5.316960
 20
3.842080
  0
VERTEX
  8
0
  6
CONTINUOUS
 10
5.339400
 20
3.922160
  0
SEQEND
  8
0
  0
SOLID
  8
0
 62
    15
 10
5.316960
 20
3.842080
 11
5.963320
 21
3.467640
 12
5.283960
 22
3.746160
 13
5.930320
 23
3.371720
  0
POLYLINE
  8
0
  6
CONTINUOUS
 66
     1
 40
0.000000
 41
0.000000
  0
VERTEX
  8
0
  6
CONTINUOUS
 10
5.316960
 20
3.842080
  0
VERTEX
  8
0
  6
CONTINUOUS
 10
5.963320
 20
3.467640
  0
VERTEX
  8
0
  6
CONTINUOUS
 10
5.930320
 20
3.371720
  0
VERTEX
  8
0
  6
CONTINUOUS
 10
5.283960
 20
3.746160
  0
VERTEX
  8
0
  6
CONTINUOUS
 10
5.316960
 20
3.842080
  0
SEQEND
  8
0
  0
SOLID
  8
0
 62
    15
 10
5.283960
 20
3.746160
 11
5.930320
 21
3.371720
 12
5.240400
 22
3.637040
 13
5.886760
 23
3.262600
  0
POLYLINE
  8
0
  6
CONTINUOUS
 66
     1
 40
0.000000
 41
0.000000
  0
VERTEX
  8
0
  6
CONTINUOUS
 10
5.283960
 20
3.746160
  0
VERTEX
  8
0
  6
CONTINUOUS
 10
5.930320
 20
3.371720
  0
VERTEX
  8
0
  6
CONTINUOUS
 10
5.886760
 20
3.262600
  0
VERTEX
  8
0
  6
CONTINUOUS
 10
5.240400
 20
3.637040
  0
VERTEX
  8
0
  6
CONTINUOUS
 10
5.283960
 20
3.746160
  0
SEQEND
  8
0
  0
SOLID
  8
0
 62
    15
 10
5.240400
 20
3.637040
 11
5.886760
 21
3.262600
 12
5.184520
 22
3.516920
 13
5.830880
 23
3.142480
  0
POLYLINE
  8
0
  6
CONTINUOUS
 66
     1
 40
0.000000
 41
0.000000
  0
VERTEX
  8
0
  6
CONTINUOUS
 10
5.240400
 20
3.637040
  0
VERTEX
  8
0
  6
CONTINUOUS
 10
5.886760
 20
3.262600
  0
VERTEX
  8
0
  6
CONTINUOUS
 10
5.830880
 20
3.142480
  0
VERTEX
  8
0
  6
CONTINUOUS
 10
5.184520
 20
3.516920
  0
VERTEX
  8
0
  6
CONTINUOUS
 10
5.240400
 20
3.637040
  0
SEQEND
  8
0
  0
SOLID
  8
0
 62
    15
 10
5.184520
 20
3.516920
 11
5.830880
 21
3.142480
 12
5.115880
 22
3.388000
 13
5.762240
 23
3.013560
  0
POLYLINE
  8
0
  6
CONTINUOUS
 66
     1
 40
0.000000
 41
0.000000
  0
VERTEX
  8
0
  6
CONTINUOUS
 10
5.184520
 20
3.516920
  0
VERTEX
  8
0
  6
CONTINUOUS
 10
5.830880
 20
3.142480
  0
VERTEX
  8
0
  6
CONTINUOUS
 10
5.762240
 20
3.013560
  0
VERTEX
  8
0
  6
CONTINUOUS
 10
5.115880
 20
3.388000
  0
VERTEX
  8
0
  6
CONTINUOUS
 10
5.184520
 20
3.516920
  0
SEQEND
  8
0
  0
SOLID
  8
0
 62
    15
 10
5.115880
 20
3.388000
 11
5.762240
 21
3.013560
 12
5.033160
 22
3.252920
 13
5.679520
 23
2.878480
  0
POLYLINE
  8
0
  6
CONTINUOUS
 66
     1
 40
0.000000
 41
0.000000
  0
VERTEX
  8
0
  6
CONTINUOUS
 10
5.115880
 20
3.388000
  0
VERTEX
  8
0
  6
CONTINUOUS
 10
5.762240
 20
3.013560
  0
VERTEX
  8
0
  6
CONTINUOUS
 10
5.679520
 20
2.878480
  0
VERTEX
  8
0
  6
CONTINUOUS
 10
5.033160
 20
3.252920
  0
VERTEX
  8
0
  6
CONTINUOUS
 10
5.115880
 20
3.388000
  0
SEQEND
  8
0
  0
SOLID
  8
0
 62
    15
 10
5.033160
 20
3.252920
 11
5.679520
 21
2.878480
 12
4.935480
 22
3.113880
 13
5.581840
 23
2.739440
  0
POLYLINE
  8
0
  6
CONTINUOUS
 66
     1
 40
0.000000
 41
0.000000
  0
VERTEX
  8
0
  6
CONTINUOUS
 10
5.033160
 20
3.252920
  0
VERTEX
  8
0
  6
CONTINUOUS
 10
5.679520
 20
2.878480
  0
VERTEX
  8
0
  6
CONTINUOUS
 10
5.581840
 20
2.739440
  0
VERTEX
  8
0
  6
CONTINUOUS
 10
4.935480
 20
3.113880
  0
VERTEX
  8
0
  6
CONTINUOUS
 10
5.033160
 20
3.252920
  0
SEQEND
  8
0
  0
SOLID
  8
0
 62
    15
 10
5.848920
 20
4.525400
 11
6.494840
 21
4.150960
 12
5.848920
 22
3.984640
 13
6.494840
 23
3.610200
  0
POLYLINE
  8
0
  6
CONTINUOUS
 66
     1
 40
0.000000
 41
0.000000
  0
VERTEX
  8
0
  6
CONTINUOUS
 10
5.848920
 20
4.525400
  0
VERTEX
  8
0
  6
CONTINUOUS
 10
6.494840
 20
4.150960
  0
VERTEX
  8
0
  6
CONTINUOUS
 10
6.494840
 20
3.610200
  0
VERTEX
  8
0
  6
CONTINUOUS
 10
5.848920
 20
3.984640
  0
VERTEX
  8
0
  6
CONTINUOUS
 10
5.848920
 20
4.525400
  0
SEQEND
  8
0
  0
SOLID
  8
0
 62
    15
 10
4.821960
 20
2.973080
 11
5.468320
 21
2.599080
 12
4.691720
 22
2.833160
 13
5.338080
 23
2.459160
  0
POLYLINE
  8
0
  6
CONTINUOUS
 66
     1
 40
0.000000
 41
0.000000
  0
VERTEX
  8
0
  6
CONTINUOUS
 10
4.821960
 20
2.973080
  0
VERTEX
  8
0
  6
CONTINUOUS
 10
5.468320
 20
2.599080
  0
VERTEX
  8
0
  6
CONTINUOUS
 10
5.338080
 20
2.459160
  0
VERTEX
  8
0
  6
CONTINUOUS
 10
4.691720
 20
2.833160
  0
VERTEX
  8
0
  6
CONTINUOUS
 10
4.821960
 20
2.973080
  0
SEQEND
  8
0
  0
SOLID
  8
0
 62
    15
 10
4.691720
 20
2.833160
 11
5.338080
 21
2.459160
 12
4.543440
 22
2.696320
 13
5.189800
 23
2.321880
  0
POLYLINE
  8
0
  6
CONTINUOUS
 66
     1
 40
0.000000
 41
0.000000
  0
VERTEX
  8
0
  6
CONTINUOUS
 10
4.691720
 20
2.833160
  0
VERTEX
  8
0
  6
CONTINUOUS
 10
5.338080
 20
2.459160
  0
VERTEX
  8
0
  6
CONTINUOUS
 10
5.189800
 20
2.321880
  0
VERTEX
  8
0
  6
CONTINUOUS
 10
4.543440
 20
2.696320
  0
VERTEX
  8
0
  6
CONTINUOUS
 10
4.691720
 20
2.833160
  0
SEQEND
  8
0
  0
SOLID
  8
0
 62
    15
 10
4.543440
 20
2.696320
 11
5.189800
 21
2.321880
 12
4.376240
 22
2.564760
 13
5.022600
 23
2.190760
  0
POLYLINE
  8
0
  6
CONTINUOUS
 66
     1
 40
0.000000
 41
0.000000
  0
VERTEX
  8
0
  6
CONTINUOUS
 10
4.543440
 20
2.696320
  0
VERTEX
  8
0
  6
CONTINUOUS
 10
5.189800
 20
2.321880
  0
VERTEX
  8
0
  6
CONTINUOUS
 10
5.022600
 20
2.190760
  0
VERTEX
  8
0
  6
CONTINUOUS
 10
4.376240
 20
2.564760
  0
VERTEX
  8
0
  6
CONTINUOUS
 10
4.543440
 20
2.696320
  0
SEQEND
  8
0
  0
SOLID
  8
0
 62
    15
 10
4.376240
 20
2.564760
 11
5.022600
 21
2.190760
 12
4.189240
 22
2.441120
 13
4.835600
 23
2.067120
  0
POLYLINE
  8
0
  6
CONTINUOUS
 66
     1
 40
0.000000
 41
0.000000
  0
VERTEX
  8
0
  6
CONTINUOUS
 10
4.376240
 20
2.564760
  0
VERTEX
  8
0
  6
CONTINUOUS
 10
5.022600
 20
2.190760
  0
VERTEX
  8
0
  6
CONTINUOUS
 10
4.835600
 20
2.067120
  0
VERTEX
  8
0
  6
CONTINUOUS
 10
4.189240
 20
2.441120
  0
VERTEX
  8
0
  6
CONTINUOUS
 10
4.376240
 20
2.564760
  0
SEQEND
  8
0
  0
SOLID
  8
0
 62
    15
 10
4.189240
 20
2.441120
 11
4.835600
 21
2.067120
 12
3.981560
 22
2.327600
 13
4.627920
 23
1.953160
  0
POLYLINE
  8
0
  6
CONTINUOUS
 66
     1
 40
0.000000
 41
0.000000
  0
VERTEX
  8
0
  6
CONTINUOUS
 10
4.189240
 20
2.441120
  0
VERTEX
  8
0
  6
CONTINUOUS
 10
4.835600
 20
2.067120
  0
VERTEX
  8
0
  6
CONTINUOUS
 10
4.627920
 20
1.953160
  0
VERTEX
  8
0
  6
CONTINUOUS
 10
3.981560
 20
2.327600
  0
VERTEX
  8
0
  6
CONTINUOUS
 10
4.189240
 20
2.441120
  0
SEQEND
  8
0
  0
SOLID
  8
0
 62
    15
 10
3.981560
 20
2.327600
 11
4.627920
 21
1.953160
 12
3.751880
 22
2.226400
 13
4.398240
 23
1.851960
  0
POLYLINE
  8
0
  6
CONTINUOUS
 66
     1
 40
0.000000
 41
0.000000
  0
VERTEX
  8
0
  6
CONTINUOUS
 10
3.981560
 20
2.327600
  0
VERTEX
  8
0
  6
CONTINUOUS
 10
4.627920
 20
1.953160
  0
VERTEX
  8
0
  6
CONTINUOUS
 10
4.398240
 20
1.851960
  0
VERTEX
  8
0
  6
CONTINUOUS
 10
3.751880
 20
2.226400
  0
VERTEX
  8
0
  6
CONTINUOUS
 10
3.981560
 20
2.327600
  0
SEQEND
  8
0
  0
SOLID
  8
0
 62
    15
 10
3.751880
 20
2.226400
 11
4.398240
 21
1.851960
 12
3.499320
 22
2.139720
 13
4.145680
 23
1.765720
  0
POLYLINE
  8
0
  6
CONTINUOUS
 66
     1
 40
0.000000
 41
0.000000
  0
VERTEX
  8
0
  6
CONTINUOUS
 10
3.751880
 20
2.226400
  0
VERTEX
  8
0
  6
CONTINUOUS
 10
4.398240
 20
1.851960
  0
VERTEX
  8
0
  6
CONTINUOUS
 10
4.145680
 20
1.765720
  0
VERTEX
  8
0
  6
CONTINUOUS
 10
3.499320
 20
2.139720
  0
VERTEX
  8
0
  6
CONTINUOUS
 10
3.751880
 20
2.226400
  0
SEQEND
  8
0
  0
SOLID
  8
0
 62
    15
 10
3.004320
 20
2.203080
 11
3.650680
 21
1.828640
 12
3.005200
 22
2.202200
 13
3.651560
 23
1.828200
  0
POLYLINE
  8
0
  6
CONTINUOUS
 66
     1
 40
0.000000
 41
0.000000
  0
VERTEX
  8
0
  6
CONTINUOUS
 10
3.004320
 20
2.203080
  0
VERTEX
  8
0
  6
CONTINUOUS
 10
3.650680
 20
1.828640
  0
VERTEX
  8
0
  6
CONTINUOUS
 10
3.651560
 20
1.828200
  0
VERTEX
  8
0
  6
CONTINUOUS
 10
3.005200
 20
2.202200
  0
VERTEX
  8
0
  6
CONTINUOUS
 10
3.004320
 20
2.203080
  0
SEQEND
  8
0
  0
SOLID
  8
0
 62
    15
 10
3.499320
 20
1.630640
 11
4.145680
 21
1.256640
 12
3.004320
 22
1.630640
 13
3.650680
 23
1.256640
  0
POLYLINE
  8
0
  6
CONTINUOUS
 66
     1
 40
0.000000
 41
0.000000
  0
VERTEX
  8
0
  6
CONTINUOUS
 10
3.499320
 20
1.630640
  0
VERTEX
  8
0
  6
CONTINUOUS
 10
4.145680
 20
1.256640
  0
VERTEX
  8
0
  6
CONTINUOUS
 10
3.650680
 20
1.256640
  0
VERTEX
  8
0
  6
CONTINUOUS
 10
3.004320
 20
1.630640
  0
VERTEX
  8
0
  6
CONTINUOUS
 10
3.499320
 20
1.630640
  0
SEQEND
  8
0
  0
SOLID
  8
0
 62
    15
 10
3.499320
 20
2.139720
 11
4.145680
 21
1.765720
 12
3.499320
 22
1.630640
 13
4.145680
 23
1.256640
  0
POLYLINE
  8
0
  6
CONTINUOUS
 66
     1
 40
0.000000
 41
0.000000
  0
VERTEX
  8
0
  6
CONTINUOUS
 10
3.499320
 20
2.139720
  0
VERTEX
  8
0
  6
CONTINUOUS
 10
4.145680
 20
1.765720
  0
VERTEX
  8
0
  6
CONTINUOUS
 10
4.145680
 20
1.256640
  0
VERTEX
  8
0
  6
CONTINUOUS
 10
3.499320
 20
1.630640
  0
VERTEX
  8
0
  6
CONTINUOUS
 10
3.499320
 20
2.139720
  0
SEQEND
  8
0
  0
POLYLINE
  8
0
  6
CONTINUOUS
 66
     1
 40
0.000000
 41
0.000000
  0
VERTEX
  8
0
  6
CONTINUOUS
 10
3.005200
 20
2.202200
  0
VERTEX
  8
0
  6
CONTINUOUS
 10
5.327960
 20
4.525400
  0
VERTEX
  8
0
  6
CONTINUOUS
 10
5.848920
 20
4.525400
  0
VERTEX
  8
0
  6
CONTINUOUS
 10
5.848920
 20
3.984640
  0
VERTEX
  8
0
  6
CONTINUOUS
 10
5.353040
 20
3.984640
  0
VERTEX
  8
0
  6
CONTINUOUS
 10
5.339400
 20
3.922160
  0
VERTEX
  8
0
  6
CONTINUOUS
 10
5.316960
 20
3.842080
  0
VERTEX
  8
0
  6
CONTINUOUS
 10
5.283960
 20
3.746160
  0
VERTEX
  8
0
  6
CONTINUOUS
 10
5.240400
 20
3.637040
  0
VERTEX
  8
0
  6
CONTINUOUS
 10
5.184520
 20
3.516920
  0
VERTEX
  8
0
  6
CONTINUOUS
 10
5.115880
 20
3.388000
  0
VERTEX
  8
0
  6
CONTINUOUS
 10
5.033160
 20
3.252920
  0
VERTEX
  8
0
  6
CONTINUOUS
 10
4.935480
 20
3.113880
  0
VERTEX
  8
0
  6
CONTINUOUS
 10
4.821960
 20
2.973080
  0
VERTEX
  8
0
  6
CONTINUOUS
 10
4.691720
 20
2.833160
  0
VERTEX
  8
0
  6
CONTINUOUS
 10
4.543440
 20
2.696320
  0
VERTEX
  8
0
  6
CONTINUOUS
 10
4.376240
 20
2.564760
  0
VERTEX
  8
0
  6
CONTINUOUS
 10
4.189240
 20
2.441120
  0
VERTEX
  8
0
  6
CONTINUOUS
 10
3.981560
 20
2.327600
  0
VERTEX
  8
0
  6
CONTINUOUS
 10
3.751880
 20
2.226400
  0
VERTEX
  8
0
  6
CONTINUOUS
 10
3.499320
 20
2.139720
  0
VERTEX
  8
0
  6
CONTINUOUS
 10
3.499320
 20
1.630640
  0
VERTEX
  8
0
  6
CONTINUOUS
 10
3.004320
 20
1.630640
  0
VERTEX
  8
0
  6
CONTINUOUS
 10
3.004320
 20
2.203080
  0
VERTEX
  8
0
  6
CONTINUOUS
 10
3.005200
 20
2.202200
  0
SEQEND
  8
0
  0
TEXT
  8
0
 10
4.814040
 20
1.485880
 40
0.138009
  1
BA  1256
 41
1.000000
  7
SN0
 71
     0
 72
     5
 11
5.496707
 21
1.485880
  0
TEXT
  8
0
 10
4.733960
 20
1.294480
 40
0.138009
  1
3/4" x 4-1/8
 41
1.000000
  7
SN0
 71
     0
 72
     5
 11
5.576616
 21
1.294480
  0
TEXT
  8
0
 10
4.392960
 20
5.492960
 40
0.138009
  1
BA  1256
 41
1.000000
  7
SN0
 71
     0
 72
     5
 11
5.075627
 21
5.492960
  0
TEXT
  8
0
 10
4.312880
 20
5.301560
 40
0.138009
  1
3/4" x 4-1/8
 41
1.000000
  7
SN0
 71
     0
 72
     5
 11
5.155536
 21
5.301560
  0
ENDSEC
  0
EOF
