  0
SECTION
  2
HEADER
  9
$ACADVER
  1
AC1006
  9
$EXTMIN
 10
3.146000
 20
1.172600
  9
$EXTMAX
 10
5.909640
 20
9.361000
  9
$LTSCALE
 40
0.044000
  9
$PDMODE
 70
    35
  9
$PDSIZE
 40
0.035200
  0
ENDSEC
  0
SECTION
  2
TABLES
  0
TABLE
  2
LTYPE
 70
     9
  0
LTYPE
  2
CONTINUOUS
 70
    64
  3
Solid line
 72
    65
 73
     0
 40
0.000000
  0
LTYPE
  2
DASHED
 70
    64
  3
__ __ __ __ __ __ __ __ __ __ __ __ __ __ __
 72
    65
 73
     2
 40
0.000330
 49
0.000220
 49
-0.000110
  0
LTYPE
  2
HIDDEN
 70
    64
  3
 _ _ _ _ _ _ _ _ _ _ _ _ _ _ _ _ _ _ _ _ _ _
 72
    65
 73
     2
 40
0.000165
 49
0.000110
 49
-0.000055
  0
LTYPE
  2
CENTER
 70
    64
  3
____ _ ____ _ ____ _ ____ _ ____ _ ____ _ ____
 72
    65
 73
     4
 40
0.000880
 49
0.000550
 49
-0.000110
 49
0.000110
 49
-0.000110
  0
LTYPE
  2
PHANTOM
 70
    64
  3
_____ _ _ _____ _ _ _____ _ _ _____ _ _ ____
 72
    65
 73
     6
 40
0.001100
 49
0.000550
 49
-0.000110
 49
0.000110
 49
-0.000110
 49
0.000110
 49
-0.000110
  0
LTYPE
  2
DOT
 70
    64
  3
...............................................
 72
    65
 73
     2
 40
0.000110
 49
0.000000
 49
-0.000110
  0
LTYPE
  2
DASHDOT
 70
    64
  3
__ . __ . __ . __ . __ . __ . __ . __ . __ . __
 72
    65
 73
     4
 40
0.000440
 49
0.000220
 49
-0.000110
 49
0.000000
 49
-0.000110
  0
LTYPE
  2
BORDER
 70
    64
  3
__ __ . __ __ . __ __ . __ __ . __ __ . __ __
 72
    65
 73
     6
 40
0.000770
 49
0.000220
 49
-0.000110
 49
0.000220
 49
-0.000110
 49
0.000000
 49
-0.000110
  0
LTYPE
  2
DIVIDE
 70
    64
  3
__ . . __ . . __ . . __ . . __ . . __ . . __
 72
    65
 73
     6
 40
0.000550
 49
0.000220
 49
-0.000110
 49
0.000000
 49
-0.000110
 49
0.000000
 49
-0.000110
  0
LTYPE
  2
DOTDOT
 70
    64
  3
 . .  . .  . .  . .  . .  . . 
 72
    65
 73
     5
 40
0.000242
 49
-0.000110
 49
0.000000
 49
-0.000110
 49
0.000000
 49
-0.000110
  0
ENDTAB
  0
TABLE
  2
STYLE
 70
     2
  0
STYLE
 70
     0
  2
SN0
 40
0.000000
 41
0.000440
 50
0.000000
 71
     0
 42
0.000000
  3
ROMAND
  0
STYLE
 70
    68
  2
SV0
 40
0.000000
 41
0.000440
 50
0.000000
 71
     0
 42
0.000000
  3
ROMAND
  0
ENDTAB
  0
TABLE
  2
LAYER
 70
     3
  0
LAYER
  2
FOREGROUND
 70
    64
 62
     7
  6
CONTINUOUS
  0
LAYER
  2
BACKGROUND
 70
    65
 62
    -7
  6
CONTINUOUS
  0
LAYER
  2
0
 70
    64
 62
     7
  6
CONTINUOUS
  0
ENDTAB
  0
ENDSEC
  0
SECTION
  2
ENTITIES
  0
POLYLINE
  8
FOREGROUND
  6
CONTINUOUS
 66
     1
 40
0.000000
 41
0.000000
  0
VERTEX
  8
FOREGROUND
  6
CONTINUOUS
 10
0.000000
 20
10.533600
  0
VERTEX
  8
FOREGROUND
  6
CONTINUOUS
 10
8.499920
 20
10.533600
  0
VERTEX
  8
FOREGROUND
  6
CONTINUOUS
 10
8.499920
 20
-0.466400
  0
VERTEX
  8
FOREGROUND
  6
CONTINUOUS
 10
0.000000
 20
-0.466400
  0
VERTEX
  8
FOREGROUND
  6
CONTINUOUS
 10
0.000000
 20
10.533600
  0
SEQEND
  8
0
  0
POLYLINE
  8
FOREGROUND
  6
CONTINUOUS
 66
     1
 40
0.000000
 41
0.000000
  0
VERTEX
  8
FOREGROUND
  6
CONTINUOUS
 10
0.000000
 20
10.533600
  0
VERTEX
  8
FOREGROUND
  6
CONTINUOUS
 10
8.499920
 20
10.533600
  0
VERTEX
  8
FOREGROUND
  6
CONTINUOUS
 10
8.499920
 20
-0.466400
  0
VERTEX
  8
FOREGROUND
  6
CONTINUOUS
 10
0.000000
 20
-0.466400
  0
VERTEX
  8
FOREGROUND
  6
CONTINUOUS
 10
0.000000
 20
10.533600
  0
SEQEND
  8
0
  0
POLYLINE
  8
0
  6
CONTINUOUS
 66
     1
 40
0.014080
 41
0.014080
  0
VERTEX
  8
0
  6
CONTINUOUS
 10
5.440600
 20
7.355920
  0
VERTEX
  8
0
  6
CONTINUOUS
 10
5.464360
 20
7.358120
  0
VERTEX
  8
0
  6
CONTINUOUS
 10
5.485920
 20
7.363840
  0
VERTEX
  8
0
  6
CONTINUOUS
 10
5.514080
 20
7.379240
  0
VERTEX
  8
0
  6
CONTINUOUS
 10
5.529920
 20
7.392880
  0
VERTEX
  8
0
  6
CONTINUOUS
 10
5.549280
 20
7.417960
  0
VERTEX
  8
0
  6
CONTINUOUS
 10
5.555000
 20
7.427200
  0
VERTEX
  8
0
  6
CONTINUOUS
 10
5.566880
 20
7.457560
  0
VERTEX
  8
0
  6
CONTINUOUS
 10
5.572160
 20
7.479120
  0
VERTEX
  8
0
  6
CONTINUOUS
 10
5.574800
 20
7.512120
  0
VERTEX
  8
0
  6
CONTINUOUS
 10
5.573040
 20
7.534120
  0
VERTEX
  8
0
  6
CONTINUOUS
 10
5.566000
 20
7.566240
  0
VERTEX
  8
0
  6
CONTINUOUS
 10
5.557640
 20
7.586480
  0
VERTEX
  8
0
  6
CONTINUOUS
 10
5.539600
 20
7.613760
  0
VERTEX
  8
0
  6
CONTINUOUS
 10
5.532120
 20
7.621680
  0
VERTEX
  8
0
  6
CONTINUOUS
 10
5.588880
 20
7.678440
  0
VERTEX
  8
0
  6
CONTINUOUS
 10
5.588880
 20
9.104040
  0
VERTEX
  8
0
  6
CONTINUOUS
 10
4.528040
 20
9.353960
  0
VERTEX
  8
0
  6
CONTINUOUS
 10
3.467200
 20
9.104040
  0
VERTEX
  8
0
  6
CONTINUOUS
 10
3.467200
 20
7.678440
  0
VERTEX
  8
0
  6
CONTINUOUS
 10
3.523960
 20
7.621680
  0
VERTEX
  8
0
  6
CONTINUOUS
 10
3.509880
 20
7.604960
  0
VERTEX
  8
0
  6
CONTINUOUS
 10
3.498440
 20
7.586480
  0
VERTEX
  8
0
  6
CONTINUOUS
 10
3.487000
 20
7.555680
  0
VERTEX
  8
0
  6
CONTINUOUS
 10
3.481720
 20
7.523120
  0
VERTEX
  8
0
  6
CONTINUOUS
 10
3.481720
 20
7.501120
  0
VERTEX
  8
0
  6
CONTINUOUS
 10
3.486120
 20
7.468120
  0
VERTEX
  8
0
  6
CONTINUOUS
 10
3.492280
 20
7.447440
  0
VERTEX
  8
0
  6
CONTINUOUS
 10
3.501080
 20
7.427200
  0
VERTEX
  8
0
  6
CONTINUOUS
 10
3.519120
 20
7.400800
  0
VERTEX
  8
0
  6
CONTINUOUS
 10
3.533640
 20
7.385840
  0
VERTEX
  8
0
  6
CONTINUOUS
 10
3.550800
 20
7.373520
  0
VERTEX
  8
0
  6
CONTINUOUS
 10
3.570160
 20
7.363840
  0
VERTEX
  8
0
  6
CONTINUOUS
 10
3.591720
 20
7.358120
  0
VERTEX
  8
0
  6
CONTINUOUS
 10
3.615480
 20
7.355920
  0
VERTEX
  8
0
  6
CONTINUOUS
 10
5.440600
 20
7.355920
  0
SEQEND
  8
0
  0
POLYLINE
  8
0
  6
CONTINUOUS
 66
     1
 40
0.000000
 41
0.000000
  0
VERTEX
  8
0
  6
CONTINUOUS
 10
5.440600
 20
1.173040
  0
VERTEX
  8
0
  6
CONTINUOUS
 10
5.464360
 20
1.175240
  0
VERTEX
  8
0
  6
CONTINUOUS
 10
5.485920
 20
1.180960
  0
VERTEX
  8
0
  6
CONTINUOUS
 10
5.505280
 20
1.190200
  0
VERTEX
  8
0
  6
CONTINUOUS
 10
5.529920
 20
1.210000
  0
VERTEX
  8
0
  6
CONTINUOUS
 10
5.549280
 20
1.235080
  0
VERTEX
  8
0
  6
CONTINUOUS
 10
5.559400
 20
1.254000
  0
VERTEX
  8
0
  6
CONTINUOUS
 10
5.563800
 20
1.264120
  0
VERTEX
  8
0
  6
CONTINUOUS
 10
5.572160
 20
1.295800
  0
VERTEX
  8
0
  6
CONTINUOUS
 10
5.574800
 20
1.329240
  0
VERTEX
  8
0
  6
CONTINUOUS
 10
5.573040
 20
1.351240
  0
VERTEX
  8
0
  6
CONTINUOUS
 10
5.566000
 20
1.383360
  0
VERTEX
  8
0
  6
CONTINUOUS
 10
5.552360
 20
1.412840
  0
VERTEX
  8
0
  6
CONTINUOUS
 10
5.539600
 20
1.430880
  0
VERTEX
  8
0
  6
CONTINUOUS
 10
5.532120
 20
1.438800
  0
VERTEX
  8
0
  6
CONTINUOUS
 10
5.588880
 20
1.495560
  0
VERTEX
  8
0
  6
CONTINUOUS
 10
5.588880
 20
2.920720
  0
VERTEX
  8
0
  6
CONTINUOUS
 10
4.528040
 20
3.170640
  0
VERTEX
  8
0
  6
CONTINUOUS
 10
3.467200
 20
2.920720
  0
VERTEX
  8
0
  6
CONTINUOUS
 10
3.467200
 20
1.495560
  0
VERTEX
  8
0
  6
CONTINUOUS
 10
3.523960
 20
1.438800
  0
VERTEX
  8
0
  6
CONTINUOUS
 10
3.509880
 20
1.422080
  0
VERTEX
  8
0
  6
CONTINUOUS
 10
3.498440
 20
1.403160
  0
VERTEX
  8
0
  6
CONTINUOUS
 10
3.487000
 20
1.372800
  0
VERTEX
  8
0
  6
CONTINUOUS
 10
3.481720
 20
1.340240
  0
VERTEX
  8
0
  6
CONTINUOUS
 10
3.481720
 20
1.317800
  0
VERTEX
  8
0
  6
CONTINUOUS
 10
3.483920
 20
1.295800
  0
VERTEX
  8
0
  6
CONTINUOUS
 10
3.492280
 20
1.264120
  0
VERTEX
  8
0
  6
CONTINUOUS
 10
3.501080
 20
1.244320
  0
VERTEX
  8
0
  6
CONTINUOUS
 10
3.519120
 20
1.217920
  0
VERTEX
  8
0
  6
CONTINUOUS
 10
3.533640
 20
1.202960
  0
VERTEX
  8
0
  6
CONTINUOUS
 10
3.550800
 20
1.190200
  0
VERTEX
  8
0
  6
CONTINUOUS
 10
3.570160
 20
1.180960
  0
VERTEX
  8
0
  6
CONTINUOUS
 10
3.591720
 20
1.175240
  0
VERTEX
  8
0
  6
CONTINUOUS
 10
3.615480
 20
1.173040
  0
VERTEX
  8
0
  6
CONTINUOUS
 10
5.440600
 20
1.173040
  0
SEQEND
  8
0
  0
SOLID
  8
0
 62
    15
 10
5.236880
 20
4.360400
 11
5.877960
 21
4.730880
 12
5.250960
 22
4.319480
 13
5.892040
 23
4.689520
  0
POLYLINE
  8
0
  6
CONTINUOUS
 66
     1
 40
0.000000
 41
0.000000
  0
VERTEX
  8
0
  6
CONTINUOUS
 10
5.236880
 20
4.360400
  0
VERTEX
  8
0
  6
CONTINUOUS
 10
5.877960
 20
4.730880
  0
VERTEX
  8
0
  6
CONTINUOUS
 10
5.892040
 20
4.689520
  0
VERTEX
  8
0
  6
CONTINUOUS
 10
5.250960
 20
4.319480
  0
VERTEX
  8
0
  6
CONTINUOUS
 10
5.236880
 20
4.360400
  0
SEQEND
  8
0
  0
SOLID
  8
0
 62
    15
 10
4.207280
 20
6.127880
 11
4.848360
 21
6.498360
 12
4.207720
 22
6.127880
 13
4.848800
 23
6.498360
  0
POLYLINE
  8
0
  6
CONTINUOUS
 66
     1
 40
0.000000
 41
0.000000
  0
VERTEX
  8
0
  6
CONTINUOUS
 10
4.207280
 20
6.127880
  0
VERTEX
  8
0
  6
CONTINUOUS
 10
4.848360
 20
6.498360
  0
VERTEX
  8
0
  6
CONTINUOUS
 10
4.848800
 20
6.498360
  0
VERTEX
  8
0
  6
CONTINUOUS
 10
4.207720
 20
6.127880
  0
VERTEX
  8
0
  6
CONTINUOUS
 10
4.207280
 20
6.127880
  0
SEQEND
  8
0
  0
SOLID
  8
0
 62
    15
 10
4.207720
 20
6.127880
 11
4.848800
 21
6.498360
 12
5.268120
 22
5.878400
 13
5.909200
 23
6.248440
  0
POLYLINE
  8
0
  6
CONTINUOUS
 66
     1
 40
0.000000
 41
0.000000
  0
VERTEX
  8
0
  6
CONTINUOUS
 10
4.207720
 20
6.127880
  0
VERTEX
  8
0
  6
CONTINUOUS
 10
4.848800
 20
6.498360
  0
VERTEX
  8
0
  6
CONTINUOUS
 10
5.909200
 20
6.248440
  0
VERTEX
  8
0
  6
CONTINUOUS
 10
5.268120
 20
5.878400
  0
VERTEX
  8
0
  6
CONTINUOUS
 10
4.207720
 20
6.127880
  0
SEQEND
  8
0
  0
SOLID
  8
0
 62
    15
 10
5.268120
 20
5.878400
 11
5.909200
 21
6.248440
 12
5.268120
 22
4.452800
 13
5.909200
 23
4.822840
  0
POLYLINE
  8
0
  6
CONTINUOUS
 66
     1
 40
0.000000
 41
0.000000
  0
VERTEX
  8
0
  6
CONTINUOUS
 10
5.268120
 20
5.878400
  0
VERTEX
  8
0
  6
CONTINUOUS
 10
5.909200
 20
6.248440
  0
VERTEX
  8
0
  6
CONTINUOUS
 10
5.909200
 20
4.822840
  0
VERTEX
  8
0
  6
CONTINUOUS
 10
5.268120
 20
4.452800
  0
VERTEX
  8
0
  6
CONTINUOUS
 10
5.268120
 20
5.878400
  0
SEQEND
  8
0
  0
SOLID
  8
0
 62
    15
 10
5.268120
 20
4.452800
 11
5.909200
 21
4.822840
 12
5.211360
 22
4.396040
 13
5.852440
 23
4.766080
  0
POLYLINE
  8
0
  6
CONTINUOUS
 66
     1
 40
0.000000
 41
0.000000
  0
VERTEX
  8
0
  6
CONTINUOUS
 10
5.268120
 20
4.452800
  0
VERTEX
  8
0
  6
CONTINUOUS
 10
5.909200
 20
4.822840
  0
VERTEX
  8
0
  6
CONTINUOUS
 10
5.852440
 20
4.766080
  0
VERTEX
  8
0
  6
CONTINUOUS
 10
5.211360
 20
4.396040
  0
VERTEX
  8
0
  6
CONTINUOUS
 10
5.268120
 20
4.452800
  0
SEQEND
  8
0
  0
SOLID
  8
0
 62
    15
 10
5.211360
 20
4.396040
 11
5.852440
 21
4.766080
 12
5.236880
 22
4.360400
 13
5.877960
 23
4.730880
  0
POLYLINE
  8
0
  6
CONTINUOUS
 66
     1
 40
0.000000
 41
0.000000
  0
VERTEX
  8
0
  6
CONTINUOUS
 10
5.211360
 20
4.396040
  0
VERTEX
  8
0
  6
CONTINUOUS
 10
5.852440
 20
4.766080
  0
VERTEX
  8
0
  6
CONTINUOUS
 10
5.877960
 20
4.730880
  0
VERTEX
  8
0
  6
CONTINUOUS
 10
5.236880
 20
4.360400
  0
VERTEX
  8
0
  6
CONTINUOUS
 10
5.211360
 20
4.396040
  0
SEQEND
  8
0
  0
SOLID
  8
0
 62
    15
 10
3.146880
 20
5.878400
 11
3.787960
 21
6.248440
 12
4.207280
 22
6.127880
 13
4.848360
 23
6.498360
  0
POLYLINE
  8
0
  6
CONTINUOUS
 66
     1
 40
0.000000
 41
0.000000
  0
VERTEX
  8
0
  6
CONTINUOUS
 10
3.146880
 20
5.878400
  0
VERTEX
  8
0
  6
CONTINUOUS
 10
3.787960
 20
6.248440
  0
VERTEX
  8
0
  6
CONTINUOUS
 10
4.848360
 20
6.498360
  0
VERTEX
  8
0
  6
CONTINUOUS
 10
4.207280
 20
6.127880
  0
VERTEX
  8
0
  6
CONTINUOUS
 10
3.146880
 20
5.878400
  0
SEQEND
  8
0
  0
SOLID
  8
0
 62
    15
 10
5.250960
 20
4.319480
 11
5.892040
 21
4.689520
 12
5.254040
 22
4.275480
 13
5.895120
 23
4.645520
  0
POLYLINE
  8
0
  6
CONTINUOUS
 66
     1
 40
0.000000
 41
0.000000
  0
VERTEX
  8
0
  6
CONTINUOUS
 10
5.250960
 20
4.319480
  0
VERTEX
  8
0
  6
CONTINUOUS
 10
5.892040
 20
4.689520
  0
VERTEX
  8
0
  6
CONTINUOUS
 10
5.895120
 20
4.645520
  0
VERTEX
  8
0
  6
CONTINUOUS
 10
5.254040
 20
4.275480
  0
VERTEX
  8
0
  6
CONTINUOUS
 10
5.250960
 20
4.319480
  0
SEQEND
  8
0
  0
SOLID
  8
0
 62
    15
 10
5.254040
 20
4.275480
 11
5.895120
 21
4.645520
 12
5.246560
 22
4.231920
 13
5.887640
 23
4.601960
  0
POLYLINE
  8
0
  6
CONTINUOUS
 66
     1
 40
0.000000
 41
0.000000
  0
VERTEX
  8
0
  6
CONTINUOUS
 10
5.254040
 20
4.275480
  0
VERTEX
  8
0
  6
CONTINUOUS
 10
5.895120
 20
4.645520
  0
VERTEX
  8
0
  6
CONTINUOUS
 10
5.887640
 20
4.601960
  0
VERTEX
  8
0
  6
CONTINUOUS
 10
5.246560
 20
4.231920
  0
VERTEX
  8
0
  6
CONTINUOUS
 10
5.254040
 20
4.275480
  0
SEQEND
  8
0
  0
SOLID
  8
0
 62
    15
 10
5.246560
 20
4.231920
 11
5.887640
 21
4.601960
 12
5.228960
 22
4.192320
 13
5.870040
 23
4.562800
  0
POLYLINE
  8
0
  6
CONTINUOUS
 66
     1
 40
0.000000
 41
0.000000
  0
VERTEX
  8
0
  6
CONTINUOUS
 10
5.246560
 20
4.231920
  0
VERTEX
  8
0
  6
CONTINUOUS
 10
5.887640
 20
4.601960
  0
VERTEX
  8
0
  6
CONTINUOUS
 10
5.870040
 20
4.562800
  0
VERTEX
  8
0
  6
CONTINUOUS
 10
5.228960
 20
4.192320
  0
VERTEX
  8
0
  6
CONTINUOUS
 10
5.246560
 20
4.231920
  0
SEQEND
  8
0
  0
SOLID
  8
0
 62
    15
 10
5.201680
 20
4.160200
 11
5.842760
 21
4.530240
 12
5.165600
 22
4.138200
 13
5.806240
 23
4.508240
  0
POLYLINE
  8
0
  6
CONTINUOUS
 66
     1
 40
0.000000
 41
0.000000
  0
VERTEX
  8
0
  6
CONTINUOUS
 10
5.201680
 20
4.160200
  0
VERTEX
  8
0
  6
CONTINUOUS
 10
5.842760
 20
4.530240
  0
VERTEX
  8
0
  6
CONTINUOUS
 10
5.806240
 20
4.508240
  0
VERTEX
  8
0
  6
CONTINUOUS
 10
5.165600
 20
4.138200
  0
VERTEX
  8
0
  6
CONTINUOUS
 10
5.201680
 20
4.160200
  0
SEQEND
  8
0
  0
SOLID
  8
0
 62
    15
 10
5.228960
 20
4.192320
 11
5.870040
 21
4.562800
 12
5.201680
 22
4.160200
 13
5.842760
 23
4.530240
  0
POLYLINE
  8
0
  6
CONTINUOUS
 66
     1
 40
0.000000
 41
0.000000
  0
VERTEX
  8
0
  6
CONTINUOUS
 10
5.228960
 20
4.192320
  0
VERTEX
  8
0
  6
CONTINUOUS
 10
5.870040
 20
4.562800
  0
VERTEX
  8
0
  6
CONTINUOUS
 10
5.842760
 20
4.530240
  0
VERTEX
  8
0
  6
CONTINUOUS
 10
5.201680
 20
4.160200
  0
VERTEX
  8
0
  6
CONTINUOUS
 10
5.228960
 20
4.192320
  0
SEQEND
  8
0
  0
POLYLINE
  8
0
  6
CONTINUOUS
 66
     1
 40
0.000000
 41
0.000000
  0
VERTEX
  8
0
  6
CONTINUOUS
 10
5.119400
 20
4.130280
  0
VERTEX
  8
0
  6
CONTINUOUS
 10
3.294720
 20
4.130280
  0
VERTEX
  8
0
  6
CONTINUOUS
 10
3.249840
 20
4.138200
  0
VERTEX
  8
0
  6
CONTINUOUS
 10
3.213320
 20
4.160200
  0
VERTEX
  8
0
  6
CONTINUOUS
 10
3.186040
 20
4.192320
  0
VERTEX
  8
0
  6
CONTINUOUS
 10
3.168440
 20
4.231920
  0
VERTEX
  8
0
  6
CONTINUOUS
 10
3.160960
 20
4.275480
  0
VERTEX
  8
0
  6
CONTINUOUS
 10
3.164040
 20
4.319480
  0
VERTEX
  8
0
  6
CONTINUOUS
 10
3.178120
 20
4.360400
  0
VERTEX
  8
0
  6
CONTINUOUS
 10
3.203640
 20
4.396040
  0
VERTEX
  8
0
  6
CONTINUOUS
 10
3.146880
 20
4.452800
  0
VERTEX
  8
0
  6
CONTINUOUS
 10
3.146880
 20
5.878400
  0
VERTEX
  8
0
  6
CONTINUOUS
 10
4.207280
 20
6.127880
  0
VERTEX
  8
0
  6
CONTINUOUS
 10
4.207720
 20
6.127880
  0
VERTEX
  8
0
  6
CONTINUOUS
 10
5.268120
 20
5.878400
  0
VERTEX
  8
0
  6
CONTINUOUS
 10
5.268120
 20
4.452800
  0
VERTEX
  8
0
  6
CONTINUOUS
 10
5.211360
 20
4.396040
  0
VERTEX
  8
0
  6
CONTINUOUS
 10
5.236880
 20
4.360400
  0
VERTEX
  8
0
  6
CONTINUOUS
 10
5.250960
 20
4.319480
  0
VERTEX
  8
0
  6
CONTINUOUS
 10
5.254040
 20
4.275480
  0
VERTEX
  8
0
  6
CONTINUOUS
 10
5.246560
 20
4.231920
  0
VERTEX
  8
0
  6
CONTINUOUS
 10
5.228960
 20
4.192320
  0
VERTEX
  8
0
  6
CONTINUOUS
 10
5.201680
 20
4.160200
  0
VERTEX
  8
0
  6
CONTINUOUS
 10
5.165600
 20
4.138200
  0
VERTEX
  8
0
  6
CONTINUOUS
 10
5.120280
 20
4.130280
  0
VERTEX
  8
0
  6
CONTINUOUS
 10
5.119400
 20
4.130280
  0
SEQEND
  8
0
  0
TEXT
  8
0
 10
4.185720
 20
3.861000
 40
0.138116
  1
BA  1255
 41
1.000000
  7
SN0
 71
     0
 72
     5
 11
4.867404
 21
3.861000
  0
TEXT
  8
0
 10
4.145240
 20
3.669600
 40
0.138116
  1
2" x 2-1/8"
 41
1.000000
  7
SN0
 71
     0
 72
     5
 11
4.907171
 21
3.669600
  0
TEXT
  8
0
 10
4.185720
 20
7.694720
 40
0.138116
  1
BA  1255
 41
1.000000
  7
SN0
 71
     0
 72
     5
 11
4.867404
 21
7.694720
  0
TEXT
  8
0
 10
4.145240
 20
7.502880
 40
0.138116
  1
2" x 2-1/8"
 41
1.000000
  7
SN0
 71
     0
 72
     5
 11
4.907171
 21
7.502880
  0
ENDSEC
  0
EOF
