  0
SECTION
  2
HEADER
  9
$ACADVER
  1
AC1006
  9
$EXTMIN
 10
2.664200
 20
0.493680
  9
$EXTMAX
 10
6.746960
 20
9.878440
  9
$LTSCALE
 40
0.044000
  9
$PDMODE
 70
    35
  9
$PDSIZE
 40
0.035200
  0
ENDSEC
  0
SECTION
  2
TABLES
  0
TABLE
  2
LTYPE
 70
     9
  0
LTYPE
  2
CONTINUOUS
 70
    64
  3
Solid line
 72
    65
 73
     0
 40
0.000000
  0
LTYPE
  2
DASHED
 70
    64
  3
__ __ __ __ __ __ __ __ __ __ __ __ __ __ __
 72
    65
 73
     2
 40
0.000330
 49
0.000220
 49
-0.000110
  0
LTYPE
  2
HIDDEN
 70
    64
  3
 _ _ _ _ _ _ _ _ _ _ _ _ _ _ _ _ _ _ _ _ _ _
 72
    65
 73
     2
 40
0.000165
 49
0.000110
 49
-0.000055
  0
LTYPE
  2
CENTER
 70
    64
  3
____ _ ____ _ ____ _ ____ _ ____ _ ____ _ ____
 72
    65
 73
     4
 40
0.000880
 49
0.000550
 49
-0.000110
 49
0.000110
 49
-0.000110
  0
LTYPE
  2
PHANTOM
 70
    64
  3
_____ _ _ _____ _ _ _____ _ _ _____ _ _ ____
 72
    65
 73
     6
 40
0.001100
 49
0.000550
 49
-0.000110
 49
0.000110
 49
-0.000110
 49
0.000110
 49
-0.000110
  0
LTYPE
  2
DOT
 70
    64
  3
...............................................
 72
    65
 73
     2
 40
0.000110
 49
0.000000
 49
-0.000110
  0
LTYPE
  2
DASHDOT
 70
    64
  3
__ . __ . __ . __ . __ . __ . __ . __ . __ . __
 72
    65
 73
     4
 40
0.000440
 49
0.000220
 49
-0.000110
 49
0.000000
 49
-0.000110
  0
LTYPE
  2
BORDER
 70
    64
  3
__ __ . __ __ . __ __ . __ __ . __ __ . __ __
 72
    65
 73
     6
 40
0.000770
 49
0.000220
 49
-0.000110
 49
0.000220
 49
-0.000110
 49
0.000000
 49
-0.000110
  0
LTYPE
  2
DIVIDE
 70
    64
  3
__ . . __ . . __ . . __ . . __ . . __ . . __
 72
    65
 73
     6
 40
0.000550
 49
0.000220
 49
-0.000110
 49
0.000000
 49
-0.000110
 49
0.000000
 49
-0.000110
  0
LTYPE
  2
DOTDOT
 70
    64
  3
 . .  . .  . .  . .  . .  . . 
 72
    65
 73
     5
 40
0.000242
 49
-0.000110
 49
0.000000
 49
-0.000110
 49
0.000000
 49
-0.000110
  0
ENDTAB
  0
TABLE
  2
STYLE
 70
     2
  0
STYLE
 70
     0
  2
SN0
 40
0.000000
 41
0.000440
 50
0.000000
 71
     0
 42
0.000000
  3
ROMAND
  0
STYLE
 70
    68
  2
SV0
 40
0.000000
 41
0.000440
 50
0.000000
 71
     0
 42
0.000000
  3
ROMAND
  0
ENDTAB
  0
TABLE
  2
LAYER
 70
     3
  0
LAYER
  2
FOREGROUND
 70
    64
 62
     7
  6
CONTINUOUS
  0
LAYER
  2
BACKGROUND
 70
    65
 62
    -7
  6
CONTINUOUS
  0
LAYER
  2
0
 70
    64
 62
     7
  6
CONTINUOUS
  0
ENDTAB
  0
ENDSEC
  0
SECTION
  2
ENTITIES
  0
POLYLINE
  8
FOREGROUND
  6
CONTINUOUS
 66
     1
 40
0.000000
 41
0.000000
  0
VERTEX
  8
FOREGROUND
  6
CONTINUOUS
 10
0.000000
 20
10.372120
  0
VERTEX
  8
FOREGROUND
  6
CONTINUOUS
 10
8.499920
 20
10.372120
  0
VERTEX
  8
FOREGROUND
  6
CONTINUOUS
 10
8.499920
 20
-0.627880
  0
VERTEX
  8
FOREGROUND
  6
CONTINUOUS
 10
0.000000
 20
-0.627880
  0
VERTEX
  8
FOREGROUND
  6
CONTINUOUS
 10
0.000000
 20
10.372120
  0
SEQEND
  8
0
  0
POLYLINE
  8
FOREGROUND
  6
CONTINUOUS
 66
     1
 40
0.000000
 41
0.000000
  0
VERTEX
  8
FOREGROUND
  6
CONTINUOUS
 10
0.000000
 20
10.372120
  0
VERTEX
  8
FOREGROUND
  6
CONTINUOUS
 10
8.499920
 20
10.372120
  0
VERTEX
  8
FOREGROUND
  6
CONTINUOUS
 10
8.499920
 20
-0.627880
  0
VERTEX
  8
FOREGROUND
  6
CONTINUOUS
 10
0.000000
 20
-0.627880
  0
VERTEX
  8
FOREGROUND
  6
CONTINUOUS
 10
0.000000
 20
10.372120
  0
SEQEND
  8
0
  0
POLYLINE
  8
0
  6
CONTINUOUS
 66
     1
 40
0.014080
 41
0.014080
  0
VERTEX
  8
0
  6
CONTINUOUS
 10
3.956480
 20
7.609800
  0
VERTEX
  8
0
  6
CONTINUOUS
 10
5.455560
 20
7.609800
  0
VERTEX
  8
0
  6
CONTINUOUS
 10
5.455560
 20
7.296960
  0
VERTEX
  8
0
  6
CONTINUOUS
 10
5.660600
 20
7.296960
  0
VERTEX
  8
0
  6
CONTINUOUS
 10
5.684800
 20
7.304440
  0
VERTEX
  8
0
  6
CONTINUOUS
 10
5.705480
 20
7.314560
  0
VERTEX
  8
0
  6
CONTINUOUS
 10
5.723520
 20
7.327320
  0
VERTEX
  8
0
  6
CONTINUOUS
 10
5.744200
 20
7.349760
  0
VERTEX
  8
0
  6
CONTINUOUS
 10
5.759160
 20
7.375720
  0
VERTEX
  8
0
  6
CONTINUOUS
 10
5.767520
 20
7.403880
  0
VERTEX
  8
0
  6
CONTINUOUS
 10
5.769280
 20
7.413560
  0
VERTEX
  8
0
  6
CONTINUOUS
 10
5.770600
 20
7.432920
  0
VERTEX
  8
0
  6
CONTINUOUS
 10
5.770160
 20
7.452720
  0
VERTEX
  8
0
  6
CONTINUOUS
 10
5.767080
 20
7.471640
  0
VERTEX
  8
0
  6
CONTINUOUS
 10
5.755200
 20
7.507720
  0
VERTEX
  8
0
  6
CONTINUOUS
 10
5.746400
 20
7.524000
  0
VERTEX
  8
0
  6
CONTINUOUS
 10
5.730120
 20
7.545120
  0
VERTEX
  8
0
  6
CONTINUOUS
 10
5.723960
 20
7.551280
  0
VERTEX
  8
0
  6
CONTINUOUS
 10
5.774120
 20
7.596160
  0
VERTEX
  8
0
  6
CONTINUOUS
 10
5.775880
 20
8.143960
  0
VERTEX
  8
0
  6
CONTINUOUS
 10
6.020960
 20
8.174760
  0
VERTEX
  8
0
  6
CONTINUOUS
 10
6.020960
 20
8.904720
  0
VERTEX
  8
0
  6
CONTINUOUS
 10
6.021840
 20
8.930680
  0
VERTEX
  8
0
  6
CONTINUOUS
 10
6.027560
 20
8.979520
  0
VERTEX
  8
0
  6
CONTINUOUS
 10
6.038120
 20
9.024400
  0
VERTEX
  8
0
  6
CONTINUOUS
 10
6.053960
 20
9.065760
  0
VERTEX
  8
0
  6
CONTINUOUS
 10
6.073320
 20
9.103160
  0
VERTEX
  8
0
  6
CONTINUOUS
 10
6.096640
 20
9.137040
  0
VERTEX
  8
0
  6
CONTINUOUS
 10
6.123040
 20
9.167400
  0
VERTEX
  8
0
  6
CONTINUOUS
 10
6.152080
 20
9.194680
  0
VERTEX
  8
0
  6
CONTINUOUS
 10
6.182880
 20
9.218440
  0
VERTEX
  8
0
  6
CONTINUOUS
 10
6.231720
 20
9.247920
  0
VERTEX
  8
0
  6
CONTINUOUS
 10
6.281880
 20
9.270360
  0
VERTEX
  8
0
  6
CONTINUOUS
 10
6.332040
 20
9.285760
  0
VERTEX
  8
0
  6
CONTINUOUS
 10
6.364600
 20
9.292800
  0
VERTEX
  8
0
  6
CONTINUOUS
 10
6.410360
 20
9.297640
  0
VERTEX
  8
0
  6
CONTINUOUS
 10
6.424440
 20
9.298080
  0
VERTEX
  8
0
  6
CONTINUOUS
 10
6.424440
 20
9.609600
  0
VERTEX
  8
0
  6
CONTINUOUS
 10
6.253720
 20
9.657560
  0
VERTEX
  8
0
  6
CONTINUOUS
 10
6.087400
 20
9.699360
  0
VERTEX
  8
0
  6
CONTINUOUS
 10
5.926360
 20
9.735000
  0
VERTEX
  8
0
  6
CONTINUOUS
 10
5.771480
 20
9.765800
  0
VERTEX
  8
0
  6
CONTINUOUS
 10
5.623200
 20
9.791320
  0
VERTEX
  8
0
  6
CONTINUOUS
 10
5.449400
 20
9.816840
  0
VERTEX
  8
0
  6
CONTINUOUS
 10
5.259320
 20
9.839720
  0
VERTEX
  8
0
  6
CONTINUOUS
 10
5.092120
 20
9.854680
  0
VERTEX
  8
0
  6
CONTINUOUS
 10
4.909960
 20
9.866120
  0
VERTEX
  8
0
  6
CONTINUOUS
 10
4.758160
 20
9.870520
  0
VERTEX
  8
0
  6
CONTINUOUS
 10
4.588760
 20
9.868760
  0
VERTEX
  8
0
  6
CONTINUOUS
 10
4.460720
 20
9.863480
  0
VERTEX
  8
0
  6
CONTINUOUS
 10
4.293520
 20
9.852040
  0
VERTEX
  8
0
  6
CONTINUOUS
 10
4.152720
 20
9.839280
  0
VERTEX
  8
0
  6
CONTINUOUS
 10
3.928760
 20
9.812000
  0
VERTEX
  8
0
  6
CONTINUOUS
 10
3.788400
 20
9.790880
  0
VERTEX
  8
0
  6
CONTINUOUS
 10
3.640560
 20
9.765360
  0
VERTEX
  8
0
  6
CONTINUOUS
 10
3.485680
 20
9.734560
  0
VERTEX
  8
0
  6
CONTINUOUS
 10
3.324640
 20
9.698920
  0
VERTEX
  8
0
  6
CONTINUOUS
 10
3.158320
 20
9.657120
  0
VERTEX
  8
0
  6
CONTINUOUS
 10
2.987600
 20
9.609160
  0
VERTEX
  8
0
  6
CONTINUOUS
 10
2.987600
 20
9.297640
  0
VERTEX
  8
0
  6
CONTINUOUS
 10
3.016640
 20
9.296320
  0
VERTEX
  8
0
  6
CONTINUOUS
 10
3.063280
 20
9.289280
  0
VERTEX
  8
0
  6
CONTINUOUS
 10
3.113000
 20
9.275640
  0
VERTEX
  8
0
  6
CONTINUOUS
 10
3.163600
 20
9.255400
  0
VERTEX
  8
0
  6
CONTINUOUS
 10
3.213320
 20
9.228120
  0
VERTEX
  8
0
  6
CONTINUOUS
 10
3.245000
 20
9.206120
  0
VERTEX
  8
0
  6
CONTINUOUS
 10
3.274920
 20
9.181040
  0
VERTEX
  8
0
  6
CONTINUOUS
 10
3.315400
 20
9.136600
  0
VERTEX
  8
0
  6
CONTINUOUS
 10
3.338720
 20
9.102280
  0
VERTEX
  8
0
  6
CONTINUOUS
 10
3.358080
 20
9.064880
  0
VERTEX
  8
0
  6
CONTINUOUS
 10
3.373920
 20
9.023960
  0
VERTEX
  8
0
  6
CONTINUOUS
 10
3.384480
 20
8.978640
  0
VERTEX
  8
0
  6
CONTINUOUS
 10
3.390200
 20
8.930240
  0
VERTEX
  8
0
  6
CONTINUOUS
 10
3.391080
 20
8.904280
  0
VERTEX
  8
0
  6
CONTINUOUS
 10
3.391080
 20
8.173880
  0
VERTEX
  8
0
  6
CONTINUOUS
 10
3.636160
 20
8.143080
  0
VERTEX
  8
0
  6
CONTINUOUS
 10
3.637480
 20
7.595280
  0
VERTEX
  8
0
  6
CONTINUOUS
 10
3.687640
 20
7.550840
  0
VERTEX
  8
0
  6
CONTINUOUS
 10
3.675760
 20
7.538080
  0
VERTEX
  8
0
  6
CONTINUOUS
 10
3.665200
 20
7.523560
  0
VERTEX
  8
0
  6
CONTINUOUS
 10
3.656400
 20
7.507280
  0
VERTEX
  8
0
  6
CONTINUOUS
 10
3.644520
 20
7.471200
  0
VERTEX
  8
0
  6
CONTINUOUS
 10
3.641440
 20
7.451840
  0
VERTEX
  8
0
  6
CONTINUOUS
 10
3.641000
 20
7.432480
  0
VERTEX
  8
0
  6
CONTINUOUS
 10
3.642320
 20
7.412680
  0
VERTEX
  8
0
  6
CONTINUOUS
 10
3.648920
 20
7.384080
  0
VERTEX
  8
0
  6
CONTINUOUS
 10
3.661680
 20
7.357680
  0
VERTEX
  8
0
  6
CONTINUOUS
 10
3.680600
 20
7.333480
  0
VERTEX
  8
0
  6
CONTINUOUS
 10
3.696880
 20
7.319840
  0
VERTEX
  8
0
  6
CONTINUOUS
 10
3.715800
 20
7.308400
  0
VERTEX
  8
0
  6
CONTINUOUS
 10
3.738680
 20
7.299600
  0
VERTEX
  8
0
  6
CONTINUOUS
 10
3.751000
 20
7.296080
  0
VERTEX
  8
0
  6
CONTINUOUS
 10
3.956480
 20
7.296080
  0
VERTEX
  8
0
  6
CONTINUOUS
 10
3.956480
 20
7.609800
  0
SEQEND
  8
0
  0
POLYLINE
  8
0
  6
CONTINUOUS
 66
     1
 40
0.000000
 41
0.000000
  0
VERTEX
  8
0
  6
CONTINUOUS
 10
3.956480
 20
0.807840
  0
VERTEX
  8
0
  6
CONTINUOUS
 10
5.455560
 20
0.807840
  0
VERTEX
  8
0
  6
CONTINUOUS
 10
5.455560
 20
0.494560
  0
VERTEX
  8
0
  6
CONTINUOUS
 10
5.660600
 20
0.494560
  0
VERTEX
  8
0
  6
CONTINUOUS
 10
5.684800
 20
0.502040
  0
VERTEX
  8
0
  6
CONTINUOUS
 10
5.705480
 20
0.512600
  0
VERTEX
  8
0
  6
CONTINUOUS
 10
5.723520
 20
0.524920
  0
VERTEX
  8
0
  6
CONTINUOUS
 10
5.744200
 20
0.547800
  0
VERTEX
  8
0
  6
CONTINUOUS
 10
5.759160
 20
0.573760
  0
VERTEX
  8
0
  6
CONTINUOUS
 10
5.765320
 20
0.592240
  0
VERTEX
  8
0
  6
CONTINUOUS
 10
5.769280
 20
0.611160
  0
VERTEX
  8
0
  6
CONTINUOUS
 10
5.770600
 20
0.630960
  0
VERTEX
  8
0
  6
CONTINUOUS
 10
5.770160
 20
0.650320
  0
VERTEX
  8
0
  6
CONTINUOUS
 10
5.767080
 20
0.669680
  0
VERTEX
  8
0
  6
CONTINUOUS
 10
5.755200
 20
0.705760
  0
VERTEX
  8
0
  6
CONTINUOUS
 10
5.746400
 20
0.722040
  0
VERTEX
  8
0
  6
CONTINUOUS
 10
5.730120
 20
0.743160
  0
VERTEX
  8
0
  6
CONTINUOUS
 10
5.723960
 20
0.749320
  0
VERTEX
  8
0
  6
CONTINUOUS
 10
5.774120
 20
0.793760
  0
VERTEX
  8
0
  6
CONTINUOUS
 10
5.775880
 20
1.341560
  0
VERTEX
  8
0
  6
CONTINUOUS
 10
6.020960
 20
1.372360
  0
VERTEX
  8
0
  6
CONTINUOUS
 10
6.020960
 20
2.102760
  0
VERTEX
  8
0
  6
CONTINUOUS
 10
6.021840
 20
2.128720
  0
VERTEX
  8
0
  6
CONTINUOUS
 10
6.027560
 20
2.177120
  0
VERTEX
  8
0
  6
CONTINUOUS
 10
6.038120
 20
2.222440
  0
VERTEX
  8
0
  6
CONTINUOUS
 10
6.053960
 20
2.263360
  0
VERTEX
  8
0
  6
CONTINUOUS
 10
6.073320
 20
2.300760
  0
VERTEX
  8
0
  6
CONTINUOUS
 10
6.096640
 20
2.335080
  0
VERTEX
  8
0
  6
CONTINUOUS
 10
6.123040
 20
2.365440
  0
VERTEX
  8
0
  6
CONTINUOUS
 10
6.152080
 20
2.392280
  0
VERTEX
  8
0
  6
CONTINUOUS
 10
6.182880
 20
2.416040
  0
VERTEX
  8
0
  6
CONTINUOUS
 10
6.215000
 20
2.436720
  0
VERTEX
  8
0
  6
CONTINUOUS
 10
6.265160
 20
2.461360
  0
VERTEX
  8
0
  6
CONTINUOUS
 10
6.315760
 20
2.479400
  0
VERTEX
  8
0
  6
CONTINUOUS
 10
6.364600
 20
2.490840
  0
VERTEX
  8
0
  6
CONTINUOUS
 10
6.410360
 20
2.495680
  0
VERTEX
  8
0
  6
CONTINUOUS
 10
6.424440
 20
2.496120
  0
VERTEX
  8
0
  6
CONTINUOUS
 10
6.424440
 20
2.807640
  0
VERTEX
  8
0
  6
CONTINUOUS
 10
6.253720
 20
2.855600
  0
VERTEX
  8
0
  6
CONTINUOUS
 10
6.087400
 20
2.897400
  0
VERTEX
  8
0
  6
CONTINUOUS
 10
5.926360
 20
2.933040
  0
VERTEX
  8
0
  6
CONTINUOUS
 10
5.771480
 20
2.963840
  0
VERTEX
  8
0
  6
CONTINUOUS
 10
5.623200
 20
2.989360
  0
VERTEX
  8
0
  6
CONTINUOUS
 10
5.449400
 20
3.014880
  0
VERTEX
  8
0
  6
CONTINUOUS
 10
5.259320
 20
3.037760
  0
VERTEX
  8
0
  6
CONTINUOUS
 10
5.092120
 20
3.052720
  0
VERTEX
  8
0
  6
CONTINUOUS
 10
4.909960
 20
3.064160
  0
VERTEX
  8
0
  6
CONTINUOUS
 10
4.758160
 20
3.068560
  0
VERTEX
  8
0
  6
CONTINUOUS
 10
4.603720
 20
3.066800
  0
VERTEX
  8
0
  6
CONTINUOUS
 10
4.460720
 20
3.061080
  0
VERTEX
  8
0
  6
CONTINUOUS
 10
4.293520
 20
3.049640
  0
VERTEX
  8
0
  6
CONTINUOUS
 10
4.152280
 20
3.036880
  0
VERTEX
  8
0
  6
CONTINUOUS
 10
3.928320
 20
3.009600
  0
VERTEX
  8
0
  6
CONTINUOUS
 10
3.788400
 20
2.988480
  0
VERTEX
  8
0
  6
CONTINUOUS
 10
3.640120
 20
2.962960
  0
VERTEX
  8
0
  6
CONTINUOUS
 10
3.485240
 20
2.932160
  0
VERTEX
  8
0
  6
CONTINUOUS
 10
3.324200
 20
2.896520
  0
VERTEX
  8
0
  6
CONTINUOUS
 10
3.157880
 20
2.854720
  0
VERTEX
  8
0
  6
CONTINUOUS
 10
2.987160
 20
2.806760
  0
VERTEX
  8
0
  6
CONTINUOUS
 10
2.987160
 20
2.495240
  0
VERTEX
  8
0
  6
CONTINUOUS
 10
3.031600
 20
2.492160
  0
VERTEX
  8
0
  6
CONTINUOUS
 10
3.063280
 20
2.486880
  0
VERTEX
  8
0
  6
CONTINUOUS
 10
3.112560
 20
2.473240
  0
VERTEX
  8
0
  6
CONTINUOUS
 10
3.146440
 20
2.460480
  0
VERTEX
  8
0
  6
CONTINUOUS
 10
3.179880
 20
2.445080
  0
VERTEX
  8
0
  6
CONTINUOUS
 10
3.228720
 20
2.415600
  0
VERTEX
  8
0
  6
CONTINUOUS
 10
3.259520
 20
2.391840
  0
VERTEX
  8
0
  6
CONTINUOUS
 10
3.288560
 20
2.364560
  0
VERTEX
  8
0
  6
CONTINUOUS
 10
3.314960
 20
2.334200
  0
VERTEX
  8
0
  6
CONTINUOUS
 10
3.338280
 20
2.300320
  0
VERTEX
  8
0
  6
CONTINUOUS
 10
3.357640
 20
2.262920
  0
VERTEX
  8
0
  6
CONTINUOUS
 10
3.373480
 20
2.221560
  0
VERTEX
  8
0
  6
CONTINUOUS
 10
3.384040
 20
2.176680
  0
VERTEX
  8
0
  6
CONTINUOUS
 10
3.389760
 20
2.127840
  0
VERTEX
  8
0
  6
CONTINUOUS
 10
3.390640
 20
2.101880
  0
VERTEX
  8
0
  6
CONTINUOUS
 10
3.390640
 20
1.371480
  0
VERTEX
  8
0
  6
CONTINUOUS
 10
3.636160
 20
1.341120
  0
VERTEX
  8
0
  6
CONTINUOUS
 10
3.637480
 20
0.793320
  0
VERTEX
  8
0
  6
CONTINUOUS
 10
3.687640
 20
0.748440
  0
VERTEX
  8
0
  6
CONTINUOUS
 10
3.675760
 20
0.735680
  0
VERTEX
  8
0
  6
CONTINUOUS
 10
3.665200
 20
0.721160
  0
VERTEX
  8
0
  6
CONTINUOUS
 10
3.656400
 20
0.704880
  0
VERTEX
  8
0
  6
CONTINUOUS
 10
3.644520
 20
0.668800
  0
VERTEX
  8
0
  6
CONTINUOUS
 10
3.641440
 20
0.649880
  0
VERTEX
  8
0
  6
CONTINUOUS
 10
3.641000
 20
0.630080
  0
VERTEX
  8
0
  6
CONTINUOUS
 10
3.642320
 20
0.610720
  0
VERTEX
  8
0
  6
CONTINUOUS
 10
3.648920
 20
0.582120
  0
VERTEX
  8
0
  6
CONTINUOUS
 10
3.661680
 20
0.555280
  0
VERTEX
  8
0
  6
CONTINUOUS
 10
3.680600
 20
0.531520
  0
VERTEX
  8
0
  6
CONTINUOUS
 10
3.696880
 20
0.517880
  0
VERTEX
  8
0
  6
CONTINUOUS
 10
3.715800
 20
0.506440
  0
VERTEX
  8
0
  6
CONTINUOUS
 10
3.738680
 20
0.497640
  0
VERTEX
  8
0
  6
CONTINUOUS
 10
3.751000
 20
0.494120
  0
VERTEX
  8
0
  6
CONTINUOUS
 10
3.956040
 20
0.494120
  0
VERTEX
  8
0
  6
CONTINUOUS
 10
3.956480
 20
0.807840
  0
SEQEND
  8
0
  0
SOLID
  8
0
 62
    15
 10
4.695240
 20
6.568760
 11
5.340720
 21
6.944520
 12
4.906880
 22
6.551160
 13
5.552360
 23
6.927360
  0
POLYLINE
  8
0
  6
CONTINUOUS
 66
     1
 40
0.000000
 41
0.000000
  0
VERTEX
  8
0
  6
CONTINUOUS
 10
4.695240
 20
6.568760
  0
VERTEX
  8
0
  6
CONTINUOUS
 10
5.340720
 20
6.944520
  0
VERTEX
  8
0
  6
CONTINUOUS
 10
5.552360
 20
6.927360
  0
VERTEX
  8
0
  6
CONTINUOUS
 10
4.906880
 20
6.551160
  0
VERTEX
  8
0
  6
CONTINUOUS
 10
4.695240
 20
6.568760
  0
SEQEND
  8
0
  0
SOLID
  8
0
 62
    15
 10
2.664640
 20
6.317520
 11
3.310120
 21
6.693720
 12
3.001680
 22
6.407280
 13
3.646720
 23
6.783480
  0
POLYLINE
  8
0
  6
CONTINUOUS
 66
     1
 40
0.000000
 41
0.000000
  0
VERTEX
  8
0
  6
CONTINUOUS
 10
2.664640
 20
6.317520
  0
VERTEX
  8
0
  6
CONTINUOUS
 10
3.310120
 20
6.693720
  0
VERTEX
  8
0
  6
CONTINUOUS
 10
3.646720
 20
6.783480
  0
VERTEX
  8
0
  6
CONTINUOUS
 10
3.001680
 20
6.407280
  0
VERTEX
  8
0
  6
CONTINUOUS
 10
2.664640
 20
6.317520
  0
SEQEND
  8
0
  0
SOLID
  8
0
 62
    15
 10
3.001680
 20
6.407280
 11
3.646720
 21
6.783480
 12
3.317600
 22
6.473280
 13
3.963080
 23
6.849480
  0
POLYLINE
  8
0
  6
CONTINUOUS
 66
     1
 40
0.000000
 41
0.000000
  0
VERTEX
  8
0
  6
CONTINUOUS
 10
3.001680
 20
6.407280
  0
VERTEX
  8
0
  6
CONTINUOUS
 10
3.646720
 20
6.783480
  0
VERTEX
  8
0
  6
CONTINUOUS
 10
3.963080
 20
6.849480
  0
VERTEX
  8
0
  6
CONTINUOUS
 10
3.317600
 20
6.473280
  0
VERTEX
  8
0
  6
CONTINUOUS
 10
3.001680
 20
6.407280
  0
SEQEND
  8
0
  0
SOLID
  8
0
 62
    15
 10
3.317600
 20
6.473280
 11
3.963080
 21
6.849480
 12
3.605800
 22
6.520360
 13
4.251280
 23
6.896120
  0
POLYLINE
  8
0
  6
CONTINUOUS
 66
     1
 40
0.000000
 41
0.000000
  0
VERTEX
  8
0
  6
CONTINUOUS
 10
3.317600
 20
6.473280
  0
VERTEX
  8
0
  6
CONTINUOUS
 10
3.963080
 20
6.849480
  0
VERTEX
  8
0
  6
CONTINUOUS
 10
4.251280
 20
6.896120
  0
VERTEX
  8
0
  6
CONTINUOUS
 10
3.605800
 20
6.520360
  0
VERTEX
  8
0
  6
CONTINUOUS
 10
3.317600
 20
6.473280
  0
SEQEND
  8
0
  0
SOLID
  8
0
 62
    15
 10
3.605800
 20
6.520360
 11
4.251280
 21
6.896120
 12
3.859240
 22
6.550280
 13
4.504720
 23
6.926480
  0
POLYLINE
  8
0
  6
CONTINUOUS
 66
     1
 40
0.000000
 41
0.000000
  0
VERTEX
  8
0
  6
CONTINUOUS
 10
3.605800
 20
6.520360
  0
VERTEX
  8
0
  6
CONTINUOUS
 10
4.251280
 20
6.896120
  0
VERTEX
  8
0
  6
CONTINUOUS
 10
4.504720
 20
6.926480
  0
VERTEX
  8
0
  6
CONTINUOUS
 10
3.859240
 20
6.550280
  0
VERTEX
  8
0
  6
CONTINUOUS
 10
3.605800
 20
6.520360
  0
SEQEND
  8
0
  0
SOLID
  8
0
 62
    15
 10
3.859240
 20
6.550280
 11
4.504720
 21
6.926480
 12
4.070880
 22
6.567880
 13
4.716360
 23
6.944080
  0
POLYLINE
  8
0
  6
CONTINUOUS
 66
     1
 40
0.000000
 41
0.000000
  0
VERTEX
  8
0
  6
CONTINUOUS
 10
3.859240
 20
6.550280
  0
VERTEX
  8
0
  6
CONTINUOUS
 10
4.504720
 20
6.926480
  0
VERTEX
  8
0
  6
CONTINUOUS
 10
4.716360
 20
6.944080
  0
VERTEX
  8
0
  6
CONTINUOUS
 10
4.070880
 20
6.567880
  0
VERTEX
  8
0
  6
CONTINUOUS
 10
3.859240
 20
6.550280
  0
SEQEND
  8
0
  0
SOLID
  8
0
 62
    15
 10
4.070880
 20
6.567880
 11
4.716360
 21
6.944080
 12
4.158880
 22
6.573160
 13
4.804360
 23
6.948920
  0
POLYLINE
  8
0
  6
CONTINUOUS
 66
     1
 40
0.000000
 41
0.000000
  0
VERTEX
  8
0
  6
CONTINUOUS
 10
4.070880
 20
6.567880
  0
VERTEX
  8
0
  6
CONTINUOUS
 10
4.716360
 20
6.944080
  0
VERTEX
  8
0
  6
CONTINUOUS
 10
4.804360
 20
6.948920
  0
VERTEX
  8
0
  6
CONTINUOUS
 10
4.158880
 20
6.573160
  0
VERTEX
  8
0
  6
CONTINUOUS
 10
4.070880
 20
6.567880
  0
SEQEND
  8
0
  0
SOLID
  8
0
 62
    15
 10
4.158880
 20
6.573160
 11
4.804360
 21
6.948920
 12
4.234120
 22
6.576240
 13
4.879160
 23
6.952000
  0
POLYLINE
  8
0
  6
CONTINUOUS
 66
     1
 40
0.000000
 41
0.000000
  0
VERTEX
  8
0
  6
CONTINUOUS
 10
4.158880
 20
6.573160
  0
VERTEX
  8
0
  6
CONTINUOUS
 10
4.804360
 20
6.948920
  0
VERTEX
  8
0
  6
CONTINUOUS
 10
4.879160
 20
6.952000
  0
VERTEX
  8
0
  6
CONTINUOUS
 10
4.234120
 20
6.576240
  0
VERTEX
  8
0
  6
CONTINUOUS
 10
4.158880
 20
6.573160
  0
SEQEND
  8
0
  0
SOLID
  8
0
 62
    15
 10
4.234120
 20
6.576240
 11
4.879160
 21
6.952000
 12
4.294840
 22
6.578000
 13
4.939880
 23
6.953760
  0
POLYLINE
  8
0
  6
CONTINUOUS
 66
     1
 40
0.000000
 41
0.000000
  0
VERTEX
  8
0
  6
CONTINUOUS
 10
4.234120
 20
6.576240
  0
VERTEX
  8
0
  6
CONTINUOUS
 10
4.879160
 20
6.952000
  0
VERTEX
  8
0
  6
CONTINUOUS
 10
4.939880
 20
6.953760
  0
VERTEX
  8
0
  6
CONTINUOUS
 10
4.294840
 20
6.578000
  0
VERTEX
  8
0
  6
CONTINUOUS
 10
4.234120
 20
6.576240
  0
SEQEND
  8
0
  0
SOLID
  8
0
 62
    15
 10
4.294840
 20
6.578000
 11
4.939880
 21
6.953760
 12
4.341040
 22
6.578440
 13
4.986080
 23
6.954640
  0
POLYLINE
  8
0
  6
CONTINUOUS
 66
     1
 40
0.000000
 41
0.000000
  0
VERTEX
  8
0
  6
CONTINUOUS
 10
4.294840
 20
6.578000
  0
VERTEX
  8
0
  6
CONTINUOUS
 10
4.939880
 20
6.953760
  0
VERTEX
  8
0
  6
CONTINUOUS
 10
4.986080
 20
6.954640
  0
VERTEX
  8
0
  6
CONTINUOUS
 10
4.341040
 20
6.578440
  0
VERTEX
  8
0
  6
CONTINUOUS
 10
4.294840
 20
6.578000
  0
SEQEND
  8
0
  0
SOLID
  8
0
 62
    15
 10
4.341040
 20
6.578440
 11
4.986080
 21
6.954640
 12
4.371400
 22
6.578440
 13
5.016880
 23
6.954640
  0
POLYLINE
  8
0
  6
CONTINUOUS
 66
     1
 40
0.000000
 41
0.000000
  0
VERTEX
  8
0
  6
CONTINUOUS
 10
4.341040
 20
6.578440
  0
VERTEX
  8
0
  6
CONTINUOUS
 10
4.986080
 20
6.954640
  0
VERTEX
  8
0
  6
CONTINUOUS
 10
5.016880
 20
6.954640
  0
VERTEX
  8
0
  6
CONTINUOUS
 10
4.371400
 20
6.578440
  0
VERTEX
  8
0
  6
CONTINUOUS
 10
4.341040
 20
6.578440
  0
SEQEND
  8
0
  0
SOLID
  8
0
 62
    15
 10
4.371400
 20
6.578440
 11
5.016880
 21
6.954640
 12
4.385480
 22
6.578440
 13
5.030960
 23
6.954640
  0
POLYLINE
  8
0
  6
CONTINUOUS
 66
     1
 40
0.000000
 41
0.000000
  0
VERTEX
  8
0
  6
CONTINUOUS
 10
4.371400
 20
6.578440
  0
VERTEX
  8
0
  6
CONTINUOUS
 10
5.016880
 20
6.954640
  0
VERTEX
  8
0
  6
CONTINUOUS
 10
5.030960
 20
6.954640
  0
VERTEX
  8
0
  6
CONTINUOUS
 10
4.385480
 20
6.578440
  0
VERTEX
  8
0
  6
CONTINUOUS
 10
4.371400
 20
6.578440
  0
SEQEND
  8
0
  0
SOLID
  8
0
 62
    15
 10
4.381080
 20
6.578880
 11
5.026120
 21
6.955080
 12
4.394720
 22
6.579320
 13
5.040200
 23
6.955520
  0
POLYLINE
  8
0
  6
CONTINUOUS
 66
     1
 40
0.000000
 41
0.000000
  0
VERTEX
  8
0
  6
CONTINUOUS
 10
4.381080
 20
6.578880
  0
VERTEX
  8
0
  6
CONTINUOUS
 10
5.026120
 20
6.955080
  0
VERTEX
  8
0
  6
CONTINUOUS
 10
5.040200
 20
6.955520
  0
VERTEX
  8
0
  6
CONTINUOUS
 10
4.394720
 20
6.579320
  0
VERTEX
  8
0
  6
CONTINUOUS
 10
4.381080
 20
6.578880
  0
SEQEND
  8
0
  0
SOLID
  8
0
 62
    15
 10
4.394720
 20
6.579320
 11
5.040200
 21
6.955520
 12
4.425520
 22
6.578880
 13
5.070560
 23
6.955080
  0
POLYLINE
  8
0
  6
CONTINUOUS
 66
     1
 40
0.000000
 41
0.000000
  0
VERTEX
  8
0
  6
CONTINUOUS
 10
4.394720
 20
6.579320
  0
VERTEX
  8
0
  6
CONTINUOUS
 10
5.040200
 20
6.955520
  0
VERTEX
  8
0
  6
CONTINUOUS
 10
5.070560
 20
6.955080
  0
VERTEX
  8
0
  6
CONTINUOUS
 10
4.425520
 20
6.578880
  0
VERTEX
  8
0
  6
CONTINUOUS
 10
4.394720
 20
6.579320
  0
SEQEND
  8
0
  0
SOLID
  8
0
 62
    15
 10
4.425520
 20
6.578880
 11
5.070560
 21
6.955080
 12
4.471280
 22
6.578440
 13
5.116760
 23
6.954640
  0
POLYLINE
  8
0
  6
CONTINUOUS
 66
     1
 40
0.000000
 41
0.000000
  0
VERTEX
  8
0
  6
CONTINUOUS
 10
4.425520
 20
6.578880
  0
VERTEX
  8
0
  6
CONTINUOUS
 10
5.070560
 20
6.955080
  0
VERTEX
  8
0
  6
CONTINUOUS
 10
5.116760
 20
6.954640
  0
VERTEX
  8
0
  6
CONTINUOUS
 10
4.471280
 20
6.578440
  0
VERTEX
  8
0
  6
CONTINUOUS
 10
4.425520
 20
6.578880
  0
SEQEND
  8
0
  0
SOLID
  8
0
 62
    15
 10
4.471280
 20
6.578440
 11
5.116760
 21
6.954640
 12
4.532440
 22
6.576680
 13
5.177480
 23
6.952880
  0
POLYLINE
  8
0
  6
CONTINUOUS
 66
     1
 40
0.000000
 41
0.000000
  0
VERTEX
  8
0
  6
CONTINUOUS
 10
4.471280
 20
6.578440
  0
VERTEX
  8
0
  6
CONTINUOUS
 10
5.116760
 20
6.954640
  0
VERTEX
  8
0
  6
CONTINUOUS
 10
5.177480
 20
6.952880
  0
VERTEX
  8
0
  6
CONTINUOUS
 10
4.532440
 20
6.576680
  0
VERTEX
  8
0
  6
CONTINUOUS
 10
4.471280
 20
6.578440
  0
SEQEND
  8
0
  0
SOLID
  8
0
 62
    15
 10
4.532440
 20
6.576680
 11
5.177480
 21
6.952880
 12
4.607240
 22
6.573600
 13
5.252720
 23
6.949800
  0
POLYLINE
  8
0
  6
CONTINUOUS
 66
     1
 40
0.000000
 41
0.000000
  0
VERTEX
  8
0
  6
CONTINUOUS
 10
4.532440
 20
6.576680
  0
VERTEX
  8
0
  6
CONTINUOUS
 10
5.177480
 20
6.952880
  0
VERTEX
  8
0
  6
CONTINUOUS
 10
5.252720
 20
6.949800
  0
VERTEX
  8
0
  6
CONTINUOUS
 10
4.607240
 20
6.573600
  0
VERTEX
  8
0
  6
CONTINUOUS
 10
4.532440
 20
6.576680
  0
SEQEND
  8
0
  0
SOLID
  8
0
 62
    15
 10
4.607240
 20
6.573600
 11
5.252720
 21
6.949800
 12
4.695240
 22
6.568760
 13
5.340720
 23
6.944520
  0
POLYLINE
  8
0
  6
CONTINUOUS
 66
     1
 40
0.000000
 41
0.000000
  0
VERTEX
  8
0
  6
CONTINUOUS
 10
4.607240
 20
6.573600
  0
VERTEX
  8
0
  6
CONTINUOUS
 10
5.252720
 20
6.949800
  0
VERTEX
  8
0
  6
CONTINUOUS
 10
5.340720
 20
6.944520
  0
VERTEX
  8
0
  6
CONTINUOUS
 10
4.695240
 20
6.568760
  0
VERTEX
  8
0
  6
CONTINUOUS
 10
4.607240
 20
6.573600
  0
SEQEND
  8
0
  0
SOLID
  8
0
 62
    15
 10
3.633520
 20
4.313760
 11
4.279000
 21
4.689960
 12
3.633520
 22
4.004440
 13
4.279000
 23
4.380640
  0
POLYLINE
  8
0
  6
CONTINUOUS
 66
     1
 40
0.000000
 41
0.000000
  0
VERTEX
  8
0
  6
CONTINUOUS
 10
3.633520
 20
4.313760
  0
VERTEX
  8
0
  6
CONTINUOUS
 10
4.279000
 20
4.689960
  0
VERTEX
  8
0
  6
CONTINUOUS
 10
4.279000
 20
4.380640
  0
VERTEX
  8
0
  6
CONTINUOUS
 10
3.633520
 20
4.004440
  0
VERTEX
  8
0
  6
CONTINUOUS
 10
3.633520
 20
4.313760
  0
SEQEND
  8
0
  0
SOLID
  8
0
 62
    15
 10
4.906880
 20
6.551160
 11
5.552360
 21
6.927360
 12
5.160320
 22
6.520800
 13
5.805800
 23
6.897000
  0
POLYLINE
  8
0
  6
CONTINUOUS
 66
     1
 40
0.000000
 41
0.000000
  0
VERTEX
  8
0
  6
CONTINUOUS
 10
4.906880
 20
6.551160
  0
VERTEX
  8
0
  6
CONTINUOUS
 10
5.552360
 20
6.927360
  0
VERTEX
  8
0
  6
CONTINUOUS
 10
5.805800
 20
6.897000
  0
VERTEX
  8
0
  6
CONTINUOUS
 10
5.160320
 20
6.520800
  0
VERTEX
  8
0
  6
CONTINUOUS
 10
4.906880
 20
6.551160
  0
SEQEND
  8
0
  0
SOLID
  8
0
 62
    15
 10
5.160320
 20
6.520800
 11
5.805800
 21
6.897000
 12
5.448520
 22
6.474160
 13
6.094000
 23
6.850360
  0
POLYLINE
  8
0
  6
CONTINUOUS
 66
     1
 40
0.000000
 41
0.000000
  0
VERTEX
  8
0
  6
CONTINUOUS
 10
5.160320
 20
6.520800
  0
VERTEX
  8
0
  6
CONTINUOUS
 10
5.805800
 20
6.897000
  0
VERTEX
  8
0
  6
CONTINUOUS
 10
6.094000
 20
6.850360
  0
VERTEX
  8
0
  6
CONTINUOUS
 10
5.448520
 20
6.474160
  0
VERTEX
  8
0
  6
CONTINUOUS
 10
5.160320
 20
6.520800
  0
SEQEND
  8
0
  0
SOLID
  8
0
 62
    15
 10
5.448520
 20
6.474160
 11
6.094000
 21
6.850360
 12
5.764880
 22
6.407720
 13
6.409920
 23
6.783920
  0
POLYLINE
  8
0
  6
CONTINUOUS
 66
     1
 40
0.000000
 41
0.000000
  0
VERTEX
  8
0
  6
CONTINUOUS
 10
5.448520
 20
6.474160
  0
VERTEX
  8
0
  6
CONTINUOUS
 10
6.094000
 20
6.850360
  0
VERTEX
  8
0
  6
CONTINUOUS
 10
6.409920
 20
6.783920
  0
VERTEX
  8
0
  6
CONTINUOUS
 10
5.764880
 20
6.407720
  0
VERTEX
  8
0
  6
CONTINUOUS
 10
5.448520
 20
6.474160
  0
SEQEND
  8
0
  0
SOLID
  8
0
 62
    15
 10
5.764880
 20
6.407720
 11
6.409920
 21
6.783920
 12
6.101920
 22
6.317960
 13
6.746960
 23
6.694160
  0
POLYLINE
  8
0
  6
CONTINUOUS
 66
     1
 40
0.000000
 41
0.000000
  0
VERTEX
  8
0
  6
CONTINUOUS
 10
5.764880
 20
6.407720
  0
VERTEX
  8
0
  6
CONTINUOUS
 10
6.409920
 20
6.783920
  0
VERTEX
  8
0
  6
CONTINUOUS
 10
6.746960
 20
6.694160
  0
VERTEX
  8
0
  6
CONTINUOUS
 10
6.101920
 20
6.317960
  0
VERTEX
  8
0
  6
CONTINUOUS
 10
5.764880
 20
6.407720
  0
SEQEND
  8
0
  0
SOLID
  8
0
 62
    15
 10
5.908760
 20
5.956280
 11
6.554240
 21
6.332480
 12
5.844520
 22
5.915360
 13
6.489560
 23
6.291560
  0
POLYLINE
  8
0
  6
CONTINUOUS
 66
     1
 40
0.000000
 41
0.000000
  0
VERTEX
  8
0
  6
CONTINUOUS
 10
5.908760
 20
5.956280
  0
VERTEX
  8
0
  6
CONTINUOUS
 10
6.554240
 20
6.332480
  0
VERTEX
  8
0
  6
CONTINUOUS
 10
6.489560
 20
6.291560
  0
VERTEX
  8
0
  6
CONTINUOUS
 10
5.844520
 20
5.915360
  0
VERTEX
  8
0
  6
CONTINUOUS
 10
5.908760
 20
5.956280
  0
SEQEND
  8
0
  0
SOLID
  8
0
 62
    15
 10
5.844520
 20
5.915360
 11
6.489560
 21
6.291560
 12
5.786880
 22
5.861240
 13
6.431920
 23
6.237440
  0
POLYLINE
  8
0
  6
CONTINUOUS
 66
     1
 40
0.000000
 41
0.000000
  0
VERTEX
  8
0
  6
CONTINUOUS
 10
5.844520
 20
5.915360
  0
VERTEX
  8
0
  6
CONTINUOUS
 10
6.489560
 20
6.291560
  0
VERTEX
  8
0
  6
CONTINUOUS
 10
6.431920
 20
6.237440
  0
VERTEX
  8
0
  6
CONTINUOUS
 10
5.786880
 20
5.861240
  0
VERTEX
  8
0
  6
CONTINUOUS
 10
5.844520
 20
5.915360
  0
SEQEND
  8
0
  0
SOLID
  8
0
 62
    15
 10
5.786880
 20
5.861240
 11
6.431920
 21
6.237440
 12
5.740240
 22
5.793480
 13
6.385720
 23
6.169240
  0
POLYLINE
  8
0
  6
CONTINUOUS
 66
     1
 40
0.000000
 41
0.000000
  0
VERTEX
  8
0
  6
CONTINUOUS
 10
5.786880
 20
5.861240
  0
VERTEX
  8
0
  6
CONTINUOUS
 10
6.431920
 20
6.237440
  0
VERTEX
  8
0
  6
CONTINUOUS
 10
6.385720
 20
6.169240
  0
VERTEX
  8
0
  6
CONTINUOUS
 10
5.740240
 20
5.793480
  0
VERTEX
  8
0
  6
CONTINUOUS
 10
5.786880
 20
5.861240
  0
SEQEND
  8
0
  0
SOLID
  8
0
 62
    15
 10
6.101920
 20
6.317960
 11
6.746960
 21
6.694160
 12
6.101920
 22
6.006440
 13
6.746960
 23
6.382640
  0
POLYLINE
  8
0
  6
CONTINUOUS
 66
     1
 40
0.000000
 41
0.000000
  0
VERTEX
  8
0
  6
CONTINUOUS
 10
6.101920
 20
6.317960
  0
VERTEX
  8
0
  6
CONTINUOUS
 10
6.746960
 20
6.694160
  0
VERTEX
  8
0
  6
CONTINUOUS
 10
6.746960
 20
6.382640
  0
VERTEX
  8
0
  6
CONTINUOUS
 10
6.101920
 20
6.006440
  0
VERTEX
  8
0
  6
CONTINUOUS
 10
6.101920
 20
6.317960
  0
SEQEND
  8
0
  0
SOLID
  8
0
 62
    15
 10
5.740240
 20
5.793480
 11
6.385720
 21
6.169240
 12
5.709440
 22
5.710760
 13
6.354480
 23
6.086960
  0
POLYLINE
  8
0
  6
CONTINUOUS
 66
     1
 40
0.000000
 41
0.000000
  0
VERTEX
  8
0
  6
CONTINUOUS
 10
5.740240
 20
5.793480
  0
VERTEX
  8
0
  6
CONTINUOUS
 10
6.385720
 20
6.169240
  0
VERTEX
  8
0
  6
CONTINUOUS
 10
6.354480
 20
6.086960
  0
VERTEX
  8
0
  6
CONTINUOUS
 10
5.709440
 20
5.710760
  0
VERTEX
  8
0
  6
CONTINUOUS
 10
5.740240
 20
5.793480
  0
SEQEND
  8
0
  0
SOLID
  8
0
 62
    15
 10
5.709440
 20
5.710760
 11
6.354480
 21
6.086960
 12
5.698440
 22
5.613520
 13
6.343480
 23
5.989280
  0
POLYLINE
  8
0
  6
CONTINUOUS
 66
     1
 40
0.000000
 41
0.000000
  0
VERTEX
  8
0
  6
CONTINUOUS
 10
5.709440
 20
5.710760
  0
VERTEX
  8
0
  6
CONTINUOUS
 10
6.354480
 20
6.086960
  0
VERTEX
  8
0
  6
CONTINUOUS
 10
6.343480
 20
5.989280
  0
VERTEX
  8
0
  6
CONTINUOUS
 10
5.698440
 20
5.613520
  0
VERTEX
  8
0
  6
CONTINUOUS
 10
5.709440
 20
5.710760
  0
SEQEND
  8
0
  0
SOLID
  8
0
 62
    15
 10
5.401440
 20
4.259640
 11
6.046480
 21
4.635840
 12
5.439280
 22
4.198920
 13
6.084760
 23
4.575120
  0
POLYLINE
  8
0
  6
CONTINUOUS
 66
     1
 40
0.000000
 41
0.000000
  0
VERTEX
  8
0
  6
CONTINUOUS
 10
5.401440
 20
4.259640
  0
VERTEX
  8
0
  6
CONTINUOUS
 10
6.046480
 20
4.635840
  0
VERTEX
  8
0
  6
CONTINUOUS
 10
6.084760
 20
4.575120
  0
VERTEX
  8
0
  6
CONTINUOUS
 10
5.439280
 20
4.198920
  0
VERTEX
  8
0
  6
CONTINUOUS
 10
5.401440
 20
4.259640
  0
SEQEND
  8
0
  0
SOLID
  8
0
 62
    15
 10
5.451600
 20
4.304520
 11
6.096640
 21
4.680720
 12
5.401440
 22
4.259640
 13
6.046480
 23
4.635840
  0
POLYLINE
  8
0
  6
CONTINUOUS
 66
     1
 40
0.000000
 41
0.000000
  0
VERTEX
  8
0
  6
CONTINUOUS
 10
5.451600
 20
4.304520
  0
VERTEX
  8
0
  6
CONTINUOUS
 10
6.096640
 20
4.680720
  0
VERTEX
  8
0
  6
CONTINUOUS
 10
6.046480
 20
4.635840
  0
VERTEX
  8
0
  6
CONTINUOUS
 10
5.401440
 20
4.259640
  0
VERTEX
  8
0
  6
CONTINUOUS
 10
5.451600
 20
4.304520
  0
SEQEND
  8
0
  0
SOLID
  8
0
 62
    15
 10
5.452920
 20
4.852320
 11
6.098400
 21
5.228520
 12
5.451600
 22
4.304520
 13
6.096640
 23
4.680720
  0
POLYLINE
  8
0
  6
CONTINUOUS
 66
     1
 40
0.000000
 41
0.000000
  0
VERTEX
  8
0
  6
CONTINUOUS
 10
5.452920
 20
4.852320
  0
VERTEX
  8
0
  6
CONTINUOUS
 10
6.098400
 20
5.228520
  0
VERTEX
  8
0
  6
CONTINUOUS
 10
6.096640
 20
4.680720
  0
VERTEX
  8
0
  6
CONTINUOUS
 10
5.451600
 20
4.304520
  0
VERTEX
  8
0
  6
CONTINUOUS
 10
5.452920
 20
4.852320
  0
SEQEND
  8
0
  0
SOLID
  8
0
 62
    15
 10
5.698440
 20
5.613520
 11
6.343480
 21
5.989280
 12
5.698440
 22
4.883120
 13
6.343480
 23
5.259320
  0
POLYLINE
  8
0
  6
CONTINUOUS
 66
     1
 40
0.000000
 41
0.000000
  0
VERTEX
  8
0
  6
CONTINUOUS
 10
5.698440
 20
5.613520
  0
VERTEX
  8
0
  6
CONTINUOUS
 10
6.343480
 20
5.989280
  0
VERTEX
  8
0
  6
CONTINUOUS
 10
6.343480
 20
5.259320
  0
VERTEX
  8
0
  6
CONTINUOUS
 10
5.698440
 20
4.883120
  0
VERTEX
  8
0
  6
CONTINUOUS
 10
5.698440
 20
5.613520
  0
SEQEND
  8
0
  0
SOLID
  8
0
 62
    15
 10
5.439280
 20
4.198920
 11
6.084760
 21
4.575120
 12
5.446760
 22
4.121920
 13
6.091800
 23
4.498120
  0
POLYLINE
  8
0
  6
CONTINUOUS
 66
     1
 40
0.000000
 41
0.000000
  0
VERTEX
  8
0
  6
CONTINUOUS
 10
5.439280
 20
4.198920
  0
VERTEX
  8
0
  6
CONTINUOUS
 10
6.084760
 20
4.575120
  0
VERTEX
  8
0
  6
CONTINUOUS
 10
6.091800
 20
4.498120
  0
VERTEX
  8
0
  6
CONTINUOUS
 10
5.446760
 20
4.121920
  0
VERTEX
  8
0
  6
CONTINUOUS
 10
5.439280
 20
4.198920
  0
SEQEND
  8
0
  0
SOLID
  8
0
 62
    15
 10
5.415520
 20
4.050200
 11
6.060560
 21
4.426400
 12
5.382960
 22
4.023360
 13
6.028440
 23
4.399120
  0
POLYLINE
  8
0
  6
CONTINUOUS
 66
     1
 40
0.000000
 41
0.000000
  0
VERTEX
  8
0
  6
CONTINUOUS
 10
5.415520
 20
4.050200
  0
VERTEX
  8
0
  6
CONTINUOUS
 10
6.060560
 20
4.426400
  0
VERTEX
  8
0
  6
CONTINUOUS
 10
6.028440
 20
4.399120
  0
VERTEX
  8
0
  6
CONTINUOUS
 10
5.382960
 20
4.023360
  0
VERTEX
  8
0
  6
CONTINUOUS
 10
5.415520
 20
4.050200
  0
SEQEND
  8
0
  0
SOLID
  8
0
 62
    15
 10
5.446760
 20
4.121920
 11
6.091800
 21
4.498120
 12
5.415520
 22
4.050200
 13
6.060560
 23
4.426400
  0
POLYLINE
  8
0
  6
CONTINUOUS
 66
     1
 40
0.000000
 41
0.000000
  0
VERTEX
  8
0
  6
CONTINUOUS
 10
5.446760
 20
4.121920
  0
VERTEX
  8
0
  6
CONTINUOUS
 10
6.091800
 20
4.498120
  0
VERTEX
  8
0
  6
CONTINUOUS
 10
6.060560
 20
4.426400
  0
VERTEX
  8
0
  6
CONTINUOUS
 10
5.415520
 20
4.050200
  0
VERTEX
  8
0
  6
CONTINUOUS
 10
5.446760
 20
4.121920
  0
SEQEND
  8
0
  0
SOLID
  8
0
 62
    15
 10
3.633960
 20
4.318600
 11
4.279000
 21
4.694360
 12
3.633520
 22
4.313760
 13
4.279000
 23
4.689960
  0
POLYLINE
  8
0
  6
CONTINUOUS
 66
     1
 40
0.000000
 41
0.000000
  0
VERTEX
  8
0
  6
CONTINUOUS
 10
3.633960
 20
4.318600
  0
VERTEX
  8
0
  6
CONTINUOUS
 10
4.279000
 20
4.694360
  0
VERTEX
  8
0
  6
CONTINUOUS
 10
4.279000
 20
4.689960
  0
VERTEX
  8
0
  6
CONTINUOUS
 10
3.633520
 20
4.313760
  0
VERTEX
  8
0
  6
CONTINUOUS
 10
3.633960
 20
4.318600
  0
SEQEND
  8
0
  0
POLYLINE
  8
0
  6
CONTINUOUS
 66
     1
 40
0.000000
 41
0.000000
  0
VERTEX
  8
0
  6
CONTINUOUS
 10
3.633520
 20
4.313760
  0
VERTEX
  8
0
  6
CONTINUOUS
 10
3.633520
 20
4.004440
  0
VERTEX
  8
0
  6
CONTINUOUS
 10
3.428480
 20
4.004440
  0
VERTEX
  8
0
  6
CONTINUOUS
 10
3.383600
 20
4.022480
  0
VERTEX
  8
0
  6
CONTINUOUS
 10
3.351040
 20
4.049760
  0
VERTEX
  8
0
  6
CONTINUOUS
 10
3.319800
 20
4.121040
  0
VERTEX
  8
0
  6
CONTINUOUS
 10
3.326840
 20
4.198040
  0
VERTEX
  8
0
  6
CONTINUOUS
 10
3.365120
 20
4.259200
  0
VERTEX
  8
0
  6
CONTINUOUS
 10
3.314960
 20
4.303640
  0
VERTEX
  8
0
  6
CONTINUOUS
 10
3.313640
 20
4.851880
  0
VERTEX
  8
0
  6
CONTINUOUS
 10
3.068120
 20
4.882240
  0
VERTEX
  8
0
  6
CONTINUOUS
 10
3.068120
 20
5.612640
  0
VERTEX
  8
0
  6
CONTINUOUS
 10
3.057120
 20
5.710320
  0
VERTEX
  8
0
  6
CONTINUOUS
 10
3.025880
 20
5.792600
  0
VERTEX
  8
0
  6
CONTINUOUS
 10
2.979680
 20
5.860800
  0
VERTEX
  8
0
  6
CONTINUOUS
 10
2.922040
 20
5.914480
  0
VERTEX
  8
0
  6
CONTINUOUS
 10
2.857360
 20
5.955840
  0
VERTEX
  8
0
  6
CONTINUOUS
 10
2.790480
 20
5.984000
  0
VERTEX
  8
0
  6
CONTINUOUS
 10
2.724480
 20
6.000720
  0
VERTEX
  8
0
  6
CONTINUOUS
 10
2.664640
 20
6.006000
  0
VERTEX
  8
0
  6
CONTINUOUS
 10
2.664640
 20
6.317520
  0
VERTEX
  8
0
  6
CONTINUOUS
 10
3.001680
 20
6.407280
  0
VERTEX
  8
0
  6
CONTINUOUS
 10
3.317600
 20
6.473280
  0
VERTEX
  8
0
  6
CONTINUOUS
 10
3.605800
 20
6.520360
  0
VERTEX
  8
0
  6
CONTINUOUS
 10
3.859240
 20
6.550280
  0
VERTEX
  8
0
  6
CONTINUOUS
 10
4.070880
 20
6.567880
  0
VERTEX
  8
0
  6
CONTINUOUS
 10
4.158880
 20
6.573160
  0
VERTEX
  8
0
  6
CONTINUOUS
 10
4.294840
 20
6.578000
  0
VERTEX
  8
0
  6
CONTINUOUS
 10
4.425520
 20
6.578880
  0
VERTEX
  8
0
  6
CONTINUOUS
 10
4.532440
 20
6.576680
  0
VERTEX
  8
0
  6
CONTINUOUS
 10
4.695240
 20
6.568760
  0
VERTEX
  8
0
  6
CONTINUOUS
 10
4.906880
 20
6.551160
  0
VERTEX
  8
0
  6
CONTINUOUS
 10
5.160320
 20
6.520800
  0
VERTEX
  8
0
  6
CONTINUOUS
 10
5.448520
 20
6.474160
  0
VERTEX
  8
0
  6
CONTINUOUS
 10
5.764880
 20
6.407720
  0
VERTEX
  8
0
  6
CONTINUOUS
 10
6.101920
 20
6.317960
  0
VERTEX
  8
0
  6
CONTINUOUS
 10
6.101920
 20
6.006440
  0
VERTEX
  8
0
  6
CONTINUOUS
 10
6.041640
 20
6.001160
  0
VERTEX
  8
0
  6
CONTINUOUS
 10
5.976080
 20
5.984880
  0
VERTEX
  8
0
  6
CONTINUOUS
 10
5.908760
 20
5.956280
  0
VERTEX
  8
0
  6
CONTINUOUS
 10
5.844520
 20
5.915360
  0
VERTEX
  8
0
  6
CONTINUOUS
 10
5.786880
 20
5.861240
  0
VERTEX
  8
0
  6
CONTINUOUS
 10
5.740240
 20
5.793480
  0
VERTEX
  8
0
  6
CONTINUOUS
 10
5.709440
 20
5.710760
  0
VERTEX
  8
0
  6
CONTINUOUS
 10
5.698440
 20
5.613520
  0
VERTEX
  8
0
  6
CONTINUOUS
 10
5.698440
 20
4.883120
  0
VERTEX
  8
0
  6
CONTINUOUS
 10
5.452920
 20
4.852320
  0
VERTEX
  8
0
  6
CONTINUOUS
 10
5.451600
 20
4.304520
  0
VERTEX
  8
0
  6
CONTINUOUS
 10
5.401440
 20
4.259640
  0
VERTEX
  8
0
  6
CONTINUOUS
 10
5.439280
 20
4.198920
  0
VERTEX
  8
0
  6
CONTINUOUS
 10
5.446760
 20
4.121920
  0
VERTEX
  8
0
  6
CONTINUOUS
 10
5.415520
 20
4.050200
  0
VERTEX
  8
0
  6
CONTINUOUS
 10
5.382960
 20
4.023360
  0
VERTEX
  8
0
  6
CONTINUOUS
 10
5.338080
 20
4.005320
  0
VERTEX
  8
0
  6
CONTINUOUS
 10
5.133040
 20
4.005320
  0
VERTEX
  8
0
  6
CONTINUOUS
 10
5.133040
 20
4.318600
  0
VERTEX
  8
0
  6
CONTINUOUS
 10
3.633960
 20
4.318600
  0
VERTEX
  8
0
  6
CONTINUOUS
 10
3.633520
 20
4.313760
  0
SEQEND
  8
0
  0
TEXT
  8
0
 10
4.365240
 20
3.783120
 40
0.138078
  1
BA  1254
 41
1.000000
  7
SN0
 71
     0
 72
     5
 11
5.050327
 21
3.783120
  0
TEXT
  8
0
 10
4.089360
 20
3.591720
 40
0.138078
  1
2-9/16" x 3-7/16"
 41
1.000000
  7
SN0
 71
     0
 72
     5
 11
5.327210
 21
3.591720
  0
TEXT
  8
0
 10
4.365240
 20
8.044080
 40
0.138078
  1
BA  1254
 41
1.000000
  7
SN0
 71
     0
 72
     5
 11
5.050327
 21
8.044080
  0
TEXT
  8
0
 10
4.089360
 20
7.852240
 40
0.138078
  1
2-9/16" x 3-7/16"
 41
1.000000
  7
SN0
 71
     0
 72
     5
 11
5.327210
 21
7.852240
  0
ENDSEC
  0
EOF
