  0
SECTION
  2
HEADER
  9
$ACADVER
  1
AC1006
  9
$EXTMIN
 10
1.811480
 20
3.016640
  9
$EXTMAX
 10
6.552040
 20
7.461080
  9
$LTSCALE
 40
0.044000
  9
$PDMODE
 70
    35
  9
$PDSIZE
 40
0.035200
  0
ENDSEC
  0
SECTION
  2
TABLES
  0
TABLE
  2
LTYPE
 70
     9
  0
LTYPE
  2
CONTINUOUS
 70
    64
  3
Solid line
 72
    65
 73
     0
 40
0.000000
  0
LTYPE
  2
DASHED
 70
    64
  3
__ __ __ __ __ __ __ __ __ __ __ __ __ __ __
 72
    65
 73
     2
 40
0.000330
 49
0.000220
 49
-0.000110
  0
LTYPE
  2
HIDDEN
 70
    64
  3
 _ _ _ _ _ _ _ _ _ _ _ _ _ _ _ _ _ _ _ _ _ _
 72
    65
 73
     2
 40
0.000165
 49
0.000110
 49
-0.000055
  0
LTYPE
  2
CENTER
 70
    64
  3
____ _ ____ _ ____ _ ____ _ ____ _ ____ _ ____
 72
    65
 73
     4
 40
0.000880
 49
0.000550
 49
-0.000110
 49
0.000110
 49
-0.000110
  0
LTYPE
  2
PHANTOM
 70
    64
  3
_____ _ _ _____ _ _ _____ _ _ _____ _ _ ____
 72
    65
 73
     6
 40
0.001100
 49
0.000550
 49
-0.000110
 49
0.000110
 49
-0.000110
 49
0.000110
 49
-0.000110
  0
LTYPE
  2
DOT
 70
    64
  3
...............................................
 72
    65
 73
     2
 40
0.000110
 49
0.000000
 49
-0.000110
  0
LTYPE
  2
DASHDOT
 70
    64
  3
__ . __ . __ . __ . __ . __ . __ . __ . __ . __
 72
    65
 73
     4
 40
0.000440
 49
0.000220
 49
-0.000110
 49
0.000000
 49
-0.000110
  0
LTYPE
  2
BORDER
 70
    64
  3
__ __ . __ __ . __ __ . __ __ . __ __ . __ __
 72
    65
 73
     6
 40
0.000770
 49
0.000220
 49
-0.000110
 49
0.000220
 49
-0.000110
 49
0.000000
 49
-0.000110
  0
LTYPE
  2
DIVIDE
 70
    64
  3
__ . . __ . . __ . . __ . . __ . . __ . . __
 72
    65
 73
     6
 40
0.000550
 49
0.000220
 49
-0.000110
 49
0.000000
 49
-0.000110
 49
0.000000
 49
-0.000110
  0
LTYPE
  2
DOTDOT
 70
    64
  3
 . .  . .  . .  . .  . .  . . 
 72
    65
 73
     5
 40
0.000242
 49
-0.000110
 49
0.000000
 49
-0.000110
 49
0.000000
 49
-0.000110
  0
ENDTAB
  0
TABLE
  2
STYLE
 70
     2
  0
STYLE
 70
     0
  2
SN0
 40
0.000000
 41
0.000440
 50
0.000000
 71
     0
 42
0.000000
  3
ROMAND
  0
STYLE
 70
    68
  2
SV0
 40
0.000000
 41
0.000440
 50
0.000000
 71
     0
 42
0.000000
  3
ROMAND
  0
ENDTAB
  0
TABLE
  2
LAYER
 70
     3
  0
LAYER
  2
FOREGROUND
 70
    64
 62
     7
  6
CONTINUOUS
  0
LAYER
  2
BACKGROUND
 70
    65
 62
    -7
  6
CONTINUOUS
  0
LAYER
  2
0
 70
    64
 62
     7
  6
CONTINUOUS
  0
ENDTAB
  0
ENDSEC
  0
SECTION
  2
ENTITIES
  0
POLYLINE
  8
FOREGROUND
  6
CONTINUOUS
 66
     1
 40
0.000000
 41
0.000000
  0
VERTEX
  8
FOREGROUND
  6
CONTINUOUS
 10
0.000000
 20
10.477720
  0
VERTEX
  8
FOREGROUND
  6
CONTINUOUS
 10
8.499920
 20
10.477720
  0
VERTEX
  8
FOREGROUND
  6
CONTINUOUS
 10
8.499920
 20
-0.522280
  0
VERTEX
  8
FOREGROUND
  6
CONTINUOUS
 10
0.000000
 20
-0.522280
  0
VERTEX
  8
FOREGROUND
  6
CONTINUOUS
 10
0.000000
 20
10.477720
  0
SEQEND
  8
0
  0
POLYLINE
  8
FOREGROUND
  6
CONTINUOUS
 66
     1
 40
0.000000
 41
0.000000
  0
VERTEX
  8
FOREGROUND
  6
CONTINUOUS
 10
0.000000
 20
10.477720
  0
VERTEX
  8
FOREGROUND
  6
CONTINUOUS
 10
8.499920
 20
10.477720
  0
VERTEX
  8
FOREGROUND
  6
CONTINUOUS
 10
8.499920
 20
-0.522280
  0
VERTEX
  8
FOREGROUND
  6
CONTINUOUS
 10
0.000000
 20
-0.522280
  0
VERTEX
  8
FOREGROUND
  6
CONTINUOUS
 10
0.000000
 20
10.477720
  0
SEQEND
  8
0
  0
POLYLINE
  8
0
  6
CONTINUOUS
 66
     1
 40
0.000000
 41
0.000000
  0
VERTEX
  8
0
  6
CONTINUOUS
 10
3.762000
 20
3.316280
  0
VERTEX
  8
0
  6
CONTINUOUS
 10
3.797640
 20
3.316280
  0
VERTEX
  8
0
  6
CONTINUOUS
 10
3.798520
 20
3.335200
  0
VERTEX
  8
0
  6
CONTINUOUS
 10
3.803800
 20
3.369080
  0
VERTEX
  8
0
  6
CONTINUOUS
 10
3.814360
 20
3.398560
  0
VERTEX
  8
0
  6
CONTINUOUS
 10
3.828880
 20
3.422760
  0
VERTEX
  8
0
  6
CONTINUOUS
 10
3.846920
 20
3.442560
  0
VERTEX
  8
0
  6
CONTINUOUS
 10
3.867600
 20
3.457080
  0
VERTEX
  8
0
  6
CONTINUOUS
 10
3.878600
 20
3.462800
  0
VERTEX
  8
0
  6
CONTINUOUS
 10
3.901480
 20
3.469840
  0
VERTEX
  8
0
  6
CONTINUOUS
 10
3.913360
 20
3.472040
  0
VERTEX
  8
0
  6
CONTINUOUS
 10
3.937560
 20
3.472040
  0
VERTEX
  8
0
  6
CONTINUOUS
 10
3.960880
 20
3.467200
  0
VERTEX
  8
0
  6
CONTINUOUS
 10
3.983320
 20
3.457520
  0
VERTEX
  8
0
  6
CONTINUOUS
 10
4.004000
 20
3.443000
  0
VERTEX
  8
0
  6
CONTINUOUS
 10
4.022040
 20
3.423200
  0
VERTEX
  8
0
  6
CONTINUOUS
 10
4.036560
 20
3.399000
  0
VERTEX
  8
0
  6
CONTINUOUS
 10
4.047120
 20
3.369520
  0
VERTEX
  8
0
  6
CONTINUOUS
 10
4.052400
 20
3.335200
  0
VERTEX
  8
0
  6
CONTINUOUS
 10
4.053280
 20
3.316280
  0
VERTEX
  8
0
  6
CONTINUOUS
 10
4.121920
 20
3.316280
  0
VERTEX
  8
0
  6
CONTINUOUS
 10
4.122800
 20
3.335200
  0
VERTEX
  8
0
  6
CONTINUOUS
 10
4.128080
 20
3.369080
  0
VERTEX
  8
0
  6
CONTINUOUS
 10
4.138640
 20
3.398560
  0
VERTEX
  8
0
  6
CONTINUOUS
 10
4.153600
 20
3.422760
  0
VERTEX
  8
0
  6
CONTINUOUS
 10
4.171200
 20
3.442560
  0
VERTEX
  8
0
  6
CONTINUOUS
 10
4.191880
 20
3.457080
  0
VERTEX
  8
0
  6
CONTINUOUS
 10
4.202880
 20
3.462800
  0
VERTEX
  8
0
  6
CONTINUOUS
 10
4.226200
 20
3.469840
  0
VERTEX
  8
0
  6
CONTINUOUS
 10
4.238080
 20
3.472040
  0
VERTEX
  8
0
  6
CONTINUOUS
 10
4.261840
 20
3.472040
  0
VERTEX
  8
0
  6
CONTINUOUS
 10
4.285600
 20
3.466760
  0
VERTEX
  8
0
  6
CONTINUOUS
 10
4.297040
 20
3.462800
  0
VERTEX
  8
0
  6
CONTINUOUS
 10
4.318600
 20
3.450480
  0
VERTEX
  8
0
  6
CONTINUOUS
 10
4.337960
 20
3.433320
  0
VERTEX
  8
0
  6
CONTINUOUS
 10
4.354240
 20
3.411320
  0
VERTEX
  8
0
  6
CONTINUOUS
 10
4.361280
 20
3.398560
  0
VERTEX
  8
0
  6
CONTINUOUS
 10
4.371840
 20
3.369080
  0
VERTEX
  8
0
  6
CONTINUOUS
 10
4.377120
 20
3.335200
  0
VERTEX
  8
0
  6
CONTINUOUS
 10
4.378000
 20
3.316280
  0
VERTEX
  8
0
  6
CONTINUOUS
 10
4.446640
 20
3.316280
  0
VERTEX
  8
0
  6
CONTINUOUS
 10
4.447520
 20
3.335200
  0
VERTEX
  8
0
  6
CONTINUOUS
 10
4.452800
 20
3.369520
  0
VERTEX
  8
0
  6
CONTINUOUS
 10
4.463360
 20
3.399000
  0
VERTEX
  8
0
  6
CONTINUOUS
 10
4.477880
 20
3.423200
  0
VERTEX
  8
0
  6
CONTINUOUS
 10
4.495920
 20
3.443000
  0
VERTEX
  8
0
  6
CONTINUOUS
 10
4.516600
 20
3.457520
  0
VERTEX
  8
0
  6
CONTINUOUS
 10
4.539040
 20
3.467200
  0
VERTEX
  8
0
  6
CONTINUOUS
 10
4.562360
 20
3.472040
  0
VERTEX
  8
0
  6
CONTINUOUS
 10
4.586560
 20
3.472040
  0
VERTEX
  8
0
  6
CONTINUOUS
 10
4.609880
 20
3.466760
  0
VERTEX
  8
0
  6
CONTINUOUS
 10
4.621320
 20
3.462800
  0
VERTEX
  8
0
  6
CONTINUOUS
 10
4.642880
 20
3.450480
  0
VERTEX
  8
0
  6
CONTINUOUS
 10
4.662240
 20
3.433320
  0
VERTEX
  8
0
  6
CONTINUOUS
 10
4.678520
 20
3.411320
  0
VERTEX
  8
0
  6
CONTINUOUS
 10
4.685560
 20
3.398560
  0
VERTEX
  8
0
  6
CONTINUOUS
 10
4.696120
 20
3.369080
  0
VERTEX
  8
0
  6
CONTINUOUS
 10
4.701400
 20
3.335200
  0
VERTEX
  8
0
  6
CONTINUOUS
 10
4.702280
 20
3.316280
  0
VERTEX
  8
0
  6
CONTINUOUS
 10
4.737920
 20
3.316280
  0
VERTEX
  8
0
  6
CONTINUOUS
 10
4.764320
 20
3.414400
  0
VERTEX
  8
0
  6
CONTINUOUS
 10
5.221040
 20
3.414400
  0
VERTEX
  8
0
  6
CONTINUOUS
 10
5.235120
 20
3.480840
  0
VERTEX
  8
0
  6
CONTINUOUS
 10
5.280880
 20
3.482160
  0
VERTEX
  8
0
  6
CONTINUOUS
 10
5.319160
 20
3.485240
  0
VERTEX
  8
0
  6
CONTINUOUS
 10
5.360960
 20
3.493160
  0
VERTEX
  8
0
  6
CONTINUOUS
 10
5.392640
 20
3.504160
  0
VERTEX
  8
0
  6
CONTINUOUS
 10
5.416840
 20
3.518680
  0
VERTEX
  8
0
  6
CONTINUOUS
 10
5.435320
 20
3.536280
  0
VERTEX
  8
0
  6
CONTINUOUS
 10
5.456000
 20
3.567080
  0
VERTEX
  8
0
  6
CONTINUOUS
 10
5.467880
 20
3.590840
  0
VERTEX
  8
0
  6
CONTINUOUS
 10
5.551480
 20
3.590400
  0
VERTEX
  8
0
  6
CONTINUOUS
 10
5.566880
 20
3.593920
  0
VERTEX
  8
0
  6
CONTINUOUS
 10
5.581400
 20
3.602280
  0
VERTEX
  8
0
  6
CONTINUOUS
 10
5.593280
 20
3.615920
  0
VERTEX
  8
0
  6
CONTINUOUS
 10
5.601200
 20
3.637480
  0
VERTEX
  8
0
  6
CONTINUOUS
 10
5.607360
 20
3.665640
  0
VERTEX
  8
0
  6
CONTINUOUS
 10
5.614400
 20
3.678840
  0
VERTEX
  8
0
  6
CONTINUOUS
 10
5.623640
 20
3.691160
  0
VERTEX
  8
0
  6
CONTINUOUS
 10
5.642120
 20
3.705680
  0
VERTEX
  8
0
  6
CONTINUOUS
 10
5.664560
 20
3.715800
  0
VERTEX
  8
0
  6
CONTINUOUS
 10
5.689640
 20
3.720640
  0
VERTEX
  8
0
  6
CONTINUOUS
 10
5.707240
 20
3.720200
  0
VERTEX
  8
0
  6
CONTINUOUS
 10
5.724400
 20
3.716680
  0
VERTEX
  8
0
  6
CONTINUOUS
 10
5.741560
 20
3.710080
  0
VERTEX
  8
0
  6
CONTINUOUS
 10
5.766200
 20
3.692920
  0
VERTEX
  8
0
  6
CONTINUOUS
 10
5.780720
 20
3.676640
  0
VERTEX
  8
0
  6
CONTINUOUS
 10
5.793480
 20
3.655960
  0
VERTEX
  8
0
  6
CONTINUOUS
 10
5.804040
 20
3.630880
  0
VERTEX
  8
0
  6
CONTINUOUS
 10
5.812400
 20
3.600960
  0
VERTEX
  8
0
  6
CONTINUOUS
 10
5.838360
 20
3.600960
  0
VERTEX
  8
0
  6
CONTINUOUS
 10
5.860360
 20
3.771240
  0
VERTEX
  8
0
  6
CONTINUOUS
 10
6.552040
 20
3.771240
  0
VERTEX
  8
0
  6
CONTINUOUS
 10
6.552040
 20
3.017080
  0
VERTEX
  8
0
  6
CONTINUOUS
 10
1.947880
 20
3.017080
  0
VERTEX
  8
0
  6
CONTINUOUS
 10
1.947880
 20
3.771240
  0
VERTEX
  8
0
  6
CONTINUOUS
 10
2.639560
 20
3.771240
  0
VERTEX
  8
0
  6
CONTINUOUS
 10
2.661560
 20
3.600960
  0
VERTEX
  8
0
  6
CONTINUOUS
 10
2.687520
 20
3.600960
  0
VERTEX
  8
0
  6
CONTINUOUS
 10
2.700720
 20
3.644080
  0
VERTEX
  8
0
  6
CONTINUOUS
 10
2.712600
 20
3.666960
  0
VERTEX
  8
0
  6
CONTINUOUS
 10
2.726240
 20
3.685000
  0
VERTEX
  8
0
  6
CONTINUOUS
 10
2.741640
 20
3.699520
  0
VERTEX
  8
0
  6
CONTINUOUS
 10
2.758360
 20
3.710080
  0
VERTEX
  8
0
  6
CONTINUOUS
 10
2.783880
 20
3.718880
  0
VERTEX
  8
0
  6
CONTINUOUS
 10
2.801480
 20
3.720640
  0
VERTEX
  8
0
  6
CONTINUOUS
 10
2.818640
 20
3.719760
  0
VERTEX
  8
0
  6
CONTINUOUS
 10
2.842840
 20
3.713160
  0
VERTEX
  8
0
  6
CONTINUOUS
 10
2.864400
 20
3.701280
  0
VERTEX
  8
0
  6
CONTINUOUS
 10
2.876280
 20
3.691160
  0
VERTEX
  8
0
  6
CONTINUOUS
 10
2.889480
 20
3.672680
  0
VERTEX
  8
0
  6
CONTINUOUS
 10
2.894760
 20
3.658600
  0
VERTEX
  8
0
  6
CONTINUOUS
 10
2.898720
 20
3.637480
  0
VERTEX
  8
0
  6
CONTINUOUS
 10
2.902240
 20
3.625600
  0
VERTEX
  8
0
  6
CONTINUOUS
 10
2.912360
 20
3.608440
  0
VERTEX
  8
0
  6
CONTINUOUS
 10
2.925560
 20
3.597440
  0
VERTEX
  8
0
  6
CONTINUOUS
 10
2.940960
 20
3.591720
  0
VERTEX
  8
0
  6
CONTINUOUS
 10
2.956800
 20
3.589960
  0
VERTEX
  8
0
  6
CONTINUOUS
 10
3.032480
 20
3.590840
  0
VERTEX
  8
0
  6
CONTINUOUS
 10
3.050520
 20
3.556080
  0
VERTEX
  8
0
  6
CONTINUOUS
 10
3.073400
 20
3.527040
  0
VERTEX
  8
0
  6
CONTINUOUS
 10
3.094520
 20
3.511200
  0
VERTEX
  8
0
  6
CONTINUOUS
 10
3.107280
 20
3.504160
  0
VERTEX
  8
0
  6
CONTINUOUS
 10
3.139400
 20
3.493160
  0
VERTEX
  8
0
  6
CONTINUOUS
 10
3.180760
 20
3.485240
  0
VERTEX
  8
0
  6
CONTINUOUS
 10
3.248520
 20
3.480840
  0
VERTEX
  8
0
  6
CONTINUOUS
 10
3.264800
 20
3.480840
  0
VERTEX
  8
0
  6
CONTINUOUS
 10
3.278880
 20
3.414400
  0
VERTEX
  8
0
  6
CONTINUOUS
 10
3.735600
 20
3.414400
  0
VERTEX
  8
0
  6
CONTINUOUS
 10
3.762000
 20
3.316280
  0
SEQEND
  8
0
  0
POLYLINE
  8
0
  6
CONTINUOUS
 66
     1
 40
0.014080
 41
0.014080
  0
VERTEX
  8
0
  6
CONTINUOUS
 10
3.666520
 20
6.998640
  0
VERTEX
  8
0
  6
CONTINUOUS
 10
3.702160
 20
6.998640
  0
VERTEX
  8
0
  6
CONTINUOUS
 10
3.703040
 20
7.017560
  0
VERTEX
  8
0
  6
CONTINUOUS
 10
3.708320
 20
7.051440
  0
VERTEX
  8
0
  6
CONTINUOUS
 10
3.718880
 20
7.080920
  0
VERTEX
  8
0
  6
CONTINUOUS
 10
3.733400
 20
7.105120
  0
VERTEX
  8
0
  6
CONTINUOUS
 10
3.751440
 20
7.124920
  0
VERTEX
  8
0
  6
CONTINUOUS
 10
3.772120
 20
7.139440
  0
VERTEX
  8
0
  6
CONTINUOUS
 10
3.783120
 20
7.145160
  0
VERTEX
  8
0
  6
CONTINUOUS
 10
3.806000
 20
7.152200
  0
VERTEX
  8
0
  6
CONTINUOUS
 10
3.817880
 20
7.154400
  0
VERTEX
  8
0
  6
CONTINUOUS
 10
3.842080
 20
7.154400
  0
VERTEX
  8
0
  6
CONTINUOUS
 10
3.865400
 20
7.149560
  0
VERTEX
  8
0
  6
CONTINUOUS
 10
3.887840
 20
7.139880
  0
VERTEX
  8
0
  6
CONTINUOUS
 10
3.908520
 20
7.125360
  0
VERTEX
  8
0
  6
CONTINUOUS
 10
3.926560
 20
7.105560
  0
VERTEX
  8
0
  6
CONTINUOUS
 10
3.941080
 20
7.081360
  0
VERTEX
  8
0
  6
CONTINUOUS
 10
3.951640
 20
7.051880
  0
VERTEX
  8
0
  6
CONTINUOUS
 10
3.956920
 20
7.017560
  0
VERTEX
  8
0
  6
CONTINUOUS
 10
3.957800
 20
6.998640
  0
VERTEX
  8
0
  6
CONTINUOUS
 10
4.026880
 20
6.998640
  0
VERTEX
  8
0
  6
CONTINUOUS
 10
4.027760
 20
7.017560
  0
VERTEX
  8
0
  6
CONTINUOUS
 10
4.033040
 20
7.051440
  0
VERTEX
  8
0
  6
CONTINUOUS
 10
4.043600
 20
7.080920
  0
VERTEX
  8
0
  6
CONTINUOUS
 10
4.058120
 20
7.105120
  0
VERTEX
  8
0
  6
CONTINUOUS
 10
4.076160
 20
7.124920
  0
VERTEX
  8
0
  6
CONTINUOUS
 10
4.096400
 20
7.139440
  0
VERTEX
  8
0
  6
CONTINUOUS
 10
4.118840
 20
7.149120
  0
VERTEX
  8
0
  6
CONTINUOUS
 10
4.142600
 20
7.154400
  0
VERTEX
  8
0
  6
CONTINUOUS
 10
4.166800
 20
7.154400
  0
VERTEX
  8
0
  6
CONTINUOUS
 10
4.190560
 20
7.149120
  0
VERTEX
  8
0
  6
CONTINUOUS
 10
4.213000
 20
7.139440
  0
VERTEX
  8
0
  6
CONTINUOUS
 10
4.233240
 20
7.124920
  0
VERTEX
  8
0
  6
CONTINUOUS
 10
4.251280
 20
7.105120
  0
VERTEX
  8
0
  6
CONTINUOUS
 10
4.265800
 20
7.080920
  0
VERTEX
  8
0
  6
CONTINUOUS
 10
4.276360
 20
7.051440
  0
VERTEX
  8
0
  6
CONTINUOUS
 10
4.281640
 20
7.017560
  0
VERTEX
  8
0
  6
CONTINUOUS
 10
4.282520
 20
6.998640
  0
VERTEX
  8
0
  6
CONTINUOUS
 10
4.351600
 20
6.998640
  0
VERTEX
  8
0
  6
CONTINUOUS
 10
4.352480
 20
7.017560
  0
VERTEX
  8
0
  6
CONTINUOUS
 10
4.357760
 20
7.051880
  0
VERTEX
  8
0
  6
CONTINUOUS
 10
4.368320
 20
7.081360
  0
VERTEX
  8
0
  6
CONTINUOUS
 10
4.382840
 20
7.105560
  0
VERTEX
  8
0
  6
CONTINUOUS
 10
4.400880
 20
7.125360
  0
VERTEX
  8
0
  6
CONTINUOUS
 10
4.421120
 20
7.139880
  0
VERTEX
  8
0
  6
CONTINUOUS
 10
4.443560
 20
7.149560
  0
VERTEX
  8
0
  6
CONTINUOUS
 10
4.467320
 20
7.154400
  0
VERTEX
  8
0
  6
CONTINUOUS
 10
4.491080
 20
7.154400
  0
VERTEX
  8
0
  6
CONTINUOUS
 10
4.514840
 20
7.149120
  0
VERTEX
  8
0
  6
CONTINUOUS
 10
4.537280
 20
7.139440
  0
VERTEX
  8
0
  6
CONTINUOUS
 10
4.557520
 20
7.124920
  0
VERTEX
  8
0
  6
CONTINUOUS
 10
4.575560
 20
7.105120
  0
VERTEX
  8
0
  6
CONTINUOUS
 10
4.590080
 20
7.080920
  0
VERTEX
  8
0
  6
CONTINUOUS
 10
4.600640
 20
7.051440
  0
VERTEX
  8
0
  6
CONTINUOUS
 10
4.605920
 20
7.017560
  0
VERTEX
  8
0
  6
CONTINUOUS
 10
4.606800
 20
6.998640
  0
VERTEX
  8
0
  6
CONTINUOUS
 10
4.642440
 20
6.998640
  0
VERTEX
  8
0
  6
CONTINUOUS
 10
4.668840
 20
7.096760
  0
VERTEX
  8
0
  6
CONTINUOUS
 10
5.126000
 20
7.096760
  0
VERTEX
  8
0
  6
CONTINUOUS
 10
5.139640
 20
7.163200
  0
VERTEX
  8
0
  6
CONTINUOUS
 10
5.185400
 20
7.164520
  0
VERTEX
  8
0
  6
CONTINUOUS
 10
5.223680
 20
7.167600
  0
VERTEX
  8
0
  6
CONTINUOUS
 10
5.265480
 20
7.175520
  0
VERTEX
  8
0
  6
CONTINUOUS
 10
5.297160
 20
7.186520
  0
VERTEX
  8
0
  6
CONTINUOUS
 10
5.321360
 20
7.201040
  0
VERTEX
  8
0
  6
CONTINUOUS
 10
5.339840
 20
7.218640
  0
VERTEX
  8
0
  6
CONTINUOUS
 10
5.360520
 20
7.249440
  0
VERTEX
  8
0
  6
CONTINUOUS
 10
5.372400
 20
7.273200
  0
VERTEX
  8
0
  6
CONTINUOUS
 10
5.456000
 20
7.272760
  0
VERTEX
  8
0
  6
CONTINUOUS
 10
5.471840
 20
7.276280
  0
VERTEX
  8
0
  6
CONTINUOUS
 10
5.486360
 20
7.284640
  0
VERTEX
  8
0
  6
CONTINUOUS
 10
5.497800
 20
7.298280
  0
VERTEX
  8
0
  6
CONTINUOUS
 10
5.502640
 20
7.307960
  0
VERTEX
  8
0
  6
CONTINUOUS
 10
5.512320
 20
7.348000
  0
VERTEX
  8
0
  6
CONTINUOUS
 10
5.523320
 20
7.367360
  0
VERTEX
  8
0
  6
CONTINUOUS
 10
5.540480
 20
7.383640
  0
VERTEX
  8
0
  6
CONTINUOUS
 10
5.561600
 20
7.395520
  0
VERTEX
  8
0
  6
CONTINUOUS
 10
5.585800
 20
7.402120
  0
VERTEX
  8
0
  6
CONTINUOUS
 10
5.602960
 20
7.403000
  0
VERTEX
  8
0
  6
CONTINUOUS
 10
5.620560
 20
7.401240
  0
VERTEX
  8
0
  6
CONTINUOUS
 10
5.646080
 20
7.392440
  0
VERTEX
  8
0
  6
CONTINUOUS
 10
5.670720
 20
7.375280
  0
VERTEX
  8
0
  6
CONTINUOUS
 10
5.685240
 20
7.359000
  0
VERTEX
  8
0
  6
CONTINUOUS
 10
5.698000
 20
7.338320
  0
VERTEX
  8
0
  6
CONTINUOUS
 10
5.708560
 20
7.313240
  0
VERTEX
  8
0
  6
CONTINUOUS
 10
5.716920
 20
7.283320
  0
VERTEX
  8
0
  6
CONTINUOUS
 10
5.742880
 20
7.283320
  0
VERTEX
  8
0
  6
CONTINUOUS
 10
5.765320
 20
7.453600
  0
VERTEX
  8
0
  6
CONTINUOUS
 10
6.456560
 20
7.453600
  0
VERTEX
  8
0
  6
CONTINUOUS
 10
6.456560
 20
6.699440
  0
VERTEX
  8
0
  6
CONTINUOUS
 10
1.852840
 20
6.699440
  0
VERTEX
  8
0
  6
CONTINUOUS
 10
1.852840
 20
7.453600
  0
VERTEX
  8
0
  6
CONTINUOUS
 10
2.544080
 20
7.453600
  0
VERTEX
  8
0
  6
CONTINUOUS
 10
2.566080
 20
7.283320
  0
VERTEX
  8
0
  6
CONTINUOUS
 10
2.592040
 20
7.283320
  0
VERTEX
  8
0
  6
CONTINUOUS
 10
2.605240
 20
7.326440
  0
VERTEX
  8
0
  6
CONTINUOUS
 10
2.617120
 20
7.349320
  0
VERTEX
  8
0
  6
CONTINUOUS
 10
2.630760
 20
7.367360
  0
VERTEX
  8
0
  6
CONTINUOUS
 10
2.646160
 20
7.381880
  0
VERTEX
  8
0
  6
CONTINUOUS
 10
2.662880
 20
7.392440
  0
VERTEX
  8
0
  6
CONTINUOUS
 10
2.688400
 20
7.401240
  0
VERTEX
  8
0
  6
CONTINUOUS
 10
2.706000
 20
7.403000
  0
VERTEX
  8
0
  6
CONTINUOUS
 10
2.723160
 20
7.402120
  0
VERTEX
  8
0
  6
CONTINUOUS
 10
2.747360
 20
7.395520
  0
VERTEX
  8
0
  6
CONTINUOUS
 10
2.768920
 20
7.383640
  0
VERTEX
  8
0
  6
CONTINUOUS
 10
2.780800
 20
7.373520
  0
VERTEX
  8
0
  6
CONTINUOUS
 10
2.794000
 20
7.355040
  0
VERTEX
  8
0
  6
CONTINUOUS
 10
2.799280
 20
7.340960
  0
VERTEX
  8
0
  6
CONTINUOUS
 10
2.803240
 20
7.319840
  0
VERTEX
  8
0
  6
CONTINUOUS
 10
2.806760
 20
7.307960
  0
VERTEX
  8
0
  6
CONTINUOUS
 10
2.816880
 20
7.290800
  0
VERTEX
  8
0
  6
CONTINUOUS
 10
2.830080
 20
7.279800
  0
VERTEX
  8
0
  6
CONTINUOUS
 10
2.845480
 20
7.274080
  0
VERTEX
  8
0
  6
CONTINUOUS
 10
2.861320
 20
7.272320
  0
VERTEX
  8
0
  6
CONTINUOUS
 10
2.937000
 20
7.273200
  0
VERTEX
  8
0
  6
CONTINUOUS
 10
2.955040
 20
7.238440
  0
VERTEX
  8
0
  6
CONTINUOUS
 10
2.977920
 20
7.209400
  0
VERTEX
  8
0
  6
CONTINUOUS
 10
2.999040
 20
7.193560
  0
VERTEX
  8
0
  6
CONTINUOUS
 10
3.011800
 20
7.186520
  0
VERTEX
  8
0
  6
CONTINUOUS
 10
3.043920
 20
7.175520
  0
VERTEX
  8
0
  6
CONTINUOUS
 10
3.085280
 20
7.167600
  0
VERTEX
  8
0
  6
CONTINUOUS
 10
3.153040
 20
7.163200
  0
VERTEX
  8
0
  6
CONTINUOUS
 10
3.169320
 20
7.163200
  0
VERTEX
  8
0
  6
CONTINUOUS
 10
3.183400
 20
7.096760
  0
VERTEX
  8
0
  6
CONTINUOUS
 10
3.640560
 20
7.096760
  0
VERTEX
  8
0
  6
CONTINUOUS
 10
3.666520
 20
6.998640
  0
SEQEND
  8
0
  0
TEXT
  8
0
 10
5.492520
 20
6.977520
 40
0.138192
  1
BA 1252
 41
1.000000
  7
SN0
 71
     0
 72
     5
 11
6.128940
 21
6.977520
  0
TEXT
  8
0
 10
5.359640
 20
6.785680
 40
0.138192
  1
3/4" x 4-5/8"
 41
1.000000
  7
SN0
 71
     0
 72
     5
 11
6.260583
 21
6.785680
  0
SOLID
  8
0
 62
    15
 10
5.244360
 20
4.964080
 11
5.242160
 21
5.712080
 12
5.272080
 22
4.977280
 13
5.269880
 23
5.724840
  0
POLYLINE
  8
0
  6
CONTINUOUS
 66
     1
 40
0.000000
 41
0.000000
  0
VERTEX
  8
0
  6
CONTINUOUS
 10
5.244360
 20
4.964080
  0
VERTEX
  8
0
  6
CONTINUOUS
 10
5.242160
 20
5.712080
  0
VERTEX
  8
0
  6
CONTINUOUS
 10
5.269880
 20
5.724840
  0
VERTEX
  8
0
  6
CONTINUOUS
 10
5.272080
 20
4.977280
  0
VERTEX
  8
0
  6
CONTINUOUS
 10
5.244360
 20
4.964080
  0
SEQEND
  8
0
  0
SOLID
  8
0
 62
    15
 10
3.628680
 20
4.782360
 11
3.626480
 21
5.530360
 12
3.664320
 22
4.782360
 13
3.661680
 23
5.530360
  0
POLYLINE
  8
0
  6
CONTINUOUS
 66
     1
 40
0.000000
 41
0.000000
  0
VERTEX
  8
0
  6
CONTINUOUS
 10
3.628680
 20
4.782360
  0
VERTEX
  8
0
  6
CONTINUOUS
 10
3.626480
 20
5.530360
  0
VERTEX
  8
0
  6
CONTINUOUS
 10
3.661680
 20
5.530360
  0
VERTEX
  8
0
  6
CONTINUOUS
 10
3.664320
 20
4.782360
  0
VERTEX
  8
0
  6
CONTINUOUS
 10
3.628680
 20
4.782360
  0
SEQEND
  8
0
  0
SOLID
  8
0
 62
    15
 10
3.664320
 20
4.782360
 11
3.661680
 21
5.530360
 12
3.666960
 22
4.818880
 13
3.664760
 23
5.566880
  0
POLYLINE
  8
0
  6
CONTINUOUS
 66
     1
 40
0.000000
 41
0.000000
  0
VERTEX
  8
0
  6
CONTINUOUS
 10
3.664320
 20
4.782360
  0
VERTEX
  8
0
  6
CONTINUOUS
 10
3.661680
 20
5.530360
  0
VERTEX
  8
0
  6
CONTINUOUS
 10
3.664760
 20
5.566880
  0
VERTEX
  8
0
  6
CONTINUOUS
 10
3.666960
 20
4.818880
  0
VERTEX
  8
0
  6
CONTINUOUS
 10
3.664320
 20
4.782360
  0
SEQEND
  8
0
  0
SOLID
  8
0
 62
    15
 10
3.675320
 20
4.850560
 11
3.672680
 21
5.598560
 12
3.687640
 22
4.877400
 13
3.685440
 23
5.625400
  0
POLYLINE
  8
0
  6
CONTINUOUS
 66
     1
 40
0.000000
 41
0.000000
  0
VERTEX
  8
0
  6
CONTINUOUS
 10
3.675320
 20
4.850560
  0
VERTEX
  8
0
  6
CONTINUOUS
 10
3.672680
 20
5.598560
  0
VERTEX
  8
0
  6
CONTINUOUS
 10
3.685440
 20
5.625400
  0
VERTEX
  8
0
  6
CONTINUOUS
 10
3.687640
 20
4.877400
  0
VERTEX
  8
0
  6
CONTINUOUS
 10
3.675320
 20
4.850560
  0
SEQEND
  8
0
  0
SOLID
  8
0
 62
    15
 10
3.687640
 20
4.877400
 11
3.685440
 21
5.625400
 12
3.703920
 22
4.899400
 13
3.701720
 23
5.647400
  0
POLYLINE
  8
0
  6
CONTINUOUS
 66
     1
 40
0.000000
 41
0.000000
  0
VERTEX
  8
0
  6
CONTINUOUS
 10
3.687640
 20
4.877400
  0
VERTEX
  8
0
  6
CONTINUOUS
 10
3.685440
 20
5.625400
  0
VERTEX
  8
0
  6
CONTINUOUS
 10
3.701720
 20
5.647400
  0
VERTEX
  8
0
  6
CONTINUOUS
 10
3.703920
 20
4.899400
  0
VERTEX
  8
0
  6
CONTINUOUS
 10
3.687640
 20
4.877400
  0
SEQEND
  8
0
  0
SOLID
  8
0
 62
    15
 10
3.703920
 20
4.899400
 11
3.701720
 21
5.647400
 12
3.723280
 22
4.916560
 13
3.721080
 23
5.664560
  0
POLYLINE
  8
0
  6
CONTINUOUS
 66
     1
 40
0.000000
 41
0.000000
  0
VERTEX
  8
0
  6
CONTINUOUS
 10
3.703920
 20
4.899400
  0
VERTEX
  8
0
  6
CONTINUOUS
 10
3.701720
 20
5.647400
  0
VERTEX
  8
0
  6
CONTINUOUS
 10
3.721080
 20
5.664560
  0
VERTEX
  8
0
  6
CONTINUOUS
 10
3.723280
 20
4.916560
  0
VERTEX
  8
0
  6
CONTINUOUS
 10
3.703920
 20
4.899400
  0
SEQEND
  8
0
  0
SOLID
  8
0
 62
    15
 10
3.723280
 20
4.916560
 11
3.721080
 21
5.664560
 12
3.745280
 22
4.928880
 13
3.742640
 23
5.676440
  0
POLYLINE
  8
0
  6
CONTINUOUS
 66
     1
 40
0.000000
 41
0.000000
  0
VERTEX
  8
0
  6
CONTINUOUS
 10
3.723280
 20
4.916560
  0
VERTEX
  8
0
  6
CONTINUOUS
 10
3.721080
 20
5.664560
  0
VERTEX
  8
0
  6
CONTINUOUS
 10
3.742640
 20
5.676440
  0
VERTEX
  8
0
  6
CONTINUOUS
 10
3.745280
 20
4.928880
  0
VERTEX
  8
0
  6
CONTINUOUS
 10
3.723280
 20
4.916560
  0
SEQEND
  8
0
  0
SOLID
  8
0
 62
    15
 10
3.745280
 20
4.928880
 11
3.742640
 21
5.676440
 12
3.768160
 22
4.935920
 13
3.765960
 23
5.683920
  0
POLYLINE
  8
0
  6
CONTINUOUS
 66
     1
 40
0.000000
 41
0.000000
  0
VERTEX
  8
0
  6
CONTINUOUS
 10
3.745280
 20
4.928880
  0
VERTEX
  8
0
  6
CONTINUOUS
 10
3.742640
 20
5.676440
  0
VERTEX
  8
0
  6
CONTINUOUS
 10
3.765960
 20
5.683920
  0
VERTEX
  8
0
  6
CONTINUOUS
 10
3.768160
 20
4.935920
  0
VERTEX
  8
0
  6
CONTINUOUS
 10
3.745280
 20
4.928880
  0
SEQEND
  8
0
  0
SOLID
  8
0
 62
    15
 10
3.768160
 20
4.935920
 11
3.765960
 21
5.683920
 12
3.791920
 22
4.938560
 13
3.789720
 23
5.686560
  0
POLYLINE
  8
0
  6
CONTINUOUS
 66
     1
 40
0.000000
 41
0.000000
  0
VERTEX
  8
0
  6
CONTINUOUS
 10
3.768160
 20
4.935920
  0
VERTEX
  8
0
  6
CONTINUOUS
 10
3.765960
 20
5.683920
  0
VERTEX
  8
0
  6
CONTINUOUS
 10
3.789720
 20
5.686560
  0
VERTEX
  8
0
  6
CONTINUOUS
 10
3.791920
 20
4.938560
  0
VERTEX
  8
0
  6
CONTINUOUS
 10
3.768160
 20
4.935920
  0
SEQEND
  8
0
  0
SOLID
  8
0
 62
    15
 10
3.791920
 20
4.938560
 11
3.789720
 21
5.686560
 12
3.815680
 22
4.936360
 13
3.813480
 23
5.683920
  0
POLYLINE
  8
0
  6
CONTINUOUS
 66
     1
 40
0.000000
 41
0.000000
  0
VERTEX
  8
0
  6
CONTINUOUS
 10
3.791920
 20
4.938560
  0
VERTEX
  8
0
  6
CONTINUOUS
 10
3.789720
 20
5.686560
  0
VERTEX
  8
0
  6
CONTINUOUS
 10
3.813480
 20
5.683920
  0
VERTEX
  8
0
  6
CONTINUOUS
 10
3.815680
 20
4.936360
  0
VERTEX
  8
0
  6
CONTINUOUS
 10
3.791920
 20
4.938560
  0
SEQEND
  8
0
  0
SOLID
  8
0
 62
    15
 10
3.815680
 20
4.936360
 11
3.813480
 21
5.683920
 12
3.839000
 22
4.928880
 13
3.836360
 23
5.676880
  0
POLYLINE
  8
0
  6
CONTINUOUS
 66
     1
 40
0.000000
 41
0.000000
  0
VERTEX
  8
0
  6
CONTINUOUS
 10
3.815680
 20
4.936360
  0
VERTEX
  8
0
  6
CONTINUOUS
 10
3.813480
 20
5.683920
  0
VERTEX
  8
0
  6
CONTINUOUS
 10
3.836360
 20
5.676880
  0
VERTEX
  8
0
  6
CONTINUOUS
 10
3.839000
 20
4.928880
  0
VERTEX
  8
0
  6
CONTINUOUS
 10
3.815680
 20
4.936360
  0
SEQEND
  8
0
  0
SOLID
  8
0
 62
    15
 10
3.839000
 20
4.928880
 11
3.836360
 21
5.676880
 12
3.860560
 22
4.916560
 13
3.858360
 23
5.664560
  0
POLYLINE
  8
0
  6
CONTINUOUS
 66
     1
 40
0.000000
 41
0.000000
  0
VERTEX
  8
0
  6
CONTINUOUS
 10
3.839000
 20
4.928880
  0
VERTEX
  8
0
  6
CONTINUOUS
 10
3.836360
 20
5.676880
  0
VERTEX
  8
0
  6
CONTINUOUS
 10
3.858360
 20
5.664560
  0
VERTEX
  8
0
  6
CONTINUOUS
 10
3.860560
 20
4.916560
  0
VERTEX
  8
0
  6
CONTINUOUS
 10
3.839000
 20
4.928880
  0
SEQEND
  8
0
  0
SOLID
  8
0
 62
    15
 10
3.860560
 20
4.916560
 11
3.858360
 21
5.664560
 12
3.879920
 22
4.899840
 13
3.877280
 23
5.647840
  0
POLYLINE
  8
0
  6
CONTINUOUS
 66
     1
 40
0.000000
 41
0.000000
  0
VERTEX
  8
0
  6
CONTINUOUS
 10
3.860560
 20
4.916560
  0
VERTEX
  8
0
  6
CONTINUOUS
 10
3.858360
 20
5.664560
  0
VERTEX
  8
0
  6
CONTINUOUS
 10
3.877280
 20
5.647840
  0
VERTEX
  8
0
  6
CONTINUOUS
 10
3.879920
 20
4.899840
  0
VERTEX
  8
0
  6
CONTINUOUS
 10
3.860560
 20
4.916560
  0
SEQEND
  8
0
  0
SOLID
  8
0
 62
    15
 10
3.879920
 20
4.899840
 11
3.877280
 21
5.647840
 12
3.896200
 22
4.877840
 13
3.894000
 23
5.625840
  0
POLYLINE
  8
0
  6
CONTINUOUS
 66
     1
 40
0.000000
 41
0.000000
  0
VERTEX
  8
0
  6
CONTINUOUS
 10
3.879920
 20
4.899840
  0
VERTEX
  8
0
  6
CONTINUOUS
 10
3.877280
 20
5.647840
  0
VERTEX
  8
0
  6
CONTINUOUS
 10
3.894000
 20
5.625840
  0
VERTEX
  8
0
  6
CONTINUOUS
 10
3.896200
 20
4.877840
  0
VERTEX
  8
0
  6
CONTINUOUS
 10
3.879920
 20
4.899840
  0
SEQEND
  8
0
  0
SOLID
  8
0
 62
    15
 10
3.896200
 20
4.877840
 11
3.894000
 21
5.625840
 12
3.908960
 22
4.851000
 13
3.906320
 23
5.599000
  0
POLYLINE
  8
0
  6
CONTINUOUS
 66
     1
 40
0.000000
 41
0.000000
  0
VERTEX
  8
0
  6
CONTINUOUS
 10
3.896200
 20
4.877840
  0
VERTEX
  8
0
  6
CONTINUOUS
 10
3.894000
 20
5.625840
  0
VERTEX
  8
0
  6
CONTINUOUS
 10
3.906320
 20
5.599000
  0
VERTEX
  8
0
  6
CONTINUOUS
 10
3.908960
 20
4.851000
  0
VERTEX
  8
0
  6
CONTINUOUS
 10
3.896200
 20
4.877840
  0
SEQEND
  8
0
  0
SOLID
  8
0
 62
    15
 10
3.908960
 20
4.851000
 11
3.906320
 21
5.599000
 12
3.916880
 22
4.818880
 13
3.914680
 23
5.566880
  0
POLYLINE
  8
0
  6
CONTINUOUS
 66
     1
 40
0.000000
 41
0.000000
  0
VERTEX
  8
0
  6
CONTINUOUS
 10
3.908960
 20
4.851000
  0
VERTEX
  8
0
  6
CONTINUOUS
 10
3.906320
 20
5.599000
  0
VERTEX
  8
0
  6
CONTINUOUS
 10
3.914680
 20
5.566880
  0
VERTEX
  8
0
  6
CONTINUOUS
 10
3.916880
 20
4.818880
  0
VERTEX
  8
0
  6
CONTINUOUS
 10
3.908960
 20
4.851000
  0
SEQEND
  8
0
  0
SOLID
  8
0
 62
    15
 10
3.916880
 20
4.818880
 11
3.914680
 21
5.566880
 12
3.919960
 22
4.782360
 13
3.917320
 23
5.530360
  0
POLYLINE
  8
0
  6
CONTINUOUS
 66
     1
 40
0.000000
 41
0.000000
  0
VERTEX
  8
0
  6
CONTINUOUS
 10
3.916880
 20
4.818880
  0
VERTEX
  8
0
  6
CONTINUOUS
 10
3.914680
 20
5.566880
  0
VERTEX
  8
0
  6
CONTINUOUS
 10
3.917320
 20
5.530360
  0
VERTEX
  8
0
  6
CONTINUOUS
 10
3.919960
 20
4.782360
  0
VERTEX
  8
0
  6
CONTINUOUS
 10
3.916880
 20
4.818880
  0
SEQEND
  8
0
  0
SOLID
  8
0
 62
    15
 10
3.919960
 20
4.782360
 11
3.917320
 21
5.530360
 12
3.988600
 22
4.782360
 13
3.986400
 23
5.530360
  0
POLYLINE
  8
0
  6
CONTINUOUS
 66
     1
 40
0.000000
 41
0.000000
  0
VERTEX
  8
0
  6
CONTINUOUS
 10
3.919960
 20
4.782360
  0
VERTEX
  8
0
  6
CONTINUOUS
 10
3.917320
 20
5.530360
  0
VERTEX
  8
0
  6
CONTINUOUS
 10
3.986400
 20
5.530360
  0
VERTEX
  8
0
  6
CONTINUOUS
 10
3.988600
 20
4.782360
  0
VERTEX
  8
0
  6
CONTINUOUS
 10
3.919960
 20
4.782360
  0
SEQEND
  8
0
  0
SOLID
  8
0
 62
    15
 10
3.988600
 20
4.782360
 11
3.986400
 21
5.530360
 12
3.991680
 22
4.818880
 13
3.989040
 23
5.566880
  0
POLYLINE
  8
0
  6
CONTINUOUS
 66
     1
 40
0.000000
 41
0.000000
  0
VERTEX
  8
0
  6
CONTINUOUS
 10
3.988600
 20
4.782360
  0
VERTEX
  8
0
  6
CONTINUOUS
 10
3.986400
 20
5.530360
  0
VERTEX
  8
0
  6
CONTINUOUS
 10
3.989040
 20
5.566880
  0
VERTEX
  8
0
  6
CONTINUOUS
 10
3.991680
 20
4.818880
  0
VERTEX
  8
0
  6
CONTINUOUS
 10
3.988600
 20
4.782360
  0
SEQEND
  8
0
  0
SOLID
  8
0
 62
    15
 10
3.991680
 20
4.818880
 11
3.989040
 21
5.566880
 12
3.999600
 22
4.850560
 13
3.997400
 23
5.598560
  0
POLYLINE
  8
0
  6
CONTINUOUS
 66
     1
 40
0.000000
 41
0.000000
  0
VERTEX
  8
0
  6
CONTINUOUS
 10
3.991680
 20
4.818880
  0
VERTEX
  8
0
  6
CONTINUOUS
 10
3.989040
 20
5.566880
  0
VERTEX
  8
0
  6
CONTINUOUS
 10
3.997400
 20
5.598560
  0
VERTEX
  8
0
  6
CONTINUOUS
 10
3.999600
 20
4.850560
  0
VERTEX
  8
0
  6
CONTINUOUS
 10
3.991680
 20
4.818880
  0
SEQEND
  8
0
  0
SOLID
  8
0
 62
    15
 10
3.999600
 20
4.850560
 11
3.997400
 21
5.598560
 12
4.012360
 22
4.877400
 13
4.009720
 23
5.625400
  0
POLYLINE
  8
0
  6
CONTINUOUS
 66
     1
 40
0.000000
 41
0.000000
  0
VERTEX
  8
0
  6
CONTINUOUS
 10
3.999600
 20
4.850560
  0
VERTEX
  8
0
  6
CONTINUOUS
 10
3.997400
 20
5.598560
  0
VERTEX
  8
0
  6
CONTINUOUS
 10
4.009720
 20
5.625400
  0
VERTEX
  8
0
  6
CONTINUOUS
 10
4.012360
 20
4.877400
  0
VERTEX
  8
0
  6
CONTINUOUS
 10
3.999600
 20
4.850560
  0
SEQEND
  8
0
  0
SOLID
  8
0
 62
    15
 10
4.012360
 20
4.877400
 11
4.009720
 21
5.625400
 12
4.028640
 22
4.899400
 13
4.026440
 23
5.647400
  0
POLYLINE
  8
0
  6
CONTINUOUS
 66
     1
 40
0.000000
 41
0.000000
  0
VERTEX
  8
0
  6
CONTINUOUS
 10
4.012360
 20
4.877400
  0
VERTEX
  8
0
  6
CONTINUOUS
 10
4.009720
 20
5.625400
  0
VERTEX
  8
0
  6
CONTINUOUS
 10
4.026440
 20
5.647400
  0
VERTEX
  8
0
  6
CONTINUOUS
 10
4.028640
 20
4.899400
  0
VERTEX
  8
0
  6
CONTINUOUS
 10
4.012360
 20
4.877400
  0
SEQEND
  8
0
  0
SOLID
  8
0
 62
    15
 10
4.028640
 20
4.899400
 11
4.026440
 21
5.647400
 12
4.048000
 22
4.916560
 13
4.045360
 23
5.664560
  0
POLYLINE
  8
0
  6
CONTINUOUS
 66
     1
 40
0.000000
 41
0.000000
  0
VERTEX
  8
0
  6
CONTINUOUS
 10
4.028640
 20
4.899400
  0
VERTEX
  8
0
  6
CONTINUOUS
 10
4.026440
 20
5.647400
  0
VERTEX
  8
0
  6
CONTINUOUS
 10
4.045360
 20
5.664560
  0
VERTEX
  8
0
  6
CONTINUOUS
 10
4.048000
 20
4.916560
  0
VERTEX
  8
0
  6
CONTINUOUS
 10
4.028640
 20
4.899400
  0
SEQEND
  8
0
  0
SOLID
  8
0
 62
    15
 10
4.048000
 20
4.916560
 11
4.045360
 21
5.664560
 12
4.069560
 22
4.928880
 13
4.066920
 23
5.676440
  0
POLYLINE
  8
0
  6
CONTINUOUS
 66
     1
 40
0.000000
 41
0.000000
  0
VERTEX
  8
0
  6
CONTINUOUS
 10
4.048000
 20
4.916560
  0
VERTEX
  8
0
  6
CONTINUOUS
 10
4.045360
 20
5.664560
  0
VERTEX
  8
0
  6
CONTINUOUS
 10
4.066920
 20
5.676440
  0
VERTEX
  8
0
  6
CONTINUOUS
 10
4.069560
 20
4.928880
  0
VERTEX
  8
0
  6
CONTINUOUS
 10
4.048000
 20
4.916560
  0
SEQEND
  8
0
  0
SOLID
  8
0
 62
    15
 10
4.069560
 20
4.928880
 11
4.066920
 21
5.676440
 12
4.092440
 22
4.936360
 13
4.090240
 23
5.683920
  0
POLYLINE
  8
0
  6
CONTINUOUS
 66
     1
 40
0.000000
 41
0.000000
  0
VERTEX
  8
0
  6
CONTINUOUS
 10
4.069560
 20
4.928880
  0
VERTEX
  8
0
  6
CONTINUOUS
 10
4.066920
 20
5.676440
  0
VERTEX
  8
0
  6
CONTINUOUS
 10
4.090240
 20
5.683920
  0
VERTEX
  8
0
  6
CONTINUOUS
 10
4.092440
 20
4.936360
  0
VERTEX
  8
0
  6
CONTINUOUS
 10
4.069560
 20
4.928880
  0
SEQEND
  8
0
  0
SOLID
  8
0
 62
    15
 10
4.092440
 20
4.936360
 11
4.090240
 21
5.683920
 12
4.116640
 22
4.938560
 13
4.114440
 23
5.686560
  0
POLYLINE
  8
0
  6
CONTINUOUS
 66
     1
 40
0.000000
 41
0.000000
  0
VERTEX
  8
0
  6
CONTINUOUS
 10
4.092440
 20
4.936360
  0
VERTEX
  8
0
  6
CONTINUOUS
 10
4.090240
 20
5.683920
  0
VERTEX
  8
0
  6
CONTINUOUS
 10
4.114440
 20
5.686560
  0
VERTEX
  8
0
  6
CONTINUOUS
 10
4.116640
 20
4.938560
  0
VERTEX
  8
0
  6
CONTINUOUS
 10
4.092440
 20
4.936360
  0
SEQEND
  8
0
  0
SOLID
  8
0
 62
    15
 10
4.116640
 20
4.938560
 11
4.114440
 21
5.686560
 12
4.140400
 22
4.936360
 13
4.138200
 23
5.683920
  0
POLYLINE
  8
0
  6
CONTINUOUS
 66
     1
 40
0.000000
 41
0.000000
  0
VERTEX
  8
0
  6
CONTINUOUS
 10
4.116640
 20
4.938560
  0
VERTEX
  8
0
  6
CONTINUOUS
 10
4.114440
 20
5.686560
  0
VERTEX
  8
0
  6
CONTINUOUS
 10
4.138200
 20
5.683920
  0
VERTEX
  8
0
  6
CONTINUOUS
 10
4.140400
 20
4.936360
  0
VERTEX
  8
0
  6
CONTINUOUS
 10
4.116640
 20
4.938560
  0
SEQEND
  8
0
  0
SOLID
  8
0
 62
    15
 10
4.140400
 20
4.936360
 11
4.138200
 21
5.683920
 12
4.163720
 22
4.928880
 13
4.161080
 23
5.676440
  0
POLYLINE
  8
0
  6
CONTINUOUS
 66
     1
 40
0.000000
 41
0.000000
  0
VERTEX
  8
0
  6
CONTINUOUS
 10
4.140400
 20
4.936360
  0
VERTEX
  8
0
  6
CONTINUOUS
 10
4.138200
 20
5.683920
  0
VERTEX
  8
0
  6
CONTINUOUS
 10
4.161080
 20
5.676440
  0
VERTEX
  8
0
  6
CONTINUOUS
 10
4.163720
 20
4.928880
  0
VERTEX
  8
0
  6
CONTINUOUS
 10
4.140400
 20
4.936360
  0
SEQEND
  8
0
  0
SOLID
  8
0
 62
    15
 10
4.163720
 20
4.928880
 11
4.161080
 21
5.676440
 12
4.185280
 22
4.916560
 13
4.182640
 23
5.664560
  0
POLYLINE
  8
0
  6
CONTINUOUS
 66
     1
 40
0.000000
 41
0.000000
  0
VERTEX
  8
0
  6
CONTINUOUS
 10
4.163720
 20
4.928880
  0
VERTEX
  8
0
  6
CONTINUOUS
 10
4.161080
 20
5.676440
  0
VERTEX
  8
0
  6
CONTINUOUS
 10
4.182640
 20
5.664560
  0
VERTEX
  8
0
  6
CONTINUOUS
 10
4.185280
 20
4.916560
  0
VERTEX
  8
0
  6
CONTINUOUS
 10
4.163720
 20
4.928880
  0
SEQEND
  8
0
  0
SOLID
  8
0
 62
    15
 10
4.185280
 20
4.916560
 11
4.182640
 21
5.664560
 12
4.204640
 22
4.899400
 13
4.202000
 23
5.647400
  0
POLYLINE
  8
0
  6
CONTINUOUS
 66
     1
 40
0.000000
 41
0.000000
  0
VERTEX
  8
0
  6
CONTINUOUS
 10
4.185280
 20
4.916560
  0
VERTEX
  8
0
  6
CONTINUOUS
 10
4.182640
 20
5.664560
  0
VERTEX
  8
0
  6
CONTINUOUS
 10
4.202000
 20
5.647400
  0
VERTEX
  8
0
  6
CONTINUOUS
 10
4.204640
 20
4.899400
  0
VERTEX
  8
0
  6
CONTINUOUS
 10
4.185280
 20
4.916560
  0
SEQEND
  8
0
  0
SOLID
  8
0
 62
    15
 10
4.204640
 20
4.899400
 11
4.202000
 21
5.647400
 12
4.220920
 22
4.877400
 13
4.218720
 23
5.625400
  0
POLYLINE
  8
0
  6
CONTINUOUS
 66
     1
 40
0.000000
 41
0.000000
  0
VERTEX
  8
0
  6
CONTINUOUS
 10
4.204640
 20
4.899400
  0
VERTEX
  8
0
  6
CONTINUOUS
 10
4.202000
 20
5.647400
  0
VERTEX
  8
0
  6
CONTINUOUS
 10
4.218720
 20
5.625400
  0
VERTEX
  8
0
  6
CONTINUOUS
 10
4.220920
 20
4.877400
  0
VERTEX
  8
0
  6
CONTINUOUS
 10
4.204640
 20
4.899400
  0
SEQEND
  8
0
  0
SOLID
  8
0
 62
    15
 10
4.220920
 20
4.877400
 11
4.218720
 21
5.625400
 12
4.233680
 22
4.850560
 13
4.231040
 23
5.598560
  0
POLYLINE
  8
0
  6
CONTINUOUS
 66
     1
 40
0.000000
 41
0.000000
  0
VERTEX
  8
0
  6
CONTINUOUS
 10
4.220920
 20
4.877400
  0
VERTEX
  8
0
  6
CONTINUOUS
 10
4.218720
 20
5.625400
  0
VERTEX
  8
0
  6
CONTINUOUS
 10
4.231040
 20
5.598560
  0
VERTEX
  8
0
  6
CONTINUOUS
 10
4.233680
 20
4.850560
  0
VERTEX
  8
0
  6
CONTINUOUS
 10
4.220920
 20
4.877400
  0
SEQEND
  8
0
  0
SOLID
  8
0
 62
    15
 10
4.233680
 20
4.850560
 11
4.231040
 21
5.598560
 12
4.241600
 22
4.818880
 13
4.239400
 23
5.566880
  0
POLYLINE
  8
0
  6
CONTINUOUS
 66
     1
 40
0.000000
 41
0.000000
  0
VERTEX
  8
0
  6
CONTINUOUS
 10
4.233680
 20
4.850560
  0
VERTEX
  8
0
  6
CONTINUOUS
 10
4.231040
 20
5.598560
  0
VERTEX
  8
0
  6
CONTINUOUS
 10
4.239400
 20
5.566880
  0
VERTEX
  8
0
  6
CONTINUOUS
 10
4.241600
 20
4.818880
  0
VERTEX
  8
0
  6
CONTINUOUS
 10
4.233680
 20
4.850560
  0
SEQEND
  8
0
  0
SOLID
  8
0
 62
    15
 10
4.241600
 20
4.818880
 11
4.239400
 21
5.566880
 12
4.244680
 22
4.782360
 13
4.242040
 23
5.530360
  0
POLYLINE
  8
0
  6
CONTINUOUS
 66
     1
 40
0.000000
 41
0.000000
  0
VERTEX
  8
0
  6
CONTINUOUS
 10
4.241600
 20
4.818880
  0
VERTEX
  8
0
  6
CONTINUOUS
 10
4.239400
 20
5.566880
  0
VERTEX
  8
0
  6
CONTINUOUS
 10
4.242040
 20
5.530360
  0
VERTEX
  8
0
  6
CONTINUOUS
 10
4.244680
 20
4.782360
  0
VERTEX
  8
0
  6
CONTINUOUS
 10
4.241600
 20
4.818880
  0
SEQEND
  8
0
  0
SOLID
  8
0
 62
    15
 10
4.244680
 20
4.782360
 11
4.242040
 21
5.530360
 12
4.313320
 22
4.782360
 13
4.311120
 23
5.530360
  0
POLYLINE
  8
0
  6
CONTINUOUS
 66
     1
 40
0.000000
 41
0.000000
  0
VERTEX
  8
0
  6
CONTINUOUS
 10
4.244680
 20
4.782360
  0
VERTEX
  8
0
  6
CONTINUOUS
 10
4.242040
 20
5.530360
  0
VERTEX
  8
0
  6
CONTINUOUS
 10
4.311120
 20
5.530360
  0
VERTEX
  8
0
  6
CONTINUOUS
 10
4.313320
 20
4.782360
  0
VERTEX
  8
0
  6
CONTINUOUS
 10
4.244680
 20
4.782360
  0
SEQEND
  8
0
  0
SOLID
  8
0
 62
    15
 10
4.313320
 20
4.782360
 11
4.311120
 21
5.530360
 12
4.316400
 22
4.818880
 13
4.313760
 23
5.566880
  0
POLYLINE
  8
0
  6
CONTINUOUS
 66
     1
 40
0.000000
 41
0.000000
  0
VERTEX
  8
0
  6
CONTINUOUS
 10
4.313320
 20
4.782360
  0
VERTEX
  8
0
  6
CONTINUOUS
 10
4.311120
 20
5.530360
  0
VERTEX
  8
0
  6
CONTINUOUS
 10
4.313760
 20
5.566880
  0
VERTEX
  8
0
  6
CONTINUOUS
 10
4.316400
 20
4.818880
  0
VERTEX
  8
0
  6
CONTINUOUS
 10
4.313320
 20
4.782360
  0
SEQEND
  8
0
  0
SOLID
  8
0
 62
    15
 10
4.316400
 20
4.818880
 11
4.313760
 21
5.566880
 12
4.324320
 22
4.851000
 13
4.322120
 23
5.599000
  0
POLYLINE
  8
0
  6
CONTINUOUS
 66
     1
 40
0.000000
 41
0.000000
  0
VERTEX
  8
0
  6
CONTINUOUS
 10
4.316400
 20
4.818880
  0
VERTEX
  8
0
  6
CONTINUOUS
 10
4.313760
 20
5.566880
  0
VERTEX
  8
0
  6
CONTINUOUS
 10
4.322120
 20
5.599000
  0
VERTEX
  8
0
  6
CONTINUOUS
 10
4.324320
 20
4.851000
  0
VERTEX
  8
0
  6
CONTINUOUS
 10
4.316400
 20
4.818880
  0
SEQEND
  8
0
  0
SOLID
  8
0
 62
    15
 10
4.324320
 20
4.851000
 11
4.322120
 21
5.599000
 12
4.337080
 22
4.877840
 13
4.334440
 23
5.625840
  0
POLYLINE
  8
0
  6
CONTINUOUS
 66
     1
 40
0.000000
 41
0.000000
  0
VERTEX
  8
0
  6
CONTINUOUS
 10
4.324320
 20
4.851000
  0
VERTEX
  8
0
  6
CONTINUOUS
 10
4.322120
 20
5.599000
  0
VERTEX
  8
0
  6
CONTINUOUS
 10
4.334440
 20
5.625840
  0
VERTEX
  8
0
  6
CONTINUOUS
 10
4.337080
 20
4.877840
  0
VERTEX
  8
0
  6
CONTINUOUS
 10
4.324320
 20
4.851000
  0
SEQEND
  8
0
  0
SOLID
  8
0
 62
    15
 10
4.337080
 20
4.877840
 11
4.334440
 21
5.625840
 12
4.353360
 22
4.899840
 13
4.350720
 23
5.647840
  0
POLYLINE
  8
0
  6
CONTINUOUS
 66
     1
 40
0.000000
 41
0.000000
  0
VERTEX
  8
0
  6
CONTINUOUS
 10
4.337080
 20
4.877840
  0
VERTEX
  8
0
  6
CONTINUOUS
 10
4.334440
 20
5.625840
  0
VERTEX
  8
0
  6
CONTINUOUS
 10
4.350720
 20
5.647840
  0
VERTEX
  8
0
  6
CONTINUOUS
 10
4.353360
 20
4.899840
  0
VERTEX
  8
0
  6
CONTINUOUS
 10
4.337080
 20
4.877840
  0
SEQEND
  8
0
  0
SOLID
  8
0
 62
    15
 10
4.353360
 20
4.899840
 11
4.350720
 21
5.647840
 12
4.372720
 22
4.916560
 13
4.370080
 23
5.664560
  0
POLYLINE
  8
0
  6
CONTINUOUS
 66
     1
 40
0.000000
 41
0.000000
  0
VERTEX
  8
0
  6
CONTINUOUS
 10
4.353360
 20
4.899840
  0
VERTEX
  8
0
  6
CONTINUOUS
 10
4.350720
 20
5.647840
  0
VERTEX
  8
0
  6
CONTINUOUS
 10
4.370080
 20
5.664560
  0
VERTEX
  8
0
  6
CONTINUOUS
 10
4.372720
 20
4.916560
  0
VERTEX
  8
0
  6
CONTINUOUS
 10
4.353360
 20
4.899840
  0
SEQEND
  8
0
  0
SOLID
  8
0
 62
    15
 10
4.372720
 20
4.916560
 11
4.370080
 21
5.664560
 12
4.394280
 22
4.928880
 13
4.391640
 23
5.676880
  0
POLYLINE
  8
0
  6
CONTINUOUS
 66
     1
 40
0.000000
 41
0.000000
  0
VERTEX
  8
0
  6
CONTINUOUS
 10
4.372720
 20
4.916560
  0
VERTEX
  8
0
  6
CONTINUOUS
 10
4.370080
 20
5.664560
  0
VERTEX
  8
0
  6
CONTINUOUS
 10
4.391640
 20
5.676880
  0
VERTEX
  8
0
  6
CONTINUOUS
 10
4.394280
 20
4.928880
  0
VERTEX
  8
0
  6
CONTINUOUS
 10
4.372720
 20
4.916560
  0
SEQEND
  8
0
  0
SOLID
  8
0
 62
    15
 10
4.394280
 20
4.928880
 11
4.391640
 21
5.676880
 12
4.417160
 22
4.936360
 13
4.414960
 23
5.683920
  0
POLYLINE
  8
0
  6
CONTINUOUS
 66
     1
 40
0.000000
 41
0.000000
  0
VERTEX
  8
0
  6
CONTINUOUS
 10
4.394280
 20
4.928880
  0
VERTEX
  8
0
  6
CONTINUOUS
 10
4.391640
 20
5.676880
  0
VERTEX
  8
0
  6
CONTINUOUS
 10
4.414960
 20
5.683920
  0
VERTEX
  8
0
  6
CONTINUOUS
 10
4.417160
 20
4.936360
  0
VERTEX
  8
0
  6
CONTINUOUS
 10
4.394280
 20
4.928880
  0
SEQEND
  8
0
  0
SOLID
  8
0
 62
    15
 10
4.417160
 20
4.936360
 11
4.414960
 21
5.683920
 12
4.441360
 22
4.938560
 13
4.438720
 23
5.686560
  0
POLYLINE
  8
0
  6
CONTINUOUS
 66
     1
 40
0.000000
 41
0.000000
  0
VERTEX
  8
0
  6
CONTINUOUS
 10
4.417160
 20
4.936360
  0
VERTEX
  8
0
  6
CONTINUOUS
 10
4.414960
 20
5.683920
  0
VERTEX
  8
0
  6
CONTINUOUS
 10
4.438720
 20
5.686560
  0
VERTEX
  8
0
  6
CONTINUOUS
 10
4.441360
 20
4.938560
  0
VERTEX
  8
0
  6
CONTINUOUS
 10
4.417160
 20
4.936360
  0
SEQEND
  8
0
  0
SOLID
  8
0
 62
    15
 10
4.441360
 20
4.938560
 11
4.438720
 21
5.686560
 12
4.465120
 22
4.935920
 13
4.462480
 23
5.683920
  0
POLYLINE
  8
0
  6
CONTINUOUS
 66
     1
 40
0.000000
 41
0.000000
  0
VERTEX
  8
0
  6
CONTINUOUS
 10
4.441360
 20
4.938560
  0
VERTEX
  8
0
  6
CONTINUOUS
 10
4.438720
 20
5.686560
  0
VERTEX
  8
0
  6
CONTINUOUS
 10
4.462480
 20
5.683920
  0
VERTEX
  8
0
  6
CONTINUOUS
 10
4.465120
 20
4.935920
  0
VERTEX
  8
0
  6
CONTINUOUS
 10
4.441360
 20
4.938560
  0
SEQEND
  8
0
  0
SOLID
  8
0
 62
    15
 10
4.465120
 20
4.935920
 11
4.462480
 21
5.683920
 12
4.488000
 22
4.928880
 13
4.485800
 23
5.676440
  0
POLYLINE
  8
0
  6
CONTINUOUS
 66
     1
 40
0.000000
 41
0.000000
  0
VERTEX
  8
0
  6
CONTINUOUS
 10
4.465120
 20
4.935920
  0
VERTEX
  8
0
  6
CONTINUOUS
 10
4.462480
 20
5.683920
  0
VERTEX
  8
0
  6
CONTINUOUS
 10
4.485800
 20
5.676440
  0
VERTEX
  8
0
  6
CONTINUOUS
 10
4.488000
 20
4.928880
  0
VERTEX
  8
0
  6
CONTINUOUS
 10
4.465120
 20
4.935920
  0
SEQEND
  8
0
  0
SOLID
  8
0
 62
    15
 10
4.488000
 20
4.928880
 11
4.485800
 21
5.676440
 12
4.509560
 22
4.916560
 13
4.507360
 23
5.664560
  0
POLYLINE
  8
0
  6
CONTINUOUS
 66
     1
 40
0.000000
 41
0.000000
  0
VERTEX
  8
0
  6
CONTINUOUS
 10
4.488000
 20
4.928880
  0
VERTEX
  8
0
  6
CONTINUOUS
 10
4.485800
 20
5.676440
  0
VERTEX
  8
0
  6
CONTINUOUS
 10
4.507360
 20
5.664560
  0
VERTEX
  8
0
  6
CONTINUOUS
 10
4.509560
 20
4.916560
  0
VERTEX
  8
0
  6
CONTINUOUS
 10
4.488000
 20
4.928880
  0
SEQEND
  8
0
  0
SOLID
  8
0
 62
    15
 10
4.509560
 20
4.916560
 11
4.507360
 21
5.664560
 12
4.528920
 22
4.899400
 13
4.526720
 23
5.647400
  0
POLYLINE
  8
0
  6
CONTINUOUS
 66
     1
 40
0.000000
 41
0.000000
  0
VERTEX
  8
0
  6
CONTINUOUS
 10
4.509560
 20
4.916560
  0
VERTEX
  8
0
  6
CONTINUOUS
 10
4.507360
 20
5.664560
  0
VERTEX
  8
0
  6
CONTINUOUS
 10
4.526720
 20
5.647400
  0
VERTEX
  8
0
  6
CONTINUOUS
 10
4.528920
 20
4.899400
  0
VERTEX
  8
0
  6
CONTINUOUS
 10
4.509560
 20
4.916560
  0
SEQEND
  8
0
  0
SOLID
  8
0
 62
    15
 10
4.528920
 20
4.899400
 11
4.526720
 21
5.647400
 12
4.545200
 22
4.877400
 13
4.543000
 23
5.625400
  0
POLYLINE
  8
0
  6
CONTINUOUS
 66
     1
 40
0.000000
 41
0.000000
  0
VERTEX
  8
0
  6
CONTINUOUS
 10
4.528920
 20
4.899400
  0
VERTEX
  8
0
  6
CONTINUOUS
 10
4.526720
 20
5.647400
  0
VERTEX
  8
0
  6
CONTINUOUS
 10
4.543000
 20
5.625400
  0
VERTEX
  8
0
  6
CONTINUOUS
 10
4.545200
 20
4.877400
  0
VERTEX
  8
0
  6
CONTINUOUS
 10
4.528920
 20
4.899400
  0
SEQEND
  8
0
  0
SOLID
  8
0
 62
    15
 10
4.545200
 20
4.877400
 11
4.543000
 21
5.625400
 12
4.557960
 22
4.850560
 13
4.555760
 23
5.598560
  0
POLYLINE
  8
0
  6
CONTINUOUS
 66
     1
 40
0.000000
 41
0.000000
  0
VERTEX
  8
0
  6
CONTINUOUS
 10
4.545200
 20
4.877400
  0
VERTEX
  8
0
  6
CONTINUOUS
 10
4.543000
 20
5.625400
  0
VERTEX
  8
0
  6
CONTINUOUS
 10
4.555760
 20
5.598560
  0
VERTEX
  8
0
  6
CONTINUOUS
 10
4.557960
 20
4.850560
  0
VERTEX
  8
0
  6
CONTINUOUS
 10
4.545200
 20
4.877400
  0
SEQEND
  8
0
  0
SOLID
  8
0
 62
    15
 10
4.568960
 20
4.782360
 11
4.566320
 21
5.530360
 12
4.604600
 22
4.782360
 13
4.601960
 23
5.530360
  0
POLYLINE
  8
0
  6
CONTINUOUS
 66
     1
 40
0.000000
 41
0.000000
  0
VERTEX
  8
0
  6
CONTINUOUS
 10
4.568960
 20
4.782360
  0
VERTEX
  8
0
  6
CONTINUOUS
 10
4.566320
 20
5.530360
  0
VERTEX
  8
0
  6
CONTINUOUS
 10
4.601960
 20
5.530360
  0
VERTEX
  8
0
  6
CONTINUOUS
 10
4.604600
 20
4.782360
  0
VERTEX
  8
0
  6
CONTINUOUS
 10
4.568960
 20
4.782360
  0
SEQEND
  8
0
  0
SOLID
  8
0
 62
    15
 10
4.565880
 20
4.818880
 11
4.563680
 21
5.566880
 12
4.568960
 22
4.782360
 13
4.566320
 23
5.530360
  0
POLYLINE
  8
0
  6
CONTINUOUS
 66
     1
 40
0.000000
 41
0.000000
  0
VERTEX
  8
0
  6
CONTINUOUS
 10
4.565880
 20
4.818880
  0
VERTEX
  8
0
  6
CONTINUOUS
 10
4.563680
 20
5.566880
  0
VERTEX
  8
0
  6
CONTINUOUS
 10
4.566320
 20
5.530360
  0
VERTEX
  8
0
  6
CONTINUOUS
 10
4.568960
 20
4.782360
  0
VERTEX
  8
0
  6
CONTINUOUS
 10
4.565880
 20
4.818880
  0
SEQEND
  8
0
  0
SOLID
  8
0
 62
    15
 10
4.557960
 20
4.850560
 11
4.555760
 21
5.598560
 12
4.565880
 22
4.818880
 13
4.563680
 23
5.566880
  0
POLYLINE
  8
0
  6
CONTINUOUS
 66
     1
 40
0.000000
 41
0.000000
  0
VERTEX
  8
0
  6
CONTINUOUS
 10
4.557960
 20
4.850560
  0
VERTEX
  8
0
  6
CONTINUOUS
 10
4.555760
 20
5.598560
  0
VERTEX
  8
0
  6
CONTINUOUS
 10
4.563680
 20
5.566880
  0
VERTEX
  8
0
  6
CONTINUOUS
 10
4.565880
 20
4.818880
  0
VERTEX
  8
0
  6
CONTINUOUS
 10
4.557960
 20
4.850560
  0
SEQEND
  8
0
  0
SOLID
  8
0
 62
    15
 10
4.604600
 20
4.782360
 11
4.601960
 21
5.530360
 12
4.631000
 22
4.880480
 13
4.628360
 23
5.628480
  0
POLYLINE
  8
0
  6
CONTINUOUS
 66
     1
 40
0.000000
 41
0.000000
  0
VERTEX
  8
0
  6
CONTINUOUS
 10
4.604600
 20
4.782360
  0
VERTEX
  8
0
  6
CONTINUOUS
 10
4.601960
 20
5.530360
  0
VERTEX
  8
0
  6
CONTINUOUS
 10
4.628360
 20
5.628480
  0
VERTEX
  8
0
  6
CONTINUOUS
 10
4.631000
 20
4.880480
  0
VERTEX
  8
0
  6
CONTINUOUS
 10
4.604600
 20
4.782360
  0
SEQEND
  8
0
  0
SOLID
  8
0
 62
    15
 10
4.631000
 20
4.880480
 11
4.628360
 21
5.628480
 12
5.087720
 22
4.880480
 13
5.085520
 23
5.628480
  0
POLYLINE
  8
0
  6
CONTINUOUS
 66
     1
 40
0.000000
 41
0.000000
  0
VERTEX
  8
0
  6
CONTINUOUS
 10
4.631000
 20
4.880480
  0
VERTEX
  8
0
  6
CONTINUOUS
 10
4.628360
 20
5.628480
  0
VERTEX
  8
0
  6
CONTINUOUS
 10
5.085520
 20
5.628480
  0
VERTEX
  8
0
  6
CONTINUOUS
 10
5.087720
 20
4.880480
  0
VERTEX
  8
0
  6
CONTINUOUS
 10
4.631000
 20
4.880480
  0
SEQEND
  8
0
  0
SOLID
  8
0
 62
    15
 10
5.087720
 20
4.880480
 11
5.085520
 21
5.628480
 12
5.101800
 22
4.946920
 13
5.099600
 23
5.694920
  0
POLYLINE
  8
0
  6
CONTINUOUS
 66
     1
 40
0.000000
 41
0.000000
  0
VERTEX
  8
0
  6
CONTINUOUS
 10
5.087720
 20
4.880480
  0
VERTEX
  8
0
  6
CONTINUOUS
 10
5.085520
 20
5.628480
  0
VERTEX
  8
0
  6
CONTINUOUS
 10
5.099600
 20
5.694920
  0
VERTEX
  8
0
  6
CONTINUOUS
 10
5.101800
 20
4.946920
  0
VERTEX
  8
0
  6
CONTINUOUS
 10
5.087720
 20
4.880480
  0
SEQEND
  8
0
  0
SOLID
  8
0
 62
    15
 10
5.101800
 20
4.946920
 11
5.099600
 21
5.694920
 12
5.133040
 22
4.947360
 13
5.130840
 23
5.695360
  0
POLYLINE
  8
0
  6
CONTINUOUS
 66
     1
 40
0.000000
 41
0.000000
  0
VERTEX
  8
0
  6
CONTINUOUS
 10
5.101800
 20
4.946920
  0
VERTEX
  8
0
  6
CONTINUOUS
 10
5.099600
 20
5.694920
  0
VERTEX
  8
0
  6
CONTINUOUS
 10
5.130840
 20
5.695360
  0
VERTEX
  8
0
  6
CONTINUOUS
 10
5.133040
 20
4.947360
  0
VERTEX
  8
0
  6
CONTINUOUS
 10
5.101800
 20
4.946920
  0
SEQEND
  8
0
  0
SOLID
  8
0
 62
    15
 10
5.133040
 20
4.947360
 11
5.130840
 21
5.695360
 12
5.161200
 22
4.948680
 13
5.158560
 23
5.696680
  0
POLYLINE
  8
0
  6
CONTINUOUS
 66
     1
 40
0.000000
 41
0.000000
  0
VERTEX
  8
0
  6
CONTINUOUS
 10
5.133040
 20
4.947360
  0
VERTEX
  8
0
  6
CONTINUOUS
 10
5.130840
 20
5.695360
  0
VERTEX
  8
0
  6
CONTINUOUS
 10
5.158560
 20
5.696680
  0
VERTEX
  8
0
  6
CONTINUOUS
 10
5.161200
 20
4.948680
  0
VERTEX
  8
0
  6
CONTINUOUS
 10
5.133040
 20
4.947360
  0
SEQEND
  8
0
  0
SOLID
  8
0
 62
    15
 10
5.161200
 20
4.948680
 11
5.158560
 21
5.696680
 12
5.207840
 22
4.954840
 13
5.205640
 23
5.702840
  0
POLYLINE
  8
0
  6
CONTINUOUS
 66
     1
 40
0.000000
 41
0.000000
  0
VERTEX
  8
0
  6
CONTINUOUS
 10
5.161200
 20
4.948680
  0
VERTEX
  8
0
  6
CONTINUOUS
 10
5.158560
 20
5.696680
  0
VERTEX
  8
0
  6
CONTINUOUS
 10
5.205640
 20
5.702840
  0
VERTEX
  8
0
  6
CONTINUOUS
 10
5.207840
 20
4.954840
  0
VERTEX
  8
0
  6
CONTINUOUS
 10
5.161200
 20
4.948680
  0
SEQEND
  8
0
  0
SOLID
  8
0
 62
    15
 10
5.207840
 20
4.954840
 11
5.205640
 21
5.702840
 12
5.244360
 22
4.964080
 13
5.242160
 23
5.712080
  0
POLYLINE
  8
0
  6
CONTINUOUS
 66
     1
 40
0.000000
 41
0.000000
  0
VERTEX
  8
0
  6
CONTINUOUS
 10
5.207840
 20
4.954840
  0
VERTEX
  8
0
  6
CONTINUOUS
 10
5.205640
 20
5.702840
  0
VERTEX
  8
0
  6
CONTINUOUS
 10
5.242160
 20
5.712080
  0
VERTEX
  8
0
  6
CONTINUOUS
 10
5.244360
 20
4.964080
  0
VERTEX
  8
0
  6
CONTINUOUS
 10
5.207840
 20
4.954840
  0
SEQEND
  8
0
  0
SOLID
  8
0
 62
    15
 10
3.666960
 20
4.818880
 11
3.664760
 21
5.566880
 12
3.675320
 22
4.850560
 13
3.672680
 23
5.598560
  0
POLYLINE
  8
0
  6
CONTINUOUS
 66
     1
 40
0.000000
 41
0.000000
  0
VERTEX
  8
0
  6
CONTINUOUS
 10
3.666960
 20
4.818880
  0
VERTEX
  8
0
  6
CONTINUOUS
 10
3.664760
 20
5.566880
  0
VERTEX
  8
0
  6
CONTINUOUS
 10
3.672680
 20
5.598560
  0
VERTEX
  8
0
  6
CONTINUOUS
 10
3.675320
 20
4.850560
  0
VERTEX
  8
0
  6
CONTINUOUS
 10
3.666960
 20
4.818880
  0
SEQEND
  8
0
  0
SOLID
  8
0
 62
    15
 10
5.272080
 20
4.977280
 11
5.269880
 21
5.724840
 12
5.293200
 22
4.993120
 13
5.290560
 23
5.741120
  0
POLYLINE
  8
0
  6
CONTINUOUS
 66
     1
 40
0.000000
 41
0.000000
  0
VERTEX
  8
0
  6
CONTINUOUS
 10
5.272080
 20
4.977280
  0
VERTEX
  8
0
  6
CONTINUOUS
 10
5.269880
 20
5.724840
  0
VERTEX
  8
0
  6
CONTINUOUS
 10
5.290560
 20
5.741120
  0
VERTEX
  8
0
  6
CONTINUOUS
 10
5.293200
 20
4.993120
  0
VERTEX
  8
0
  6
CONTINUOUS
 10
5.272080
 20
4.977280
  0
SEQEND
  8
0
  0
SOLID
  8
0
 62
    15
 10
5.293200
 20
4.993120
 11
5.290560
 21
5.741120
 12
5.309040
 22
5.012040
 13
5.306840
 23
5.760040
  0
POLYLINE
  8
0
  6
CONTINUOUS
 66
     1
 40
0.000000
 41
0.000000
  0
VERTEX
  8
0
  6
CONTINUOUS
 10
5.293200
 20
4.993120
  0
VERTEX
  8
0
  6
CONTINUOUS
 10
5.290560
 20
5.741120
  0
VERTEX
  8
0
  6
CONTINUOUS
 10
5.306840
 20
5.760040
  0
VERTEX
  8
0
  6
CONTINUOUS
 10
5.309040
 20
5.012040
  0
VERTEX
  8
0
  6
CONTINUOUS
 10
5.293200
 20
4.993120
  0
SEQEND
  8
0
  0
SOLID
  8
0
 62
    15
 10
5.309040
 20
5.012040
 11
5.306840
 21
5.760040
 12
5.334120
 22
5.056920
 13
5.331920
 23
5.804920
  0
POLYLINE
  8
0
  6
CONTINUOUS
 66
     1
 40
0.000000
 41
0.000000
  0
VERTEX
  8
0
  6
CONTINUOUS
 10
5.309040
 20
5.012040
  0
VERTEX
  8
0
  6
CONTINUOUS
 10
5.306840
 20
5.760040
  0
VERTEX
  8
0
  6
CONTINUOUS
 10
5.331920
 20
5.804920
  0
VERTEX
  8
0
  6
CONTINUOUS
 10
5.334120
 20
5.056920
  0
VERTEX
  8
0
  6
CONTINUOUS
 10
5.309040
 20
5.012040
  0
SEQEND
  8
0
  0
SOLID
  8
0
 62
    15
 10
5.334120
 20
5.056920
 11
5.331920
 21
5.804920
 12
5.366240
 22
5.056920
 13
5.364040
 23
5.804920
  0
POLYLINE
  8
0
  6
CONTINUOUS
 66
     1
 40
0.000000
 41
0.000000
  0
VERTEX
  8
0
  6
CONTINUOUS
 10
5.334120
 20
5.056920
  0
VERTEX
  8
0
  6
CONTINUOUS
 10
5.331920
 20
5.804920
  0
VERTEX
  8
0
  6
CONTINUOUS
 10
5.364040
 20
5.804920
  0
VERTEX
  8
0
  6
CONTINUOUS
 10
5.366240
 20
5.056920
  0
VERTEX
  8
0
  6
CONTINUOUS
 10
5.334120
 20
5.056920
  0
SEQEND
  8
0
  0
SOLID
  8
0
 62
    15
 10
5.366240
 20
5.056920
 11
5.364040
 21
5.804920
 12
5.393960
 22
5.056040
 13
5.391320
 23
5.804040
  0
POLYLINE
  8
0
  6
CONTINUOUS
 66
     1
 40
0.000000
 41
0.000000
  0
VERTEX
  8
0
  6
CONTINUOUS
 10
5.366240
 20
5.056920
  0
VERTEX
  8
0
  6
CONTINUOUS
 10
5.364040
 20
5.804920
  0
VERTEX
  8
0
  6
CONTINUOUS
 10
5.391320
 20
5.804040
  0
VERTEX
  8
0
  6
CONTINUOUS
 10
5.393960
 20
5.056040
  0
VERTEX
  8
0
  6
CONTINUOUS
 10
5.366240
 20
5.056920
  0
SEQEND
  8
0
  0
SOLID
  8
0
 62
    15
 10
5.393960
 20
5.056040
 11
5.391320
 21
5.804040
 12
5.426080
 22
5.057800
 13
5.423440
 23
5.805800
  0
POLYLINE
  8
0
  6
CONTINUOUS
 66
     1
 40
0.000000
 41
0.000000
  0
VERTEX
  8
0
  6
CONTINUOUS
 10
5.393960
 20
5.056040
  0
VERTEX
  8
0
  6
CONTINUOUS
 10
5.391320
 20
5.804040
  0
VERTEX
  8
0
  6
CONTINUOUS
 10
5.423440
 20
5.805800
  0
VERTEX
  8
0
  6
CONTINUOUS
 10
5.426080
 20
5.057800
  0
VERTEX
  8
0
  6
CONTINUOUS
 10
5.393960
 20
5.056040
  0
SEQEND
  8
0
  0
SOLID
  8
0
 62
    15
 10
5.426080
 20
5.057800
 11
5.423440
 21
5.805800
 12
5.441040
 22
5.063520
 13
5.438400
 23
5.811520
  0
POLYLINE
  8
0
  6
CONTINUOUS
 66
     1
 40
0.000000
 41
0.000000
  0
VERTEX
  8
0
  6
CONTINUOUS
 10
5.426080
 20
5.057800
  0
VERTEX
  8
0
  6
CONTINUOUS
 10
5.423440
 20
5.805800
  0
VERTEX
  8
0
  6
CONTINUOUS
 10
5.438400
 20
5.811520
  0
VERTEX
  8
0
  6
CONTINUOUS
 10
5.441040
 20
5.063520
  0
VERTEX
  8
0
  6
CONTINUOUS
 10
5.426080
 20
5.057800
  0
SEQEND
  8
0
  0
SOLID
  8
0
 62
    15
 10
5.441040
 20
5.063520
 11
5.438400
 21
5.811520
 12
5.454240
 22
5.074080
 13
5.451600
 23
5.822080
  0
POLYLINE
  8
0
  6
CONTINUOUS
 66
     1
 40
0.000000
 41
0.000000
  0
VERTEX
  8
0
  6
CONTINUOUS
 10
5.441040
 20
5.063520
  0
VERTEX
  8
0
  6
CONTINUOUS
 10
5.438400
 20
5.811520
  0
VERTEX
  8
0
  6
CONTINUOUS
 10
5.451600
 20
5.822080
  0
VERTEX
  8
0
  6
CONTINUOUS
 10
5.454240
 20
5.074080
  0
VERTEX
  8
0
  6
CONTINUOUS
 10
5.441040
 20
5.063520
  0
SEQEND
  8
0
  0
SOLID
  8
0
 62
    15
 10
5.454240
 20
5.074080
 11
5.451600
 21
5.822080
 12
5.464360
 22
5.091680
 13
5.462160
 23
5.839680
  0
POLYLINE
  8
0
  6
CONTINUOUS
 66
     1
 40
0.000000
 41
0.000000
  0
VERTEX
  8
0
  6
CONTINUOUS
 10
5.454240
 20
5.074080
  0
VERTEX
  8
0
  6
CONTINUOUS
 10
5.451600
 20
5.822080
  0
VERTEX
  8
0
  6
CONTINUOUS
 10
5.462160
 20
5.839680
  0
VERTEX
  8
0
  6
CONTINUOUS
 10
5.464360
 20
5.091680
  0
VERTEX
  8
0
  6
CONTINUOUS
 10
5.454240
 20
5.074080
  0
SEQEND
  8
0
  0
SOLID
  8
0
 62
    15
 10
5.464360
 20
5.091680
 11
5.462160
 21
5.839680
 12
5.470520
 22
5.117200
 13
5.468320
 23
5.865200
  0
POLYLINE
  8
0
  6
CONTINUOUS
 66
     1
 40
0.000000
 41
0.000000
  0
VERTEX
  8
0
  6
CONTINUOUS
 10
5.464360
 20
5.091680
  0
VERTEX
  8
0
  6
CONTINUOUS
 10
5.462160
 20
5.839680
  0
VERTEX
  8
0
  6
CONTINUOUS
 10
5.468320
 20
5.865200
  0
VERTEX
  8
0
  6
CONTINUOUS
 10
5.470520
 20
5.117200
  0
VERTEX
  8
0
  6
CONTINUOUS
 10
5.464360
 20
5.091680
  0
SEQEND
  8
0
  0
SOLID
  8
0
 62
    15
 10
5.470520
 20
5.117200
 11
5.468320
 21
5.865200
 12
5.480640
 22
5.145360
 13
5.478440
 23
5.892920
  0
POLYLINE
  8
0
  6
CONTINUOUS
 66
     1
 40
0.000000
 41
0.000000
  0
VERTEX
  8
0
  6
CONTINUOUS
 10
5.470520
 20
5.117200
  0
VERTEX
  8
0
  6
CONTINUOUS
 10
5.468320
 20
5.865200
  0
VERTEX
  8
0
  6
CONTINUOUS
 10
5.478440
 20
5.892920
  0
VERTEX
  8
0
  6
CONTINUOUS
 10
5.480640
 20
5.145360
  0
VERTEX
  8
0
  6
CONTINUOUS
 10
5.470520
 20
5.117200
  0
SEQEND
  8
0
  0
SOLID
  8
0
 62
    15
 10
5.480640
 20
5.145360
 11
5.478440
 21
5.892920
 12
5.502200
 22
5.167360
 13
5.500000
 23
5.915360
  0
POLYLINE
  8
0
  6
CONTINUOUS
 66
     1
 40
0.000000
 41
0.000000
  0
VERTEX
  8
0
  6
CONTINUOUS
 10
5.480640
 20
5.145360
  0
VERTEX
  8
0
  6
CONTINUOUS
 10
5.478440
 20
5.892920
  0
VERTEX
  8
0
  6
CONTINUOUS
 10
5.500000
 20
5.915360
  0
VERTEX
  8
0
  6
CONTINUOUS
 10
5.502200
 20
5.167360
  0
VERTEX
  8
0
  6
CONTINUOUS
 10
5.480640
 20
5.145360
  0
SEQEND
  8
0
  0
SOLID
  8
0
 62
    15
 10
5.502200
 20
5.167360
 11
5.500000
 21
5.915360
 12
5.531240
 22
5.181880
 13
5.529040
 23
5.929880
  0
POLYLINE
  8
0
  6
CONTINUOUS
 66
     1
 40
0.000000
 41
0.000000
  0
VERTEX
  8
0
  6
CONTINUOUS
 10
5.502200
 20
5.167360
  0
VERTEX
  8
0
  6
CONTINUOUS
 10
5.500000
 20
5.915360
  0
VERTEX
  8
0
  6
CONTINUOUS
 10
5.529040
 20
5.929880
  0
VERTEX
  8
0
  6
CONTINUOUS
 10
5.531240
 20
5.181880
  0
VERTEX
  8
0
  6
CONTINUOUS
 10
5.502200
 20
5.167360
  0
SEQEND
  8
0
  0
SOLID
  8
0
 62
    15
 10
5.531240
 20
5.181880
 11
5.529040
 21
5.929880
 12
5.565120
 22
5.186720
 13
5.562480
 23
5.934720
  0
POLYLINE
  8
0
  6
CONTINUOUS
 66
     1
 40
0.000000
 41
0.000000
  0
VERTEX
  8
0
  6
CONTINUOUS
 10
5.531240
 20
5.181880
  0
VERTEX
  8
0
  6
CONTINUOUS
 10
5.529040
 20
5.929880
  0
VERTEX
  8
0
  6
CONTINUOUS
 10
5.562480
 20
5.934720
  0
VERTEX
  8
0
  6
CONTINUOUS
 10
5.565120
 20
5.186720
  0
VERTEX
  8
0
  6
CONTINUOUS
 10
5.531240
 20
5.181880
  0
SEQEND
  8
0
  0
SOLID
  8
0
 62
    15
 10
5.565120
 20
5.186720
 11
5.562480
 21
5.934720
 12
5.599880
 22
5.179680
 13
5.597240
 23
5.927680
  0
POLYLINE
  8
0
  6
CONTINUOUS
 66
     1
 40
0.000000
 41
0.000000
  0
VERTEX
  8
0
  6
CONTINUOUS
 10
5.565120
 20
5.186720
  0
VERTEX
  8
0
  6
CONTINUOUS
 10
5.562480
 20
5.934720
  0
VERTEX
  8
0
  6
CONTINUOUS
 10
5.597240
 20
5.927680
  0
VERTEX
  8
0
  6
CONTINUOUS
 10
5.599880
 20
5.179680
  0
VERTEX
  8
0
  6
CONTINUOUS
 10
5.565120
 20
5.186720
  0
SEQEND
  8
0
  0
SOLID
  8
0
 62
    15
 10
5.599880
 20
5.179680
 11
5.597240
 21
5.927680
 12
5.616600
 22
5.171320
 13
5.613960
 23
5.919320
  0
POLYLINE
  8
0
  6
CONTINUOUS
 66
     1
 40
0.000000
 41
0.000000
  0
VERTEX
  8
0
  6
CONTINUOUS
 10
5.599880
 20
5.179680
  0
VERTEX
  8
0
  6
CONTINUOUS
 10
5.597240
 20
5.927680
  0
VERTEX
  8
0
  6
CONTINUOUS
 10
5.613960
 20
5.919320
  0
VERTEX
  8
0
  6
CONTINUOUS
 10
5.616600
 20
5.171320
  0
VERTEX
  8
0
  6
CONTINUOUS
 10
5.599880
 20
5.179680
  0
SEQEND
  8
0
  0
SOLID
  8
0
 62
    15
 10
5.616600
 20
5.171320
 11
5.613960
 21
5.919320
 12
5.632440
 22
5.159000
 13
5.630240
 23
5.907000
  0
POLYLINE
  8
0
  6
CONTINUOUS
 66
     1
 40
0.000000
 41
0.000000
  0
VERTEX
  8
0
  6
CONTINUOUS
 10
5.616600
 20
5.171320
  0
VERTEX
  8
0
  6
CONTINUOUS
 10
5.613960
 20
5.919320
  0
VERTEX
  8
0
  6
CONTINUOUS
 10
5.630240
 20
5.907000
  0
VERTEX
  8
0
  6
CONTINUOUS
 10
5.632440
 20
5.159000
  0
VERTEX
  8
0
  6
CONTINUOUS
 10
5.616600
 20
5.171320
  0
SEQEND
  8
0
  0
SOLID
  8
0
 62
    15
 10
5.632440
 20
5.159000
 11
5.630240
 21
5.907000
 12
5.646960
 22
5.142720
 13
5.644760
 23
5.890720
  0
POLYLINE
  8
0
  6
CONTINUOUS
 66
     1
 40
0.000000
 41
0.000000
  0
VERTEX
  8
0
  6
CONTINUOUS
 10
5.632440
 20
5.159000
  0
VERTEX
  8
0
  6
CONTINUOUS
 10
5.630240
 20
5.907000
  0
VERTEX
  8
0
  6
CONTINUOUS
 10
5.644760
 20
5.890720
  0
VERTEX
  8
0
  6
CONTINUOUS
 10
5.646960
 20
5.142720
  0
VERTEX
  8
0
  6
CONTINUOUS
 10
5.632440
 20
5.159000
  0
SEQEND
  8
0
  0
SOLID
  8
0
 62
    15
 10
5.646960
 20
5.142720
 11
5.644760
 21
5.890720
 12
5.660160
 22
5.122040
 13
5.657520
 23
5.870040
  0
POLYLINE
  8
0
  6
CONTINUOUS
 66
     1
 40
0.000000
 41
0.000000
  0
VERTEX
  8
0
  6
CONTINUOUS
 10
5.646960
 20
5.142720
  0
VERTEX
  8
0
  6
CONTINUOUS
 10
5.644760
 20
5.890720
  0
VERTEX
  8
0
  6
CONTINUOUS
 10
5.657520
 20
5.870040
  0
VERTEX
  8
0
  6
CONTINUOUS
 10
5.660160
 20
5.122040
  0
VERTEX
  8
0
  6
CONTINUOUS
 10
5.646960
 20
5.142720
  0
SEQEND
  8
0
  0
SOLID
  8
0
 62
    15
 10
5.679080
 20
5.067040
 11
5.676440
 21
5.815040
 12
5.705040
 22
5.067040
 13
5.702840
 23
5.815040
  0
POLYLINE
  8
0
  6
CONTINUOUS
 66
     1
 40
0.000000
 41
0.000000
  0
VERTEX
  8
0
  6
CONTINUOUS
 10
5.679080
 20
5.067040
  0
VERTEX
  8
0
  6
CONTINUOUS
 10
5.676440
 20
5.815040
  0
VERTEX
  8
0
  6
CONTINUOUS
 10
5.702840
 20
5.815040
  0
VERTEX
  8
0
  6
CONTINUOUS
 10
5.705040
 20
5.067040
  0
VERTEX
  8
0
  6
CONTINUOUS
 10
5.679080
 20
5.067040
  0
SEQEND
  8
0
  0
SOLID
  8
0
 62
    15
 10
5.670720
 20
5.096960
 11
5.668520
 21
5.844960
 12
5.679080
 22
5.067040
 13
5.676440
 23
5.815040
  0
POLYLINE
  8
0
  6
CONTINUOUS
 66
     1
 40
0.000000
 41
0.000000
  0
VERTEX
  8
0
  6
CONTINUOUS
 10
5.670720
 20
5.096960
  0
VERTEX
  8
0
  6
CONTINUOUS
 10
5.668520
 20
5.844960
  0
VERTEX
  8
0
  6
CONTINUOUS
 10
5.676440
 20
5.815040
  0
VERTEX
  8
0
  6
CONTINUOUS
 10
5.679080
 20
5.067040
  0
VERTEX
  8
0
  6
CONTINUOUS
 10
5.670720
 20
5.096960
  0
SEQEND
  8
0
  0
SOLID
  8
0
 62
    15
 10
5.660160
 20
5.122040
 11
5.657520
 21
5.870040
 12
5.670720
 22
5.096960
 13
5.668520
 23
5.844960
  0
POLYLINE
  8
0
  6
CONTINUOUS
 66
     1
 40
0.000000
 41
0.000000
  0
VERTEX
  8
0
  6
CONTINUOUS
 10
5.660160
 20
5.122040
  0
VERTEX
  8
0
  6
CONTINUOUS
 10
5.657520
 20
5.870040
  0
VERTEX
  8
0
  6
CONTINUOUS
 10
5.668520
 20
5.844960
  0
VERTEX
  8
0
  6
CONTINUOUS
 10
5.670720
 20
5.096960
  0
VERTEX
  8
0
  6
CONTINUOUS
 10
5.660160
 20
5.122040
  0
SEQEND
  8
0
  0
SOLID
  8
0
 62
    15
 10
5.705040
 20
5.067040
 11
5.702840
 21
5.815040
 12
5.727040
 22
5.237320
 13
5.724840
 23
5.985320
  0
POLYLINE
  8
0
  6
CONTINUOUS
 66
     1
 40
0.000000
 41
0.000000
  0
VERTEX
  8
0
  6
CONTINUOUS
 10
5.705040
 20
5.067040
  0
VERTEX
  8
0
  6
CONTINUOUS
 10
5.702840
 20
5.815040
  0
VERTEX
  8
0
  6
CONTINUOUS
 10
5.724840
 20
5.985320
  0
VERTEX
  8
0
  6
CONTINUOUS
 10
5.727040
 20
5.237320
  0
VERTEX
  8
0
  6
CONTINUOUS
 10
5.705040
 20
5.067040
  0
SEQEND
  8
0
  0
SOLID
  8
0
 62
    15
 10
5.727040
 20
5.237320
 11
5.724840
 21
5.985320
 12
6.418720
 22
5.237320
 13
6.416080
 23
5.985320
  0
POLYLINE
  8
0
  6
CONTINUOUS
 66
     1
 40
0.000000
 41
0.000000
  0
VERTEX
  8
0
  6
CONTINUOUS
 10
5.727040
 20
5.237320
  0
VERTEX
  8
0
  6
CONTINUOUS
 10
5.724840
 20
5.985320
  0
VERTEX
  8
0
  6
CONTINUOUS
 10
6.416080
 20
5.985320
  0
VERTEX
  8
0
  6
CONTINUOUS
 10
6.418720
 20
5.237320
  0
VERTEX
  8
0
  6
CONTINUOUS
 10
5.727040
 20
5.237320
  0
SEQEND
  8
0
  0
SOLID
  8
0
 62
    15
 10
1.814560
 20
4.483160
 11
1.812360
 21
5.231160
 12
1.814560
 22
5.237320
 13
1.812360
 23
5.985320
  0
POLYLINE
  8
0
  6
CONTINUOUS
 66
     1
 40
0.000000
 41
0.000000
  0
VERTEX
  8
0
  6
CONTINUOUS
 10
1.814560
 20
4.483160
  0
VERTEX
  8
0
  6
CONTINUOUS
 10
1.812360
 20
5.231160
  0
VERTEX
  8
0
  6
CONTINUOUS
 10
1.812360
 20
5.985320
  0
VERTEX
  8
0
  6
CONTINUOUS
 10
1.814560
 20
5.237320
  0
VERTEX
  8
0
  6
CONTINUOUS
 10
1.814560
 20
4.483160
  0
SEQEND
  8
0
  0
SOLID
  8
0
 62
    15
 10
1.814560
 20
5.237320
 11
1.812360
 21
5.985320
 12
2.506240
 22
5.237320
 13
2.503600
 23
5.985320
  0
POLYLINE
  8
0
  6
CONTINUOUS
 66
     1
 40
0.000000
 41
0.000000
  0
VERTEX
  8
0
  6
CONTINUOUS
 10
1.814560
 20
5.237320
  0
VERTEX
  8
0
  6
CONTINUOUS
 10
1.812360
 20
5.985320
  0
VERTEX
  8
0
  6
CONTINUOUS
 10
2.503600
 20
5.985320
  0
VERTEX
  8
0
  6
CONTINUOUS
 10
2.506240
 20
5.237320
  0
VERTEX
  8
0
  6
CONTINUOUS
 10
1.814560
 20
5.237320
  0
SEQEND
  8
0
  0
SOLID
  8
0
 62
    15
 10
2.506240
 20
5.237320
 11
2.503600
 21
5.985320
 12
2.528240
 22
5.067040
 13
2.525600
 23
5.815040
  0
POLYLINE
  8
0
  6
CONTINUOUS
 66
     1
 40
0.000000
 41
0.000000
  0
VERTEX
  8
0
  6
CONTINUOUS
 10
2.506240
 20
5.237320
  0
VERTEX
  8
0
  6
CONTINUOUS
 10
2.503600
 20
5.985320
  0
VERTEX
  8
0
  6
CONTINUOUS
 10
2.525600
 20
5.815040
  0
VERTEX
  8
0
  6
CONTINUOUS
 10
2.528240
 20
5.067040
  0
VERTEX
  8
0
  6
CONTINUOUS
 10
2.506240
 20
5.237320
  0
SEQEND
  8
0
  0
SOLID
  8
0
 62
    15
 10
2.528240
 20
5.067040
 11
2.525600
 21
5.815040
 12
2.554200
 22
5.067040
 13
2.551560
 23
5.815040
  0
POLYLINE
  8
0
  6
CONTINUOUS
 66
     1
 40
0.000000
 41
0.000000
  0
VERTEX
  8
0
  6
CONTINUOUS
 10
2.528240
 20
5.067040
  0
VERTEX
  8
0
  6
CONTINUOUS
 10
2.525600
 20
5.815040
  0
VERTEX
  8
0
  6
CONTINUOUS
 10
2.551560
 20
5.815040
  0
VERTEX
  8
0
  6
CONTINUOUS
 10
2.554200
 20
5.067040
  0
VERTEX
  8
0
  6
CONTINUOUS
 10
2.528240
 20
5.067040
  0
SEQEND
  8
0
  0
SOLID
  8
0
 62
    15
 10
2.554200
 20
5.067040
 11
2.551560
 21
5.815040
 12
2.562120
 22
5.096960
 13
2.559920
 23
5.844960
  0
POLYLINE
  8
0
  6
CONTINUOUS
 66
     1
 40
0.000000
 41
0.000000
  0
VERTEX
  8
0
  6
CONTINUOUS
 10
2.554200
 20
5.067040
  0
VERTEX
  8
0
  6
CONTINUOUS
 10
2.551560
 20
5.815040
  0
VERTEX
  8
0
  6
CONTINUOUS
 10
2.559920
 20
5.844960
  0
VERTEX
  8
0
  6
CONTINUOUS
 10
2.562120
 20
5.096960
  0
VERTEX
  8
0
  6
CONTINUOUS
 10
2.554200
 20
5.067040
  0
SEQEND
  8
0
  0
SOLID
  8
0
 62
    15
 10
2.562120
 20
5.096960
 11
2.559920
 21
5.844960
 12
2.573120
 22
5.122040
 13
2.570480
 23
5.870040
  0
POLYLINE
  8
0
  6
CONTINUOUS
 66
     1
 40
0.000000
 41
0.000000
  0
VERTEX
  8
0
  6
CONTINUOUS
 10
2.562120
 20
5.096960
  0
VERTEX
  8
0
  6
CONTINUOUS
 10
2.559920
 20
5.844960
  0
VERTEX
  8
0
  6
CONTINUOUS
 10
2.570480
 20
5.870040
  0
VERTEX
  8
0
  6
CONTINUOUS
 10
2.573120
 20
5.122040
  0
VERTEX
  8
0
  6
CONTINUOUS
 10
2.562120
 20
5.096960
  0
SEQEND
  8
0
  0
SOLID
  8
0
 62
    15
 10
2.573120
 20
5.122040
 11
2.570480
 21
5.870040
 12
2.585880
 22
5.142720
 13
2.583680
 23
5.890720
  0
POLYLINE
  8
0
  6
CONTINUOUS
 66
     1
 40
0.000000
 41
0.000000
  0
VERTEX
  8
0
  6
CONTINUOUS
 10
2.573120
 20
5.122040
  0
VERTEX
  8
0
  6
CONTINUOUS
 10
2.570480
 20
5.870040
  0
VERTEX
  8
0
  6
CONTINUOUS
 10
2.583680
 20
5.890720
  0
VERTEX
  8
0
  6
CONTINUOUS
 10
2.585880
 20
5.142720
  0
VERTEX
  8
0
  6
CONTINUOUS
 10
2.573120
 20
5.122040
  0
SEQEND
  8
0
  0
SOLID
  8
0
 62
    15
 10
2.585880
 20
5.142720
 11
2.583680
 21
5.890720
 12
2.600400
 22
5.159000
 13
2.598200
 23
5.907000
  0
POLYLINE
  8
0
  6
CONTINUOUS
 66
     1
 40
0.000000
 41
0.000000
  0
VERTEX
  8
0
  6
CONTINUOUS
 10
2.585880
 20
5.142720
  0
VERTEX
  8
0
  6
CONTINUOUS
 10
2.583680
 20
5.890720
  0
VERTEX
  8
0
  6
CONTINUOUS
 10
2.598200
 20
5.907000
  0
VERTEX
  8
0
  6
CONTINUOUS
 10
2.600400
 20
5.159000
  0
VERTEX
  8
0
  6
CONTINUOUS
 10
2.585880
 20
5.142720
  0
SEQEND
  8
0
  0
SOLID
  8
0
 62
    15
 10
2.600400
 20
5.159000
 11
2.598200
 21
5.907000
 12
2.616240
 22
5.171320
 13
2.614040
 23
5.919320
  0
POLYLINE
  8
0
  6
CONTINUOUS
 66
     1
 40
0.000000
 41
0.000000
  0
VERTEX
  8
0
  6
CONTINUOUS
 10
2.600400
 20
5.159000
  0
VERTEX
  8
0
  6
CONTINUOUS
 10
2.598200
 20
5.907000
  0
VERTEX
  8
0
  6
CONTINUOUS
 10
2.614040
 20
5.919320
  0
VERTEX
  8
0
  6
CONTINUOUS
 10
2.616240
 20
5.171320
  0
VERTEX
  8
0
  6
CONTINUOUS
 10
2.600400
 20
5.159000
  0
SEQEND
  8
0
  0
SOLID
  8
0
 62
    15
 10
2.616240
 20
5.171320
 11
2.614040
 21
5.919320
 12
2.633400
 22
5.179680
 13
2.630760
 23
5.927680
  0
POLYLINE
  8
0
  6
CONTINUOUS
 66
     1
 40
0.000000
 41
0.000000
  0
VERTEX
  8
0
  6
CONTINUOUS
 10
2.616240
 20
5.171320
  0
VERTEX
  8
0
  6
CONTINUOUS
 10
2.614040
 20
5.919320
  0
VERTEX
  8
0
  6
CONTINUOUS
 10
2.630760
 20
5.927680
  0
VERTEX
  8
0
  6
CONTINUOUS
 10
2.633400
 20
5.179680
  0
VERTEX
  8
0
  6
CONTINUOUS
 10
2.616240
 20
5.171320
  0
SEQEND
  8
0
  0
SOLID
  8
0
 62
    15
 10
2.633400
 20
5.179680
 11
2.630760
 21
5.927680
 12
2.668160
 22
5.186720
 13
2.665960
 23
5.934720
  0
POLYLINE
  8
0
  6
CONTINUOUS
 66
     1
 40
0.000000
 41
0.000000
  0
VERTEX
  8
0
  6
CONTINUOUS
 10
2.633400
 20
5.179680
  0
VERTEX
  8
0
  6
CONTINUOUS
 10
2.630760
 20
5.927680
  0
VERTEX
  8
0
  6
CONTINUOUS
 10
2.665960
 20
5.934720
  0
VERTEX
  8
0
  6
CONTINUOUS
 10
2.668160
 20
5.186720
  0
VERTEX
  8
0
  6
CONTINUOUS
 10
2.633400
 20
5.179680
  0
SEQEND
  8
0
  0
SOLID
  8
0
 62
    15
 10
2.668160
 20
5.186720
 11
2.665960
 21
5.934720
 12
2.701600
 22
5.181880
 13
2.699400
 23
5.929880
  0
POLYLINE
  8
0
  6
CONTINUOUS
 66
     1
 40
0.000000
 41
0.000000
  0
VERTEX
  8
0
  6
CONTINUOUS
 10
2.668160
 20
5.186720
  0
VERTEX
  8
0
  6
CONTINUOUS
 10
2.665960
 20
5.934720
  0
VERTEX
  8
0
  6
CONTINUOUS
 10
2.699400
 20
5.929880
  0
VERTEX
  8
0
  6
CONTINUOUS
 10
2.701600
 20
5.181880
  0
VERTEX
  8
0
  6
CONTINUOUS
 10
2.668160
 20
5.186720
  0
SEQEND
  8
0
  0
SOLID
  8
0
 62
    15
 10
2.701600
 20
5.181880
 11
2.699400
 21
5.929880
 12
2.730640
 22
5.167360
 13
2.728440
 23
5.915360
  0
POLYLINE
  8
0
  6
CONTINUOUS
 66
     1
 40
0.000000
 41
0.000000
  0
VERTEX
  8
0
  6
CONTINUOUS
 10
2.701600
 20
5.181880
  0
VERTEX
  8
0
  6
CONTINUOUS
 10
2.699400
 20
5.929880
  0
VERTEX
  8
0
  6
CONTINUOUS
 10
2.728440
 20
5.915360
  0
VERTEX
  8
0
  6
CONTINUOUS
 10
2.730640
 20
5.167360
  0
VERTEX
  8
0
  6
CONTINUOUS
 10
2.701600
 20
5.181880
  0
SEQEND
  8
0
  0
SOLID
  8
0
 62
    15
 10
2.730640
 20
5.167360
 11
2.728440
 21
5.915360
 12
2.752200
 22
5.145360
 13
2.750000
 23
5.892920
  0
POLYLINE
  8
0
  6
CONTINUOUS
 66
     1
 40
0.000000
 41
0.000000
  0
VERTEX
  8
0
  6
CONTINUOUS
 10
2.730640
 20
5.167360
  0
VERTEX
  8
0
  6
CONTINUOUS
 10
2.728440
 20
5.915360
  0
VERTEX
  8
0
  6
CONTINUOUS
 10
2.750000
 20
5.892920
  0
VERTEX
  8
0
  6
CONTINUOUS
 10
2.752200
 20
5.145360
  0
VERTEX
  8
0
  6
CONTINUOUS
 10
2.730640
 20
5.167360
  0
SEQEND
  8
0
  0
SOLID
  8
0
 62
    15
 10
2.752200
 20
5.145360
 11
2.750000
 21
5.892920
 12
2.762760
 22
5.117200
 13
2.760120
 23
5.865200
  0
POLYLINE
  8
0
  6
CONTINUOUS
 66
     1
 40
0.000000
 41
0.000000
  0
VERTEX
  8
0
  6
CONTINUOUS
 10
2.752200
 20
5.145360
  0
VERTEX
  8
0
  6
CONTINUOUS
 10
2.750000
 20
5.892920
  0
VERTEX
  8
0
  6
CONTINUOUS
 10
2.760120
 20
5.865200
  0
VERTEX
  8
0
  6
CONTINUOUS
 10
2.762760
 20
5.117200
  0
VERTEX
  8
0
  6
CONTINUOUS
 10
2.752200
 20
5.145360
  0
SEQEND
  8
0
  0
SOLID
  8
0
 62
    15
 10
2.762760
 20
5.117200
 11
2.760120
 21
5.865200
 12
2.768480
 22
5.091680
 13
2.766280
 23
5.839680
  0
POLYLINE
  8
0
  6
CONTINUOUS
 66
     1
 40
0.000000
 41
0.000000
  0
VERTEX
  8
0
  6
CONTINUOUS
 10
2.762760
 20
5.117200
  0
VERTEX
  8
0
  6
CONTINUOUS
 10
2.760120
 20
5.865200
  0
VERTEX
  8
0
  6
CONTINUOUS
 10
2.766280
 20
5.839680
  0
VERTEX
  8
0
  6
CONTINUOUS
 10
2.768480
 20
5.091680
  0
VERTEX
  8
0
  6
CONTINUOUS
 10
2.762760
 20
5.117200
  0
SEQEND
  8
0
  0
SOLID
  8
0
 62
    15
 10
2.768480
 20
5.091680
 11
2.766280
 21
5.839680
 12
2.778600
 22
5.074080
 13
2.776400
 23
5.822080
  0
POLYLINE
  8
0
  6
CONTINUOUS
 66
     1
 40
0.000000
 41
0.000000
  0
VERTEX
  8
0
  6
CONTINUOUS
 10
2.768480
 20
5.091680
  0
VERTEX
  8
0
  6
CONTINUOUS
 10
2.766280
 20
5.839680
  0
VERTEX
  8
0
  6
CONTINUOUS
 10
2.776400
 20
5.822080
  0
VERTEX
  8
0
  6
CONTINUOUS
 10
2.778600
 20
5.074080
  0
VERTEX
  8
0
  6
CONTINUOUS
 10
2.768480
 20
5.091680
  0
SEQEND
  8
0
  0
SOLID
  8
0
 62
    15
 10
2.778600
 20
5.074080
 11
2.776400
 21
5.822080
 12
2.791800
 22
5.063520
 13
2.789600
 23
5.811520
  0
POLYLINE
  8
0
  6
CONTINUOUS
 66
     1
 40
0.000000
 41
0.000000
  0
VERTEX
  8
0
  6
CONTINUOUS
 10
2.778600
 20
5.074080
  0
VERTEX
  8
0
  6
CONTINUOUS
 10
2.776400
 20
5.822080
  0
VERTEX
  8
0
  6
CONTINUOUS
 10
2.789600
 20
5.811520
  0
VERTEX
  8
0
  6
CONTINUOUS
 10
2.791800
 20
5.063520
  0
VERTEX
  8
0
  6
CONTINUOUS
 10
2.778600
 20
5.074080
  0
SEQEND
  8
0
  0
SOLID
  8
0
 62
    15
 10
2.791800
 20
5.063520
 11
2.789600
 21
5.811520
 12
2.807200
 22
5.057800
 13
2.805000
 23
5.805800
  0
POLYLINE
  8
0
  6
CONTINUOUS
 66
     1
 40
0.000000
 41
0.000000
  0
VERTEX
  8
0
  6
CONTINUOUS
 10
2.791800
 20
5.063520
  0
VERTEX
  8
0
  6
CONTINUOUS
 10
2.789600
 20
5.811520
  0
VERTEX
  8
0
  6
CONTINUOUS
 10
2.805000
 20
5.805800
  0
VERTEX
  8
0
  6
CONTINUOUS
 10
2.807200
 20
5.057800
  0
VERTEX
  8
0
  6
CONTINUOUS
 10
2.791800
 20
5.063520
  0
SEQEND
  8
0
  0
SOLID
  8
0
 62
    15
 10
2.807200
 20
5.057800
 11
2.805000
 21
5.805800
 12
2.839320
 22
5.056040
 13
2.836680
 23
5.804040
  0
POLYLINE
  8
0
  6
CONTINUOUS
 66
     1
 40
0.000000
 41
0.000000
  0
VERTEX
  8
0
  6
CONTINUOUS
 10
2.807200
 20
5.057800
  0
VERTEX
  8
0
  6
CONTINUOUS
 10
2.805000
 20
5.805800
  0
VERTEX
  8
0
  6
CONTINUOUS
 10
2.836680
 20
5.804040
  0
VERTEX
  8
0
  6
CONTINUOUS
 10
2.839320
 20
5.056040
  0
VERTEX
  8
0
  6
CONTINUOUS
 10
2.807200
 20
5.057800
  0
SEQEND
  8
0
  0
SOLID
  8
0
 62
    15
 10
2.839320
 20
5.056040
 11
2.836680
 21
5.804040
 12
2.866600
 22
5.056920
 13
2.864400
 23
5.804920
  0
POLYLINE
  8
0
  6
CONTINUOUS
 66
     1
 40
0.000000
 41
0.000000
  0
VERTEX
  8
0
  6
CONTINUOUS
 10
2.839320
 20
5.056040
  0
VERTEX
  8
0
  6
CONTINUOUS
 10
2.836680
 20
5.804040
  0
VERTEX
  8
0
  6
CONTINUOUS
 10
2.864400
 20
5.804920
  0
VERTEX
  8
0
  6
CONTINUOUS
 10
2.866600
 20
5.056920
  0
VERTEX
  8
0
  6
CONTINUOUS
 10
2.839320
 20
5.056040
  0
SEQEND
  8
0
  0
SOLID
  8
0
 62
    15
 10
2.866600
 20
5.056920
 11
2.864400
 21
5.804920
 12
2.898720
 22
5.056920
 13
2.896520
 23
5.804920
  0
POLYLINE
  8
0
  6
CONTINUOUS
 66
     1
 40
0.000000
 41
0.000000
  0
VERTEX
  8
0
  6
CONTINUOUS
 10
2.866600
 20
5.056920
  0
VERTEX
  8
0
  6
CONTINUOUS
 10
2.864400
 20
5.804920
  0
VERTEX
  8
0
  6
CONTINUOUS
 10
2.896520
 20
5.804920
  0
VERTEX
  8
0
  6
CONTINUOUS
 10
2.898720
 20
5.056920
  0
VERTEX
  8
0
  6
CONTINUOUS
 10
2.866600
 20
5.056920
  0
SEQEND
  8
0
  0
SOLID
  8
0
 62
    15
 10
2.898720
 20
5.056920
 11
2.896520
 21
5.804920
 12
2.923800
 22
5.012040
 13
2.921600
 23
5.760040
  0
POLYLINE
  8
0
  6
CONTINUOUS
 66
     1
 40
0.000000
 41
0.000000
  0
VERTEX
  8
0
  6
CONTINUOUS
 10
2.898720
 20
5.056920
  0
VERTEX
  8
0
  6
CONTINUOUS
 10
2.896520
 20
5.804920
  0
VERTEX
  8
0
  6
CONTINUOUS
 10
2.921600
 20
5.760040
  0
VERTEX
  8
0
  6
CONTINUOUS
 10
2.923800
 20
5.012040
  0
VERTEX
  8
0
  6
CONTINUOUS
 10
2.898720
 20
5.056920
  0
SEQEND
  8
0
  0
SOLID
  8
0
 62
    15
 10
2.923800
 20
5.012040
 11
2.921600
 21
5.760040
 12
2.940080
 22
4.993120
 13
2.937440
 23
5.741120
  0
POLYLINE
  8
0
  6
CONTINUOUS
 66
     1
 40
0.000000
 41
0.000000
  0
VERTEX
  8
0
  6
CONTINUOUS
 10
2.923800
 20
5.012040
  0
VERTEX
  8
0
  6
CONTINUOUS
 10
2.921600
 20
5.760040
  0
VERTEX
  8
0
  6
CONTINUOUS
 10
2.937440
 20
5.741120
  0
VERTEX
  8
0
  6
CONTINUOUS
 10
2.940080
 20
4.993120
  0
VERTEX
  8
0
  6
CONTINUOUS
 10
2.923800
 20
5.012040
  0
SEQEND
  8
0
  0
SOLID
  8
0
 62
    15
 10
2.940080
 20
4.993120
 11
2.937440
 21
5.741120
 12
2.961200
 22
4.977280
 13
2.958560
 23
5.724840
  0
POLYLINE
  8
0
  6
CONTINUOUS
 66
     1
 40
0.000000
 41
0.000000
  0
VERTEX
  8
0
  6
CONTINUOUS
 10
2.940080
 20
4.993120
  0
VERTEX
  8
0
  6
CONTINUOUS
 10
2.937440
 20
5.741120
  0
VERTEX
  8
0
  6
CONTINUOUS
 10
2.958560
 20
5.724840
  0
VERTEX
  8
0
  6
CONTINUOUS
 10
2.961200
 20
4.977280
  0
VERTEX
  8
0
  6
CONTINUOUS
 10
2.940080
 20
4.993120
  0
SEQEND
  8
0
  0
SOLID
  8
0
 62
    15
 10
2.961200
 20
4.977280
 11
2.958560
 21
5.724840
 12
2.988920
 22
4.964080
 13
2.986280
 23
5.712080
  0
POLYLINE
  8
0
  6
CONTINUOUS
 66
     1
 40
0.000000
 41
0.000000
  0
VERTEX
  8
0
  6
CONTINUOUS
 10
2.961200
 20
4.977280
  0
VERTEX
  8
0
  6
CONTINUOUS
 10
2.958560
 20
5.724840
  0
VERTEX
  8
0
  6
CONTINUOUS
 10
2.986280
 20
5.712080
  0
VERTEX
  8
0
  6
CONTINUOUS
 10
2.988920
 20
4.964080
  0
VERTEX
  8
0
  6
CONTINUOUS
 10
2.961200
 20
4.977280
  0
SEQEND
  8
0
  0
SOLID
  8
0
 62
    15
 10
2.988920
 20
4.964080
 11
2.986280
 21
5.712080
 12
3.025000
 22
4.954840
 13
3.022800
 23
5.702840
  0
POLYLINE
  8
0
  6
CONTINUOUS
 66
     1
 40
0.000000
 41
0.000000
  0
VERTEX
  8
0
  6
CONTINUOUS
 10
2.988920
 20
4.964080
  0
VERTEX
  8
0
  6
CONTINUOUS
 10
2.986280
 20
5.712080
  0
VERTEX
  8
0
  6
CONTINUOUS
 10
3.022800
 20
5.702840
  0
VERTEX
  8
0
  6
CONTINUOUS
 10
3.025000
 20
4.954840
  0
VERTEX
  8
0
  6
CONTINUOUS
 10
2.988920
 20
4.964080
  0
SEQEND
  8
0
  0
SOLID
  8
0
 62
    15
 10
3.025000
 20
4.954840
 11
3.022800
 21
5.702840
 12
3.072080
 22
4.948680
 13
3.069440
 23
5.696680
  0
POLYLINE
  8
0
  6
CONTINUOUS
 66
     1
 40
0.000000
 41
0.000000
  0
VERTEX
  8
0
  6
CONTINUOUS
 10
3.025000
 20
4.954840
  0
VERTEX
  8
0
  6
CONTINUOUS
 10
3.022800
 20
5.702840
  0
VERTEX
  8
0
  6
CONTINUOUS
 10
3.069440
 20
5.696680
  0
VERTEX
  8
0
  6
CONTINUOUS
 10
3.072080
 20
4.948680
  0
VERTEX
  8
0
  6
CONTINUOUS
 10
3.025000
 20
4.954840
  0
SEQEND
  8
0
  0
SOLID
  8
0
 62
    15
 10
3.072080
 20
4.948680
 11
3.069440
 21
5.696680
 12
3.099800
 22
4.947360
 13
3.097600
 23
5.695360
  0
POLYLINE
  8
0
  6
CONTINUOUS
 66
     1
 40
0.000000
 41
0.000000
  0
VERTEX
  8
0
  6
CONTINUOUS
 10
3.072080
 20
4.948680
  0
VERTEX
  8
0
  6
CONTINUOUS
 10
3.069440
 20
5.696680
  0
VERTEX
  8
0
  6
CONTINUOUS
 10
3.097600
 20
5.695360
  0
VERTEX
  8
0
  6
CONTINUOUS
 10
3.099800
 20
4.947360
  0
VERTEX
  8
0
  6
CONTINUOUS
 10
3.072080
 20
4.948680
  0
SEQEND
  8
0
  0
SOLID
  8
0
 62
    15
 10
3.099800
 20
4.947360
 11
3.097600
 21
5.695360
 12
3.131480
 22
4.946920
 13
3.128840
 23
5.694920
  0
POLYLINE
  8
0
  6
CONTINUOUS
 66
     1
 40
0.000000
 41
0.000000
  0
VERTEX
  8
0
  6
CONTINUOUS
 10
3.099800
 20
4.947360
  0
VERTEX
  8
0
  6
CONTINUOUS
 10
3.097600
 20
5.695360
  0
VERTEX
  8
0
  6
CONTINUOUS
 10
3.128840
 20
5.694920
  0
VERTEX
  8
0
  6
CONTINUOUS
 10
3.131480
 20
4.946920
  0
VERTEX
  8
0
  6
CONTINUOUS
 10
3.099800
 20
4.947360
  0
SEQEND
  8
0
  0
SOLID
  8
0
 62
    15
 10
3.131480
 20
4.946920
 11
3.128840
 21
5.694920
 12
3.145560
 22
4.880480
 13
3.142920
 23
5.628480
  0
POLYLINE
  8
0
  6
CONTINUOUS
 66
     1
 40
0.000000
 41
0.000000
  0
VERTEX
  8
0
  6
CONTINUOUS
 10
3.131480
 20
4.946920
  0
VERTEX
  8
0
  6
CONTINUOUS
 10
3.128840
 20
5.694920
  0
VERTEX
  8
0
  6
CONTINUOUS
 10
3.142920
 20
5.628480
  0
VERTEX
  8
0
  6
CONTINUOUS
 10
3.145560
 20
4.880480
  0
VERTEX
  8
0
  6
CONTINUOUS
 10
3.131480
 20
4.946920
  0
SEQEND
  8
0
  0
SOLID
  8
0
 62
    15
 10
3.145560
 20
4.880480
 11
3.142920
 21
5.628480
 12
3.602280
 22
4.880480
 13
3.600080
 23
5.628480
  0
POLYLINE
  8
0
  6
CONTINUOUS
 66
     1
 40
0.000000
 41
0.000000
  0
VERTEX
  8
0
  6
CONTINUOUS
 10
3.145560
 20
4.880480
  0
VERTEX
  8
0
  6
CONTINUOUS
 10
3.142920
 20
5.628480
  0
VERTEX
  8
0
  6
CONTINUOUS
 10
3.600080
 20
5.628480
  0
VERTEX
  8
0
  6
CONTINUOUS
 10
3.602280
 20
4.880480
  0
VERTEX
  8
0
  6
CONTINUOUS
 10
3.145560
 20
4.880480
  0
SEQEND
  8
0
  0
SOLID
  8
0
 62
    15
 10
3.602280
 20
4.880480
 11
3.600080
 21
5.628480
 12
3.628680
 22
4.782360
 13
3.626040
 23
5.530360
  0
POLYLINE
  8
0
  6
CONTINUOUS
 66
     1
 40
0.000000
 41
0.000000
  0
VERTEX
  8
0
  6
CONTINUOUS
 10
3.602280
 20
4.880480
  0
VERTEX
  8
0
  6
CONTINUOUS
 10
3.600080
 20
5.628480
  0
VERTEX
  8
0
  6
CONTINUOUS
 10
3.626040
 20
5.530360
  0
VERTEX
  8
0
  6
CONTINUOUS
 10
3.628680
 20
4.782360
  0
VERTEX
  8
0
  6
CONTINUOUS
 10
3.602280
 20
4.880480
  0
SEQEND
  8
0
  0
SOLID
  8
0
 62
    15
 10
3.628680
 20
4.782360
 11
3.626040
 21
5.530360
 12
3.628680
 22
4.782360
 13
3.626480
 23
5.530360
  0
POLYLINE
  8
0
  6
CONTINUOUS
 66
     1
 40
0.000000
 41
0.000000
  0
VERTEX
  8
0
  6
CONTINUOUS
 10
3.628680
 20
4.782360
  0
VERTEX
  8
0
  6
CONTINUOUS
 10
3.626040
 20
5.530360
  0
VERTEX
  8
0
  6
CONTINUOUS
 10
3.626480
 20
5.530360
  0
VERTEX
  8
0
  6
CONTINUOUS
 10
3.628680
 20
4.782360
  0
SEQEND
  8
0
  0
POLYLINE
  8
0
  6
CONTINUOUS
 66
     1
 40
0.000000
 41
0.000000
  0
VERTEX
  8
0
  6
CONTINUOUS
 10
3.628680
 20
4.782360
  0
VERTEX
  8
0
  6
CONTINUOUS
 10
3.664320
 20
4.782360
  0
VERTEX
  8
0
  6
CONTINUOUS
 10
3.666960
 20
4.818880
  0
VERTEX
  8
0
  6
CONTINUOUS
 10
3.675320
 20
4.850560
  0
VERTEX
  8
0
  6
CONTINUOUS
 10
3.687640
 20
4.877400
  0
VERTEX
  8
0
  6
CONTINUOUS
 10
3.703920
 20
4.899400
  0
VERTEX
  8
0
  6
CONTINUOUS
 10
3.723280
 20
4.916560
  0
VERTEX
  8
0
  6
CONTINUOUS
 10
3.745280
 20
4.928880
  0
VERTEX
  8
0
  6
CONTINUOUS
 10
3.768160
 20
4.935920
  0
VERTEX
  8
0
  6
CONTINUOUS
 10
3.791920
 20
4.938560
  0
VERTEX
  8
0
  6
CONTINUOUS
 10
3.815680
 20
4.936360
  0
VERTEX
  8
0
  6
CONTINUOUS
 10
3.839000
 20
4.928880
  0
VERTEX
  8
0
  6
CONTINUOUS
 10
3.860560
 20
4.916560
  0
VERTEX
  8
0
  6
CONTINUOUS
 10
3.879920
 20
4.899840
  0
VERTEX
  8
0
  6
CONTINUOUS
 10
3.896200
 20
4.877840
  0
VERTEX
  8
0
  6
CONTINUOUS
 10
3.908960
 20
4.851000
  0
VERTEX
  8
0
  6
CONTINUOUS
 10
3.916880
 20
4.818880
  0
VERTEX
  8
0
  6
CONTINUOUS
 10
3.919960
 20
4.782360
  0
VERTEX
  8
0
  6
CONTINUOUS
 10
3.988600
 20
4.782360
  0
VERTEX
  8
0
  6
CONTINUOUS
 10
3.991680
 20
4.818880
  0
VERTEX
  8
0
  6
CONTINUOUS
 10
3.999600
 20
4.850560
  0
VERTEX
  8
0
  6
CONTINUOUS
 10
4.012360
 20
4.877400
  0
VERTEX
  8
0
  6
CONTINUOUS
 10
4.028640
 20
4.899400
  0
VERTEX
  8
0
  6
CONTINUOUS
 10
4.048000
 20
4.916560
  0
VERTEX
  8
0
  6
CONTINUOUS
 10
4.069560
 20
4.928880
  0
VERTEX
  8
0
  6
CONTINUOUS
 10
4.092440
 20
4.936360
  0
VERTEX
  8
0
  6
CONTINUOUS
 10
4.116640
 20
4.938560
  0
VERTEX
  8
0
  6
CONTINUOUS
 10
4.140400
 20
4.936360
  0
VERTEX
  8
0
  6
CONTINUOUS
 10
4.163720
 20
4.928880
  0
VERTEX
  8
0
  6
CONTINUOUS
 10
4.185280
 20
4.916560
  0
VERTEX
  8
0
  6
CONTINUOUS
 10
4.204640
 20
4.899400
  0
VERTEX
  8
0
  6
CONTINUOUS
 10
4.220920
 20
4.877400
  0
VERTEX
  8
0
  6
CONTINUOUS
 10
4.233680
 20
4.850560
  0
VERTEX
  8
0
  6
CONTINUOUS
 10
4.241600
 20
4.818880
  0
VERTEX
  8
0
  6
CONTINUOUS
 10
4.244680
 20
4.782360
  0
VERTEX
  8
0
  6
CONTINUOUS
 10
4.313320
 20
4.782360
  0
VERTEX
  8
0
  6
CONTINUOUS
 10
4.316400
 20
4.818880
  0
VERTEX
  8
0
  6
CONTINUOUS
 10
4.324320
 20
4.851000
  0
VERTEX
  8
0
  6
CONTINUOUS
 10
4.337080
 20
4.877840
  0
VERTEX
  8
0
  6
CONTINUOUS
 10
4.353360
 20
4.899840
  0
VERTEX
  8
0
  6
CONTINUOUS
 10
4.372720
 20
4.916560
  0
VERTEX
  8
0
  6
CONTINUOUS
 10
4.394280
 20
4.928880
  0
VERTEX
  8
0
  6
CONTINUOUS
 10
4.417160
 20
4.936360
  0
VERTEX
  8
0
  6
CONTINUOUS
 10
4.441360
 20
4.938560
  0
VERTEX
  8
0
  6
CONTINUOUS
 10
4.465120
 20
4.935920
  0
VERTEX
  8
0
  6
CONTINUOUS
 10
4.488000
 20
4.928880
  0
VERTEX
  8
0
  6
CONTINUOUS
 10
4.509560
 20
4.916560
  0
VERTEX
  8
0
  6
CONTINUOUS
 10
4.528920
 20
4.899400
  0
VERTEX
  8
0
  6
CONTINUOUS
 10
4.545200
 20
4.877400
  0
VERTEX
  8
0
  6
CONTINUOUS
 10
4.557960
 20
4.850560
  0
VERTEX
  8
0
  6
CONTINUOUS
 10
4.565880
 20
4.818880
  0
VERTEX
  8
0
  6
CONTINUOUS
 10
4.568960
 20
4.782360
  0
VERTEX
  8
0
  6
CONTINUOUS
 10
4.604600
 20
4.782360
  0
VERTEX
  8
0
  6
CONTINUOUS
 10
4.631000
 20
4.880480
  0
VERTEX
  8
0
  6
CONTINUOUS
 10
5.087720
 20
4.880480
  0
VERTEX
  8
0
  6
CONTINUOUS
 10
5.101800
 20
4.946920
  0
VERTEX
  8
0
  6
CONTINUOUS
 10
5.161200
 20
4.948680
  0
VERTEX
  8
0
  6
CONTINUOUS
 10
5.207840
 20
4.954840
  0
VERTEX
  8
0
  6
CONTINUOUS
 10
5.244360
 20
4.964080
  0
VERTEX
  8
0
  6
CONTINUOUS
 10
5.272080
 20
4.977280
  0
VERTEX
  8
0
  6
CONTINUOUS
 10
5.293200
 20
4.993120
  0
VERTEX
  8
0
  6
CONTINUOUS
 10
5.309040
 20
5.012040
  0
VERTEX
  8
0
  6
CONTINUOUS
 10
5.334120
 20
5.056920
  0
VERTEX
  8
0
  6
CONTINUOUS
 10
5.393960
 20
5.056040
  0
VERTEX
  8
0
  6
CONTINUOUS
 10
5.426080
 20
5.057800
  0
VERTEX
  8
0
  6
CONTINUOUS
 10
5.441040
 20
5.063520
  0
VERTEX
  8
0
  6
CONTINUOUS
 10
5.454240
 20
5.074080
  0
VERTEX
  8
0
  6
CONTINUOUS
 10
5.464360
 20
5.091680
  0
VERTEX
  8
0
  6
CONTINUOUS
 10
5.470520
 20
5.117200
  0
VERTEX
  8
0
  6
CONTINUOUS
 10
5.480640
 20
5.145360
  0
VERTEX
  8
0
  6
CONTINUOUS
 10
5.502200
 20
5.167360
  0
VERTEX
  8
0
  6
CONTINUOUS
 10
5.531240
 20
5.181880
  0
VERTEX
  8
0
  6
CONTINUOUS
 10
5.565120
 20
5.186720
  0
VERTEX
  8
0
  6
CONTINUOUS
 10
5.599880
 20
5.179680
  0
VERTEX
  8
0
  6
CONTINUOUS
 10
5.616600
 20
5.171320
  0
VERTEX
  8
0
  6
CONTINUOUS
 10
5.632440
 20
5.159000
  0
VERTEX
  8
0
  6
CONTINUOUS
 10
5.646960
 20
5.142720
  0
VERTEX
  8
0
  6
CONTINUOUS
 10
5.660160
 20
5.122040
  0
VERTEX
  8
0
  6
CONTINUOUS
 10
5.670720
 20
5.096960
  0
VERTEX
  8
0
  6
CONTINUOUS
 10
5.679080
 20
5.067040
  0
VERTEX
  8
0
  6
CONTINUOUS
 10
5.705040
 20
5.067040
  0
VERTEX
  8
0
  6
CONTINUOUS
 10
5.727040
 20
5.237320
  0
VERTEX
  8
0
  6
CONTINUOUS
 10
6.418720
 20
5.237320
  0
VERTEX
  8
0
  6
CONTINUOUS
 10
6.418280
 20
4.483160
  0
VERTEX
  8
0
  6
CONTINUOUS
 10
1.814560
 20
4.483160
  0
VERTEX
  8
0
  6
CONTINUOUS
 10
1.814560
 20
5.237320
  0
VERTEX
  8
0
  6
CONTINUOUS
 10
2.506240
 20
5.237320
  0
VERTEX
  8
0
  6
CONTINUOUS
 10
2.528240
 20
5.067040
  0
VERTEX
  8
0
  6
CONTINUOUS
 10
2.554200
 20
5.067040
  0
VERTEX
  8
0
  6
CONTINUOUS
 10
2.562120
 20
5.096960
  0
VERTEX
  8
0
  6
CONTINUOUS
 10
2.573120
 20
5.122040
  0
VERTEX
  8
0
  6
CONTINUOUS
 10
2.585880
 20
5.142720
  0
VERTEX
  8
0
  6
CONTINUOUS
 10
2.600400
 20
5.159000
  0
VERTEX
  8
0
  6
CONTINUOUS
 10
2.616240
 20
5.171320
  0
VERTEX
  8
0
  6
CONTINUOUS
 10
2.633400
 20
5.179680
  0
VERTEX
  8
0
  6
CONTINUOUS
 10
2.668160
 20
5.186720
  0
VERTEX
  8
0
  6
CONTINUOUS
 10
2.701600
 20
5.181880
  0
VERTEX
  8
0
  6
CONTINUOUS
 10
2.730640
 20
5.167360
  0
VERTEX
  8
0
  6
CONTINUOUS
 10
2.752200
 20
5.145360
  0
VERTEX
  8
0
  6
CONTINUOUS
 10
2.762760
 20
5.117200
  0
VERTEX
  8
0
  6
CONTINUOUS
 10
2.768480
 20
5.091680
  0
VERTEX
  8
0
  6
CONTINUOUS
 10
2.778600
 20
5.074080
  0
VERTEX
  8
0
  6
CONTINUOUS
 10
2.791800
 20
5.063520
  0
VERTEX
  8
0
  6
CONTINUOUS
 10
2.807200
 20
5.057800
  0
VERTEX
  8
0
  6
CONTINUOUS
 10
2.839320
 20
5.056040
  0
VERTEX
  8
0
  6
CONTINUOUS
 10
2.898720
 20
5.056920
  0
VERTEX
  8
0
  6
CONTINUOUS
 10
2.923800
 20
5.012040
  0
VERTEX
  8
0
  6
CONTINUOUS
 10
2.940080
 20
4.993120
  0
VERTEX
  8
0
  6
CONTINUOUS
 10
2.961200
 20
4.977280
  0
VERTEX
  8
0
  6
CONTINUOUS
 10
2.988920
 20
4.964080
  0
VERTEX
  8
0
  6
CONTINUOUS
 10
3.025000
 20
4.954840
  0
VERTEX
  8
0
  6
CONTINUOUS
 10
3.072080
 20
4.948680
  0
VERTEX
  8
0
  6
CONTINUOUS
 10
3.131480
 20
4.946920
  0
VERTEX
  8
0
  6
CONTINUOUS
 10
3.145560
 20
4.880480
  0
VERTEX
  8
0
  6
CONTINUOUS
 10
3.602280
 20
4.880480
  0
VERTEX
  8
0
  6
CONTINUOUS
 10
3.628680
 20
4.782360
  0
SEQEND
  8
0
  0
TEXT
  8
0
 10
3.857040
 20
4.218720
 40
0.138192
  1
BA 1252
 41
1.000000
  7
SN0
 71
     0
 72
     5
 11
4.493460
 21
4.218720
  0
TEXT
  8
0
 10
3.724160
 20
4.027320
 40
0.138192
  1
3/4" x 4-5/8"
 41
1.000000
  7
SN0
 71
     0
 72
     5
 11
4.625103
 21
4.027320
  0
TEXT
  8
0
 10
5.788640
 20
4.745400
 40
0.115160
  1
Rosette
 41
1.000000
  7
SN0
 71
     0
 72
     5
 11
6.265066
 21
4.745400
  0
TEXT
  8
0
 10
5.742440
 20
4.585680
 40
0.115160
  1
BA  1253
 41
1.000000
  7
SN0
 71
     0
 72
     5
 11
6.311070
 21
4.585680
  0
ENDSEC
  0
EOF
