  0
SECTION
  2
HEADER
  9
$ACADVER
  1
AC1006
  9
$EXTMIN
 10
2.429240
 20
1.682560
  9
$EXTMAX
 10
6.563480
 20
8.373640
  9
$LTSCALE
 40
0.044000
  9
$PDMODE
 70
    35
  9
$PDSIZE
 40
0.035200
  0
ENDSEC
  0
SECTION
  2
TABLES
  0
TABLE
  2
LTYPE
 70
     9
  0
LTYPE
  2
CONTINUOUS
 70
    64
  3
Solid line
 72
    65
 73
     0
 40
0.000000
  0
LTYPE
  2
DASHED
 70
    64
  3
__ __ __ __ __ __ __ __ __ __ __ __ __ __ __
 72
    65
 73
     2
 40
0.000330
 49
0.000220
 49
-0.000110
  0
LTYPE
  2
HIDDEN
 70
    64
  3
 _ _ _ _ _ _ _ _ _ _ _ _ _ _ _ _ _ _ _ _ _ _
 72
    65
 73
     2
 40
0.000165
 49
0.000110
 49
-0.000055
  0
LTYPE
  2
CENTER
 70
    64
  3
____ _ ____ _ ____ _ ____ _ ____ _ ____ _ ____
 72
    65
 73
     4
 40
0.000880
 49
0.000550
 49
-0.000110
 49
0.000110
 49
-0.000110
  0
LTYPE
  2
PHANTOM
 70
    64
  3
_____ _ _ _____ _ _ _____ _ _ _____ _ _ ____
 72
    65
 73
     6
 40
0.001100
 49
0.000550
 49
-0.000110
 49
0.000110
 49
-0.000110
 49
0.000110
 49
-0.000110
  0
LTYPE
  2
DOT
 70
    64
  3
...............................................
 72
    65
 73
     2
 40
0.000110
 49
0.000000
 49
-0.000110
  0
LTYPE
  2
DASHDOT
 70
    64
  3
__ . __ . __ . __ . __ . __ . __ . __ . __ . __
 72
    65
 73
     4
 40
0.000440
 49
0.000220
 49
-0.000110
 49
0.000000
 49
-0.000110
  0
LTYPE
  2
BORDER
 70
    64
  3
__ __ . __ __ . __ __ . __ __ . __ __ . __ __
 72
    65
 73
     6
 40
0.000770
 49
0.000220
 49
-0.000110
 49
0.000220
 49
-0.000110
 49
0.000000
 49
-0.000110
  0
LTYPE
  2
DIVIDE
 70
    64
  3
__ . . __ . . __ . . __ . . __ . . __ . . __
 72
    65
 73
     6
 40
0.000550
 49
0.000220
 49
-0.000110
 49
0.000000
 49
-0.000110
 49
0.000000
 49
-0.000110
  0
LTYPE
  2
DOTDOT
 70
    64
  3
 . .  . .  . .  . .  . .  . . 
 72
    65
 73
     5
 40
0.000242
 49
-0.000110
 49
0.000000
 49
-0.000110
 49
0.000000
 49
-0.000110
  0
ENDTAB
  0
TABLE
  2
STYLE
 70
     2
  0
STYLE
 70
     0
  2
SN0
 40
0.000000
 41
0.000440
 50
0.000000
 71
     0
 42
0.000000
  3
ROMAND
  0
STYLE
 70
    68
  2
SV0
 40
0.000000
 41
0.000440
 50
0.000000
 71
     0
 42
0.000000
  3
ROMAND
  0
ENDTAB
  0
TABLE
  2
LAYER
 70
     3
  0
LAYER
  2
FOREGROUND
 70
    64
 62
     7
  6
CONTINUOUS
  0
LAYER
  2
BACKGROUND
 70
    65
 62
    -7
  6
CONTINUOUS
  0
LAYER
  2
0
 70
    64
 62
     7
  6
CONTINUOUS
  0
ENDTAB
  0
ENDSEC
  0
SECTION
  2
ENTITIES
  0
POLYLINE
  8
FOREGROUND
  6
CONTINUOUS
 66
     1
 40
0.000000
 41
0.000000
  0
VERTEX
  8
FOREGROUND
  6
CONTINUOUS
 10
0.000000
 20
10.056200
  0
VERTEX
  8
FOREGROUND
  6
CONTINUOUS
 10
8.499920
 20
10.056200
  0
VERTEX
  8
FOREGROUND
  6
CONTINUOUS
 10
8.499920
 20
-0.943800
  0
VERTEX
  8
FOREGROUND
  6
CONTINUOUS
 10
0.000000
 20
-0.943800
  0
VERTEX
  8
FOREGROUND
  6
CONTINUOUS
 10
0.000000
 20
10.056200
  0
SEQEND
  8
0
  0
POLYLINE
  8
FOREGROUND
  6
CONTINUOUS
 66
     1
 40
0.000000
 41
0.000000
  0
VERTEX
  8
FOREGROUND
  6
CONTINUOUS
 10
0.000000
 20
10.056200
  0
VERTEX
  8
FOREGROUND
  6
CONTINUOUS
 10
8.499920
 20
10.056200
  0
VERTEX
  8
FOREGROUND
  6
CONTINUOUS
 10
8.499920
 20
-0.943800
  0
VERTEX
  8
FOREGROUND
  6
CONTINUOUS
 10
0.000000
 20
-0.943800
  0
VERTEX
  8
FOREGROUND
  6
CONTINUOUS
 10
0.000000
 20
10.056200
  0
SEQEND
  8
0
  0
POLYLINE
  8
0
  6
CONTINUOUS
 66
     1
 40
0.014080
 41
0.014080
  0
VERTEX
  8
0
  6
CONTINUOUS
 10
6.048680
 20
7.618160
  0
VERTEX
  8
0
  6
CONTINUOUS
 10
3.490520
 20
7.618160
  0
VERTEX
  8
0
  6
CONTINUOUS
 10
2.951960
 20
8.098200
  0
VERTEX
  8
0
  6
CONTINUOUS
 10
3.156120
 20
8.317760
  0
VERTEX
  8
0
  6
CONTINUOUS
 10
3.399440
 20
8.166840
  0
VERTEX
  8
0
  6
CONTINUOUS
 10
3.400320
 20
8.190600
  0
VERTEX
  8
0
  6
CONTINUOUS
 10
3.404280
 20
8.213040
  0
VERTEX
  8
0
  6
CONTINUOUS
 10
3.415280
 20
8.243400
  0
VERTEX
  8
0
  6
CONTINUOUS
 10
3.431560
 20
8.270680
  0
VERTEX
  8
0
  6
CONTINUOUS
 10
3.445200
 20
8.286960
  0
VERTEX
  8
0
  6
CONTINUOUS
 10
3.460600
 20
8.301920
  0
VERTEX
  8
0
  6
CONTINUOUS
 10
3.477760
 20
8.315120
  0
VERTEX
  8
0
  6
CONTINUOUS
 10
3.516480
 20
8.337560
  0
VERTEX
  8
0
  6
CONTINUOUS
 10
3.560480
 20
8.353400
  0
VERTEX
  8
0
  6
CONTINUOUS
 10
3.607120
 20
8.362640
  0
VERTEX
  8
0
  6
CONTINUOUS
 10
3.631320
 20
8.365280
  0
VERTEX
  8
0
  6
CONTINUOUS
 10
3.655520
 20
8.366160
  0
VERTEX
  8
0
  6
CONTINUOUS
 10
3.704360
 20
8.363080
  0
VERTEX
  8
0
  6
CONTINUOUS
 10
3.751440
 20
8.352960
  0
VERTEX
  8
0
  6
CONTINUOUS
 10
3.773880
 20
8.345920
  0
VERTEX
  8
0
  6
CONTINUOUS
 10
3.795440
 20
8.337120
  0
VERTEX
  8
0
  6
CONTINUOUS
 10
3.816120
 20
8.326120
  0
VERTEX
  8
0
  6
CONTINUOUS
 10
3.835480
 20
8.313800
  0
VERTEX
  8
0
  6
CONTINUOUS
 10
3.853080
 20
8.300160
  0
VERTEX
  8
0
  6
CONTINUOUS
 10
3.876840
 20
8.275960
  0
VERTEX
  8
0
  6
CONTINUOUS
 10
3.895760
 20
8.247800
  0
VERTEX
  8
0
  6
CONTINUOUS
 10
3.909840
 20
8.216120
  0
VERTEX
  8
0
  6
CONTINUOUS
 10
3.916000
 20
8.192360
  0
VERTEX
  8
0
  6
CONTINUOUS
 10
3.919520
 20
8.167280
  0
VERTEX
  8
0
  6
CONTINUOUS
 10
3.919960
 20
8.154080
  0
VERTEX
  8
0
  6
CONTINUOUS
 10
4.556640
 20
8.140000
  0
VERTEX
  8
0
  6
CONTINUOUS
 10
4.571160
 20
8.111840
  0
VERTEX
  8
0
  6
CONTINUOUS
 10
4.592280
 20
8.086320
  0
VERTEX
  8
0
  6
CONTINUOUS
 10
4.619120
 20
8.063440
  0
VERTEX
  8
0
  6
CONTINUOUS
 10
4.650800
 20
8.043200
  0
VERTEX
  8
0
  6
CONTINUOUS
 10
4.686000
 20
8.026480
  0
VERTEX
  8
0
  6
CONTINUOUS
 10
4.723840
 20
8.013280
  0
VERTEX
  8
0
  6
CONTINUOUS
 10
4.764320
 20
8.004040
  0
VERTEX
  8
0
  6
CONTINUOUS
 10
4.805680
 20
7.999640
  0
VERTEX
  8
0
  6
CONTINUOUS
 10
4.847040
 20
7.999640
  0
VERTEX
  8
0
  6
CONTINUOUS
 10
4.887960
 20
8.004920
  0
VERTEX
  8
0
  6
CONTINUOUS
 10
4.927560
 20
8.015920
  0
VERTEX
  8
0
  6
CONTINUOUS
 10
4.946480
 20
8.023400
  0
VERTEX
  8
0
  6
CONTINUOUS
 10
4.982120
 20
8.043200
  0
VERTEX
  8
0
  6
CONTINUOUS
 10
5.013800
 20
8.069160
  0
VERTEX
  8
0
  6
CONTINUOUS
 10
5.041080
 20
8.102160
  0
VERTEX
  8
0
  6
CONTINUOUS
 10
5.062640
 20
8.142200
  0
VERTEX
  8
0
  6
CONTINUOUS
 10
5.078480
 20
8.183120
  0
VERTEX
  8
0
  6
CONTINUOUS
 10
5.096520
 20
8.216120
  0
VERTEX
  8
0
  6
CONTINUOUS
 10
5.118960
 20
8.244720
  0
VERTEX
  8
0
  6
CONTINUOUS
 10
5.144480
 20
8.269360
  0
VERTEX
  8
0
  6
CONTINUOUS
 10
5.172640
 20
8.290040
  0
VERTEX
  8
0
  6
CONTINUOUS
 10
5.203440
 20
8.306320
  0
VERTEX
  8
0
  6
CONTINUOUS
 10
5.235120
 20
8.319080
  0
VERTEX
  8
0
  6
CONTINUOUS
 10
5.267240
 20
8.327440
  0
VERTEX
  8
0
  6
CONTINUOUS
 10
5.299360
 20
8.331840
  0
VERTEX
  8
0
  6
CONTINUOUS
 10
5.330600
 20
8.332720
  0
VERTEX
  8
0
  6
CONTINUOUS
 10
5.360520
 20
8.329640
  0
VERTEX
  8
0
  6
CONTINUOUS
 10
5.388240
 20
8.322600
  0
VERTEX
  8
0
  6
CONTINUOUS
 10
5.412880
 20
8.311600
  0
VERTEX
  8
0
  6
CONTINUOUS
 10
5.433560
 20
8.296640
  0
VERTEX
  8
0
  6
CONTINUOUS
 10
5.442800
 20
8.288280
  0
VERTEX
  8
0
  6
CONTINUOUS
 10
5.456880
 20
8.268040
  0
VERTEX
  8
0
  6
CONTINUOUS
 10
5.462160
 20
8.256160
  0
VERTEX
  8
0
  6
CONTINUOUS
 10
5.465680
 20
8.243840
  0
VERTEX
  8
0
  6
CONTINUOUS
 10
5.495160
 20
8.283000
  0
VERTEX
  8
0
  6
CONTINUOUS
 10
5.525960
 20
8.313360
  0
VERTEX
  8
0
  6
CONTINUOUS
 10
5.557640
 20
8.336240
  0
VERTEX
  8
0
  6
CONTINUOUS
 10
5.573480
 20
8.345040
  0
VERTEX
  8
0
  6
CONTINUOUS
 10
5.589760
 20
8.352080
  0
VERTEX
  8
0
  6
CONTINUOUS
 10
5.623200
 20
8.361320
  0
VERTEX
  8
0
  6
CONTINUOUS
 10
5.656640
 20
8.365280
  0
VERTEX
  8
0
  6
CONTINUOUS
 10
5.673360
 20
8.365280
  0
VERTEX
  8
0
  6
CONTINUOUS
 10
5.706800
 20
8.362200
  0
VERTEX
  8
0
  6
CONTINUOUS
 10
5.740680
 20
8.355160
  0
VERTEX
  8
0
  6
CONTINUOUS
 10
5.790400
 20
8.339320
  0
VERTEX
  8
0
  6
CONTINUOUS
 10
5.822960
 20
8.326560
  0
VERTEX
  8
0
  6
CONTINUOUS
 10
5.971240
 20
8.258360
  0
VERTEX
  8
0
  6
CONTINUOUS
 10
5.997640
 20
8.250000
  0
VERTEX
  8
0
  6
CONTINUOUS
 10
6.024920
 20
8.245160
  0
VERTEX
  8
0
  6
CONTINUOUS
 10
6.038560
 20
8.243840
  0
VERTEX
  8
0
  6
CONTINUOUS
 10
6.066280
 20
8.243840
  0
VERTEX
  8
0
  6
CONTINUOUS
 10
6.107200
 20
8.249120
  0
VERTEX
  8
0
  6
CONTINUOUS
 10
6.134480
 20
8.255280
  0
VERTEX
  8
0
  6
CONTINUOUS
 10
6.185960
 20
8.272440
  0
VERTEX
  8
0
  6
CONTINUOUS
 10
6.233480
 20
8.294000
  0
VERTEX
  8
0
  6
CONTINUOUS
 10
6.274840
 20
8.316440
  0
VERTEX
  8
0
  6
CONTINUOUS
 10
6.330720
 20
8.352520
  0
VERTEX
  8
0
  6
CONTINUOUS
 10
6.553360
 20
8.138680
  0
VERTEX
  8
0
  6
CONTINUOUS
 10
6.048680
 20
7.618160
  0
SEQEND
  8
0
  0
SOLID
  8
0
 62
    15
 10
3.852200
 20
5.463920
 11
4.500320
 21
5.099160
 12
3.850000
 22
5.393080
 13
4.498120
 23
5.027880
  0
POLYLINE
  8
0
  6
CONTINUOUS
 66
     1
 40
0.000000
 41
0.000000
  0
VERTEX
  8
0
  6
CONTINUOUS
 10
3.852200
 20
5.463920
  0
VERTEX
  8
0
  6
CONTINUOUS
 10
4.500320
 20
5.099160
  0
VERTEX
  8
0
  6
CONTINUOUS
 10
4.498120
 20
5.027880
  0
VERTEX
  8
0
  6
CONTINUOUS
 10
3.850000
 20
5.393080
  0
VERTEX
  8
0
  6
CONTINUOUS
 10
3.852200
 20
5.463920
  0
SEQEND
  8
0
  0
SOLID
  8
0
 62
    15
 10
5.311680
 20
6.761920
 11
5.959800
 21
6.396720
 12
5.031840
 22
6.700760
 13
5.679960
 23
6.335560
  0
POLYLINE
  8
0
  6
CONTINUOUS
 66
     1
 40
0.000000
 41
0.000000
  0
VERTEX
  8
0
  6
CONTINUOUS
 10
5.311680
 20
6.761920
  0
VERTEX
  8
0
  6
CONTINUOUS
 10
5.959800
 20
6.396720
  0
VERTEX
  8
0
  6
CONTINUOUS
 10
5.679960
 20
6.335560
  0
VERTEX
  8
0
  6
CONTINUOUS
 10
5.031840
 20
6.700760
  0
VERTEX
  8
0
  6
CONTINUOUS
 10
5.311680
 20
6.761920
  0
SEQEND
  8
0
  0
SOLID
  8
0
 62
    15
 10
5.031840
 20
6.700760
 11
5.679960
 21
6.335560
 12
5.060440
 22
6.664240
 13
5.708560
 23
6.299040
  0
POLYLINE
  8
0
  6
CONTINUOUS
 66
     1
 40
0.000000
 41
0.000000
  0
VERTEX
  8
0
  6
CONTINUOUS
 10
5.031840
 20
6.700760
  0
VERTEX
  8
0
  6
CONTINUOUS
 10
5.679960
 20
6.335560
  0
VERTEX
  8
0
  6
CONTINUOUS
 10
5.708560
 20
6.299040
  0
VERTEX
  8
0
  6
CONTINUOUS
 10
5.060440
 20
6.664240
  0
VERTEX
  8
0
  6
CONTINUOUS
 10
5.031840
 20
6.700760
  0
SEQEND
  8
0
  0
SOLID
  8
0
 62
    15
 10
5.060440
 20
6.664240
 11
5.708560
 21
6.299040
 12
5.077160
 22
6.624200
 13
5.725280
 23
6.259440
  0
POLYLINE
  8
0
  6
CONTINUOUS
 66
     1
 40
0.000000
 41
0.000000
  0
VERTEX
  8
0
  6
CONTINUOUS
 10
5.060440
 20
6.664240
  0
VERTEX
  8
0
  6
CONTINUOUS
 10
5.708560
 20
6.299040
  0
VERTEX
  8
0
  6
CONTINUOUS
 10
5.725280
 20
6.259440
  0
VERTEX
  8
0
  6
CONTINUOUS
 10
5.077160
 20
6.624200
  0
VERTEX
  8
0
  6
CONTINUOUS
 10
5.060440
 20
6.664240
  0
SEQEND
  8
0
  0
SOLID
  8
0
 62
    15
 10
5.077160
 20
6.624200
 11
5.725280
 21
6.259440
 12
5.078920
 22
6.539280
 13
5.727040
 23
6.174520
  0
POLYLINE
  8
0
  6
CONTINUOUS
 66
     1
 40
0.000000
 41
0.000000
  0
VERTEX
  8
0
  6
CONTINUOUS
 10
5.077160
 20
6.624200
  0
VERTEX
  8
0
  6
CONTINUOUS
 10
5.725280
 20
6.259440
  0
VERTEX
  8
0
  6
CONTINUOUS
 10
5.727040
 20
6.174520
  0
VERTEX
  8
0
  6
CONTINUOUS
 10
5.078920
 20
6.539280
  0
VERTEX
  8
0
  6
CONTINUOUS
 10
5.077160
 20
6.624200
  0
SEQEND
  8
0
  0
SOLID
  8
0
 62
    15
 10
5.078920
 20
6.539280
 11
5.727040
 21
6.174520
 12
5.046360
 22
6.454800
 13
5.694480
 23
6.089600
  0
POLYLINE
  8
0
  6
CONTINUOUS
 66
     1
 40
0.000000
 41
0.000000
  0
VERTEX
  8
0
  6
CONTINUOUS
 10
5.078920
 20
6.539280
  0
VERTEX
  8
0
  6
CONTINUOUS
 10
5.727040
 20
6.174520
  0
VERTEX
  8
0
  6
CONTINUOUS
 10
5.694480
 20
6.089600
  0
VERTEX
  8
0
  6
CONTINUOUS
 10
5.046360
 20
6.454800
  0
VERTEX
  8
0
  6
CONTINUOUS
 10
5.078920
 20
6.539280
  0
SEQEND
  8
0
  0
SOLID
  8
0
 62
    15
 10
5.046360
 20
6.454800
 11
5.694480
 21
6.089600
 12
4.986960
 22
6.379120
 13
5.635080
 23
6.013920
  0
POLYLINE
  8
0
  6
CONTINUOUS
 66
     1
 40
0.000000
 41
0.000000
  0
VERTEX
  8
0
  6
CONTINUOUS
 10
5.046360
 20
6.454800
  0
VERTEX
  8
0
  6
CONTINUOUS
 10
5.694480
 20
6.089600
  0
VERTEX
  8
0
  6
CONTINUOUS
 10
5.635080
 20
6.013920
  0
VERTEX
  8
0
  6
CONTINUOUS
 10
4.986960
 20
6.379120
  0
VERTEX
  8
0
  6
CONTINUOUS
 10
5.046360
 20
6.454800
  0
SEQEND
  8
0
  0
SOLID
  8
0
 62
    15
 10
4.986960
 20
6.379120
 11
5.635080
 21
6.013920
 12
4.909520
 22
6.321480
 13
5.557640
 23
5.956280
  0
POLYLINE
  8
0
  6
CONTINUOUS
 66
     1
 40
0.000000
 41
0.000000
  0
VERTEX
  8
0
  6
CONTINUOUS
 10
4.986960
 20
6.379120
  0
VERTEX
  8
0
  6
CONTINUOUS
 10
5.635080
 20
6.013920
  0
VERTEX
  8
0
  6
CONTINUOUS
 10
5.557640
 20
5.956280
  0
VERTEX
  8
0
  6
CONTINUOUS
 10
4.909520
 20
6.321480
  0
VERTEX
  8
0
  6
CONTINUOUS
 10
4.986960
 20
6.379120
  0
SEQEND
  8
0
  0
SOLID
  8
0
 62
    15
 10
4.909520
 20
6.321480
 11
5.557640
 21
5.956280
 12
4.821960
 22
6.290680
 13
5.470080
 23
5.925920
  0
POLYLINE
  8
0
  6
CONTINUOUS
 66
     1
 40
0.000000
 41
0.000000
  0
VERTEX
  8
0
  6
CONTINUOUS
 10
4.909520
 20
6.321480
  0
VERTEX
  8
0
  6
CONTINUOUS
 10
5.557640
 20
5.956280
  0
VERTEX
  8
0
  6
CONTINUOUS
 10
5.470080
 20
5.925920
  0
VERTEX
  8
0
  6
CONTINUOUS
 10
4.821960
 20
6.290680
  0
VERTEX
  8
0
  6
CONTINUOUS
 10
4.909520
 20
6.321480
  0
SEQEND
  8
0
  0
SOLID
  8
0
 62
    15
 10
4.649920
 20
6.346560
 11
5.298040
 21
5.981800
 12
4.183520
 22
5.912720
 13
4.831640
 23
5.547520
  0
POLYLINE
  8
0
  6
CONTINUOUS
 66
     1
 40
0.000000
 41
0.000000
  0
VERTEX
  8
0
  6
CONTINUOUS
 10
4.649920
 20
6.346560
  0
VERTEX
  8
0
  6
CONTINUOUS
 10
5.298040
 20
5.981800
  0
VERTEX
  8
0
  6
CONTINUOUS
 10
4.831640
 20
5.547520
  0
VERTEX
  8
0
  6
CONTINUOUS
 10
4.183520
 20
5.912720
  0
VERTEX
  8
0
  6
CONTINUOUS
 10
4.649920
 20
6.346560
  0
SEQEND
  8
0
  0
SOLID
  8
0
 62
    15
 10
4.732640
 20
6.296400
 11
5.380760
 21
5.931200
 12
4.689960
 22
6.315320
 13
5.338080
 23
5.950120
  0
POLYLINE
  8
0
  6
CONTINUOUS
 66
     1
 40
0.000000
 41
0.000000
  0
VERTEX
  8
0
  6
CONTINUOUS
 10
4.732640
 20
6.296400
  0
VERTEX
  8
0
  6
CONTINUOUS
 10
5.380760
 20
5.931200
  0
VERTEX
  8
0
  6
CONTINUOUS
 10
5.338080
 20
5.950120
  0
VERTEX
  8
0
  6
CONTINUOUS
 10
4.689960
 20
6.315320
  0
VERTEX
  8
0
  6
CONTINUOUS
 10
4.732640
 20
6.296400
  0
SEQEND
  8
0
  0
SOLID
  8
0
 62
    15
 10
4.821960
 20
6.290680
 11
5.470080
 21
5.925920
 12
4.732640
 22
6.296400
 13
5.380760
 23
5.931200
  0
POLYLINE
  8
0
  6
CONTINUOUS
 66
     1
 40
0.000000
 41
0.000000
  0
VERTEX
  8
0
  6
CONTINUOUS
 10
4.821960
 20
6.290680
  0
VERTEX
  8
0
  6
CONTINUOUS
 10
5.470080
 20
5.925920
  0
VERTEX
  8
0
  6
CONTINUOUS
 10
5.380760
 20
5.931200
  0
VERTEX
  8
0
  6
CONTINUOUS
 10
4.732640
 20
6.296400
  0
VERTEX
  8
0
  6
CONTINUOUS
 10
4.821960
 20
6.290680
  0
SEQEND
  8
0
  0
SOLID
  8
0
 62
    15
 10
4.183520
 20
5.912720
 11
4.831640
 21
5.547520
 12
4.120160
 22
5.926360
 13
4.768280
 23
5.561160
  0
POLYLINE
  8
0
  6
CONTINUOUS
 66
     1
 40
0.000000
 41
0.000000
  0
VERTEX
  8
0
  6
CONTINUOUS
 10
4.183520
 20
5.912720
  0
VERTEX
  8
0
  6
CONTINUOUS
 10
4.831640
 20
5.547520
  0
VERTEX
  8
0
  6
CONTINUOUS
 10
4.768280
 20
5.561160
  0
VERTEX
  8
0
  6
CONTINUOUS
 10
4.120160
 20
5.926360
  0
VERTEX
  8
0
  6
CONTINUOUS
 10
4.183520
 20
5.912720
  0
SEQEND
  8
0
  0
SOLID
  8
0
 62
    15
 10
4.120160
 20
5.926360
 11
4.768280
 21
5.561160
 12
4.048440
 22
5.916680
 13
4.696560
 23
5.551920
  0
POLYLINE
  8
0
  6
CONTINUOUS
 66
     1
 40
0.000000
 41
0.000000
  0
VERTEX
  8
0
  6
CONTINUOUS
 10
4.120160
 20
5.926360
  0
VERTEX
  8
0
  6
CONTINUOUS
 10
4.768280
 20
5.561160
  0
VERTEX
  8
0
  6
CONTINUOUS
 10
4.696560
 20
5.551920
  0
VERTEX
  8
0
  6
CONTINUOUS
 10
4.048440
 20
5.916680
  0
VERTEX
  8
0
  6
CONTINUOUS
 10
4.120160
 20
5.926360
  0
SEQEND
  8
0
  0
SOLID
  8
0
 62
    15
 10
4.048440
 20
5.916680
 11
4.696560
 21
5.551920
 12
3.974960
 22
5.887200
 13
4.623080
 23
5.522000
  0
POLYLINE
  8
0
  6
CONTINUOUS
 66
     1
 40
0.000000
 41
0.000000
  0
VERTEX
  8
0
  6
CONTINUOUS
 10
4.048440
 20
5.916680
  0
VERTEX
  8
0
  6
CONTINUOUS
 10
4.696560
 20
5.551920
  0
VERTEX
  8
0
  6
CONTINUOUS
 10
4.623080
 20
5.522000
  0
VERTEX
  8
0
  6
CONTINUOUS
 10
3.974960
 20
5.887200
  0
VERTEX
  8
0
  6
CONTINUOUS
 10
4.048440
 20
5.916680
  0
SEQEND
  8
0
  0
SOLID
  8
0
 62
    15
 10
3.974960
 20
5.887200
 11
4.623080
 21
5.522000
 12
3.907200
 22
5.840120
 13
4.555320
 23
5.474920
  0
POLYLINE
  8
0
  6
CONTINUOUS
 66
     1
 40
0.000000
 41
0.000000
  0
VERTEX
  8
0
  6
CONTINUOUS
 10
3.974960
 20
5.887200
  0
VERTEX
  8
0
  6
CONTINUOUS
 10
4.623080
 20
5.522000
  0
VERTEX
  8
0
  6
CONTINUOUS
 10
4.555320
 20
5.474920
  0
VERTEX
  8
0
  6
CONTINUOUS
 10
3.907200
 20
5.840120
  0
VERTEX
  8
0
  6
CONTINUOUS
 10
3.974960
 20
5.887200
  0
SEQEND
  8
0
  0
SOLID
  8
0
 62
    15
 10
3.907200
 20
5.840120
 11
4.555320
 21
5.474920
 12
3.851760
 22
5.778520
 13
4.499880
 23
5.413320
  0
POLYLINE
  8
0
  6
CONTINUOUS
 66
     1
 40
0.000000
 41
0.000000
  0
VERTEX
  8
0
  6
CONTINUOUS
 10
3.907200
 20
5.840120
  0
VERTEX
  8
0
  6
CONTINUOUS
 10
4.555320
 20
5.474920
  0
VERTEX
  8
0
  6
CONTINUOUS
 10
4.499880
 20
5.413320
  0
VERTEX
  8
0
  6
CONTINUOUS
 10
3.851760
 20
5.778520
  0
VERTEX
  8
0
  6
CONTINUOUS
 10
3.907200
 20
5.840120
  0
SEQEND
  8
0
  0
SOLID
  8
0
 62
    15
 10
3.851760
 20
5.778520
 11
4.499880
 21
5.413320
 12
3.816120
 22
5.705480
 13
4.464240
 23
5.340280
  0
POLYLINE
  8
0
  6
CONTINUOUS
 66
     1
 40
0.000000
 41
0.000000
  0
VERTEX
  8
0
  6
CONTINUOUS
 10
3.851760
 20
5.778520
  0
VERTEX
  8
0
  6
CONTINUOUS
 10
4.499880
 20
5.413320
  0
VERTEX
  8
0
  6
CONTINUOUS
 10
4.464240
 20
5.340280
  0
VERTEX
  8
0
  6
CONTINUOUS
 10
3.816120
 20
5.705480
  0
VERTEX
  8
0
  6
CONTINUOUS
 10
3.851760
 20
5.778520
  0
SEQEND
  8
0
  0
SOLID
  8
0
 62
    15
 10
3.816120
 20
5.705480
 11
4.464240
 21
5.340280
 12
3.807320
 22
5.623640
 13
4.455440
 23
5.258880
  0
POLYLINE
  8
0
  6
CONTINUOUS
 66
     1
 40
0.000000
 41
0.000000
  0
VERTEX
  8
0
  6
CONTINUOUS
 10
3.816120
 20
5.705480
  0
VERTEX
  8
0
  6
CONTINUOUS
 10
4.464240
 20
5.340280
  0
VERTEX
  8
0
  6
CONTINUOUS
 10
4.455440
 20
5.258880
  0
VERTEX
  8
0
  6
CONTINUOUS
 10
3.807320
 20
5.623640
  0
VERTEX
  8
0
  6
CONTINUOUS
 10
3.816120
 20
5.705480
  0
SEQEND
  8
0
  0
SOLID
  8
0
 62
    15
 10
3.807320
 20
5.623640
 11
4.455440
 21
5.258880
 12
3.832400
 22
5.536520
 13
4.480520
 23
5.171320
  0
POLYLINE
  8
0
  6
CONTINUOUS
 66
     1
 40
0.000000
 41
0.000000
  0
VERTEX
  8
0
  6
CONTINUOUS
 10
3.807320
 20
5.623640
  0
VERTEX
  8
0
  6
CONTINUOUS
 10
4.455440
 20
5.258880
  0
VERTEX
  8
0
  6
CONTINUOUS
 10
4.480520
 20
5.171320
  0
VERTEX
  8
0
  6
CONTINUOUS
 10
3.832400
 20
5.536520
  0
VERTEX
  8
0
  6
CONTINUOUS
 10
3.807320
 20
5.623640
  0
SEQEND
  8
0
  0
SOLID
  8
0
 62
    15
 10
3.832400
 20
5.536520
 11
4.480520
 21
5.171320
 12
3.852200
 22
5.463920
 13
4.500320
 23
5.099160
  0
POLYLINE
  8
0
  6
CONTINUOUS
 66
     1
 40
0.000000
 41
0.000000
  0
VERTEX
  8
0
  6
CONTINUOUS
 10
3.832400
 20
5.536520
  0
VERTEX
  8
0
  6
CONTINUOUS
 10
4.480520
 20
5.171320
  0
VERTEX
  8
0
  6
CONTINUOUS
 10
4.500320
 20
5.099160
  0
VERTEX
  8
0
  6
CONTINUOUS
 10
3.852200
 20
5.463920
  0
VERTEX
  8
0
  6
CONTINUOUS
 10
3.832400
 20
5.536520
  0
SEQEND
  8
0
  0
SOLID
  8
0
 62
    15
 10
5.304640
 20
7.062000
 11
5.952760
 21
6.696800
 12
5.311680
 22
6.761920
 13
5.959800
 23
6.396720
  0
POLYLINE
  8
0
  6
CONTINUOUS
 66
     1
 40
0.000000
 41
0.000000
  0
VERTEX
  8
0
  6
CONTINUOUS
 10
5.304640
 20
7.062000
  0
VERTEX
  8
0
  6
CONTINUOUS
 10
5.952760
 20
6.696800
  0
VERTEX
  8
0
  6
CONTINUOUS
 10
5.959800
 20
6.396720
  0
VERTEX
  8
0
  6
CONTINUOUS
 10
5.311680
 20
6.761920
  0
VERTEX
  8
0
  6
CONTINUOUS
 10
5.304640
 20
7.062000
  0
SEQEND
  8
0
  0
SOLID
  8
0
 62
    15
 10
3.850000
 20
5.393080
 11
4.498120
 21
5.027880
 12
3.829320
 22
5.327080
 13
4.477440
 23
4.961880
  0
POLYLINE
  8
0
  6
CONTINUOUS
 66
     1
 40
0.000000
 41
0.000000
  0
VERTEX
  8
0
  6
CONTINUOUS
 10
3.850000
 20
5.393080
  0
VERTEX
  8
0
  6
CONTINUOUS
 10
4.498120
 20
5.027880
  0
VERTEX
  8
0
  6
CONTINUOUS
 10
4.477440
 20
4.961880
  0
VERTEX
  8
0
  6
CONTINUOUS
 10
3.829320
 20
5.327080
  0
VERTEX
  8
0
  6
CONTINUOUS
 10
3.850000
 20
5.393080
  0
SEQEND
  8
0
  0
SOLID
  8
0
 62
    15
 10
3.829320
 20
5.327080
 11
4.477440
 21
4.961880
 12
3.795000
 22
5.269880
 13
4.443120
 23
4.905120
  0
POLYLINE
  8
0
  6
CONTINUOUS
 66
     1
 40
0.000000
 41
0.000000
  0
VERTEX
  8
0
  6
CONTINUOUS
 10
3.829320
 20
5.327080
  0
VERTEX
  8
0
  6
CONTINUOUS
 10
4.477440
 20
4.961880
  0
VERTEX
  8
0
  6
CONTINUOUS
 10
4.443120
 20
4.905120
  0
VERTEX
  8
0
  6
CONTINUOUS
 10
3.795000
 20
5.269880
  0
VERTEX
  8
0
  6
CONTINUOUS
 10
3.829320
 20
5.327080
  0
SEQEND
  8
0
  0
SOLID
  8
0
 62
    15
 10
3.795000
 20
5.269880
 11
4.443120
 21
4.905120
 12
3.751440
 22
5.225440
 13
4.399120
 23
4.860240
  0
POLYLINE
  8
0
  6
CONTINUOUS
 66
     1
 40
0.000000
 41
0.000000
  0
VERTEX
  8
0
  6
CONTINUOUS
 10
3.795000
 20
5.269880
  0
VERTEX
  8
0
  6
CONTINUOUS
 10
4.443120
 20
4.905120
  0
VERTEX
  8
0
  6
CONTINUOUS
 10
4.399120
 20
4.860240
  0
VERTEX
  8
0
  6
CONTINUOUS
 10
3.751440
 20
5.225440
  0
VERTEX
  8
0
  6
CONTINUOUS
 10
3.795000
 20
5.269880
  0
SEQEND
  8
0
  0
SOLID
  8
0
 62
    15
 10
3.751440
 20
5.225440
 11
4.399120
 21
4.860240
 12
3.702160
 22
5.197280
 13
4.350280
 23
4.832080
  0
POLYLINE
  8
0
  6
CONTINUOUS
 66
     1
 40
0.000000
 41
0.000000
  0
VERTEX
  8
0
  6
CONTINUOUS
 10
3.751440
 20
5.225440
  0
VERTEX
  8
0
  6
CONTINUOUS
 10
4.399120
 20
4.860240
  0
VERTEX
  8
0
  6
CONTINUOUS
 10
4.350280
 20
4.832080
  0
VERTEX
  8
0
  6
CONTINUOUS
 10
3.702160
 20
5.197280
  0
VERTEX
  8
0
  6
CONTINUOUS
 10
3.751440
 20
5.225440
  0
SEQEND
  8
0
  0
SOLID
  8
0
 62
    15
 10
3.702160
 20
5.197280
 11
4.350280
 21
4.832080
 12
3.651560
 22
5.188920
 13
4.299680
 23
4.823720
  0
POLYLINE
  8
0
  6
CONTINUOUS
 66
     1
 40
0.000000
 41
0.000000
  0
VERTEX
  8
0
  6
CONTINUOUS
 10
3.702160
 20
5.197280
  0
VERTEX
  8
0
  6
CONTINUOUS
 10
4.350280
 20
4.832080
  0
VERTEX
  8
0
  6
CONTINUOUS
 10
4.299680
 20
4.823720
  0
VERTEX
  8
0
  6
CONTINUOUS
 10
3.651560
 20
5.188920
  0
VERTEX
  8
0
  6
CONTINUOUS
 10
3.702160
 20
5.197280
  0
SEQEND
  8
0
  0
SOLID
  8
0
 62
    15
 10
3.651560
 20
5.188920
 11
4.299680
 21
4.823720
 12
3.604040
 22
5.204760
 13
4.252160
 23
4.839560
  0
POLYLINE
  8
0
  6
CONTINUOUS
 66
     1
 40
0.000000
 41
0.000000
  0
VERTEX
  8
0
  6
CONTINUOUS
 10
3.651560
 20
5.188920
  0
VERTEX
  8
0
  6
CONTINUOUS
 10
4.299680
 20
4.823720
  0
VERTEX
  8
0
  6
CONTINUOUS
 10
4.252160
 20
4.839560
  0
VERTEX
  8
0
  6
CONTINUOUS
 10
3.604040
 20
5.204760
  0
VERTEX
  8
0
  6
CONTINUOUS
 10
3.651560
 20
5.188920
  0
SEQEND
  8
0
  0
SOLID
  8
0
 62
    15
 10
3.604040
 20
5.204760
 11
4.252160
 21
4.839560
 12
3.609760
 22
5.112800
 13
4.257880
 23
4.747600
  0
POLYLINE
  8
0
  6
CONTINUOUS
 66
     1
 40
0.000000
 41
0.000000
  0
VERTEX
  8
0
  6
CONTINUOUS
 10
3.604040
 20
5.204760
  0
VERTEX
  8
0
  6
CONTINUOUS
 10
4.252160
 20
4.839560
  0
VERTEX
  8
0
  6
CONTINUOUS
 10
4.257880
 20
4.747600
  0
VERTEX
  8
0
  6
CONTINUOUS
 10
3.609760
 20
5.112800
  0
VERTEX
  8
0
  6
CONTINUOUS
 10
3.604040
 20
5.204760
  0
SEQEND
  8
0
  0
SOLID
  8
0
 62
    15
 10
3.609760
 20
5.112800
 11
4.257880
 21
4.747600
 12
3.590400
 22
5.040640
 13
4.238520
 23
4.675440
  0
POLYLINE
  8
0
  6
CONTINUOUS
 66
     1
 40
0.000000
 41
0.000000
  0
VERTEX
  8
0
  6
CONTINUOUS
 10
3.609760
 20
5.112800
  0
VERTEX
  8
0
  6
CONTINUOUS
 10
4.257880
 20
4.747600
  0
VERTEX
  8
0
  6
CONTINUOUS
 10
4.238520
 20
4.675440
  0
VERTEX
  8
0
  6
CONTINUOUS
 10
3.590400
 20
5.040640
  0
VERTEX
  8
0
  6
CONTINUOUS
 10
3.609760
 20
5.112800
  0
SEQEND
  8
0
  0
SOLID
  8
0
 62
    15
 10
3.590400
 20
5.040640
 11
4.238520
 21
4.675440
 12
3.552120
 22
4.984760
 13
4.200240
 23
4.619560
  0
POLYLINE
  8
0
  6
CONTINUOUS
 66
     1
 40
0.000000
 41
0.000000
  0
VERTEX
  8
0
  6
CONTINUOUS
 10
3.590400
 20
5.040640
  0
VERTEX
  8
0
  6
CONTINUOUS
 10
4.238520
 20
4.675440
  0
VERTEX
  8
0
  6
CONTINUOUS
 10
4.200240
 20
4.619560
  0
VERTEX
  8
0
  6
CONTINUOUS
 10
3.552120
 20
4.984760
  0
VERTEX
  8
0
  6
CONTINUOUS
 10
3.590400
 20
5.040640
  0
SEQEND
  8
0
  0
SOLID
  8
0
 62
    15
 10
3.552120
 20
4.984760
 11
4.200240
 21
4.619560
 12
3.499320
 22
4.942080
 13
4.147440
 23
4.577320
  0
POLYLINE
  8
0
  6
CONTINUOUS
 66
     1
 40
0.000000
 41
0.000000
  0
VERTEX
  8
0
  6
CONTINUOUS
 10
3.552120
 20
4.984760
  0
VERTEX
  8
0
  6
CONTINUOUS
 10
4.200240
 20
4.619560
  0
VERTEX
  8
0
  6
CONTINUOUS
 10
4.147440
 20
4.577320
  0
VERTEX
  8
0
  6
CONTINUOUS
 10
3.499320
 20
4.942080
  0
VERTEX
  8
0
  6
CONTINUOUS
 10
3.552120
 20
4.984760
  0
SEQEND
  8
0
  0
SOLID
  8
0
 62
    15
 10
3.499320
 20
4.942080
 11
4.147440
 21
4.577320
 12
3.373040
 22
4.884440
 13
4.021160
 23
4.519240
  0
POLYLINE
  8
0
  6
CONTINUOUS
 66
     1
 40
0.000000
 41
0.000000
  0
VERTEX
  8
0
  6
CONTINUOUS
 10
3.499320
 20
4.942080
  0
VERTEX
  8
0
  6
CONTINUOUS
 10
4.147440
 20
4.577320
  0
VERTEX
  8
0
  6
CONTINUOUS
 10
4.021160
 20
4.519240
  0
VERTEX
  8
0
  6
CONTINUOUS
 10
3.373040
 20
4.884440
  0
VERTEX
  8
0
  6
CONTINUOUS
 10
3.499320
 20
4.942080
  0
SEQEND
  8
0
  0
SOLID
  8
0
 62
    15
 10
3.373040
 20
4.884440
 11
4.021160
 21
4.519240
 12
3.340480
 22
4.873440
 13
3.988600
 23
4.508240
  0
POLYLINE
  8
0
  6
CONTINUOUS
 66
     1
 40
0.000000
 41
0.000000
  0
VERTEX
  8
0
  6
CONTINUOUS
 10
3.373040
 20
4.884440
  0
VERTEX
  8
0
  6
CONTINUOUS
 10
4.021160
 20
4.519240
  0
VERTEX
  8
0
  6
CONTINUOUS
 10
3.988600
 20
4.508240
  0
VERTEX
  8
0
  6
CONTINUOUS
 10
3.340480
 20
4.873440
  0
VERTEX
  8
0
  6
CONTINUOUS
 10
3.373040
 20
4.884440
  0
SEQEND
  8
0
  0
SOLID
  8
0
 62
    15
 10
3.340480
 20
4.873440
 11
3.988600
 21
4.508240
 12
3.309240
 22
4.862880
 13
3.957360
 23
4.497680
  0
POLYLINE
  8
0
  6
CONTINUOUS
 66
     1
 40
0.000000
 41
0.000000
  0
VERTEX
  8
0
  6
CONTINUOUS
 10
3.340480
 20
4.873440
  0
VERTEX
  8
0
  6
CONTINUOUS
 10
3.988600
 20
4.508240
  0
VERTEX
  8
0
  6
CONTINUOUS
 10
3.957360
 20
4.497680
  0
VERTEX
  8
0
  6
CONTINUOUS
 10
3.309240
 20
4.862880
  0
VERTEX
  8
0
  6
CONTINUOUS
 10
3.340480
 20
4.873440
  0
SEQEND
  8
0
  0
SOLID
  8
0
 62
    15
 10
3.309240
 20
4.862880
 11
3.957360
 21
4.497680
 12
3.252040
 22
4.841760
 13
3.900160
 23
4.476560
  0
POLYLINE
  8
0
  6
CONTINUOUS
 66
     1
 40
0.000000
 41
0.000000
  0
VERTEX
  8
0
  6
CONTINUOUS
 10
3.309240
 20
4.862880
  0
VERTEX
  8
0
  6
CONTINUOUS
 10
3.957360
 20
4.497680
  0
VERTEX
  8
0
  6
CONTINUOUS
 10
3.900160
 20
4.476560
  0
VERTEX
  8
0
  6
CONTINUOUS
 10
3.252040
 20
4.841760
  0
VERTEX
  8
0
  6
CONTINUOUS
 10
3.309240
 20
4.862880
  0
SEQEND
  8
0
  0
SOLID
  8
0
 62
    15
 10
3.252040
 20
4.841760
 11
3.900160
 21
4.476560
 12
3.204080
 22
4.813600
 13
3.852200
 23
4.448840
  0
POLYLINE
  8
0
  6
CONTINUOUS
 66
     1
 40
0.000000
 41
0.000000
  0
VERTEX
  8
0
  6
CONTINUOUS
 10
3.252040
 20
4.841760
  0
VERTEX
  8
0
  6
CONTINUOUS
 10
3.900160
 20
4.476560
  0
VERTEX
  8
0
  6
CONTINUOUS
 10
3.852200
 20
4.448840
  0
VERTEX
  8
0
  6
CONTINUOUS
 10
3.204080
 20
4.813600
  0
VERTEX
  8
0
  6
CONTINUOUS
 10
3.252040
 20
4.841760
  0
SEQEND
  8
0
  0
SOLID
  8
0
 62
    15
 10
3.204080
 20
4.813600
 11
3.852200
 21
4.448840
 12
3.164480
 22
4.775320
 13
3.812600
 23
4.410560
  0
POLYLINE
  8
0
  6
CONTINUOUS
 66
     1
 40
0.000000
 41
0.000000
  0
VERTEX
  8
0
  6
CONTINUOUS
 10
3.204080
 20
4.813600
  0
VERTEX
  8
0
  6
CONTINUOUS
 10
3.852200
 20
4.448840
  0
VERTEX
  8
0
  6
CONTINUOUS
 10
3.812600
 20
4.410560
  0
VERTEX
  8
0
  6
CONTINUOUS
 10
3.164480
 20
4.775320
  0
VERTEX
  8
0
  6
CONTINUOUS
 10
3.204080
 20
4.813600
  0
SEQEND
  8
0
  0
SOLID
  8
0
 62
    15
 10
3.164480
 20
4.775320
 11
3.812600
 21
4.410560
 12
3.107720
 22
4.682040
 13
3.755840
 23
4.316840
  0
POLYLINE
  8
0
  6
CONTINUOUS
 66
     1
 40
0.000000
 41
0.000000
  0
VERTEX
  8
0
  6
CONTINUOUS
 10
3.164480
 20
4.775320
  0
VERTEX
  8
0
  6
CONTINUOUS
 10
3.812600
 20
4.410560
  0
VERTEX
  8
0
  6
CONTINUOUS
 10
3.755840
 20
4.316840
  0
VERTEX
  8
0
  6
CONTINUOUS
 10
3.107720
 20
4.682040
  0
VERTEX
  8
0
  6
CONTINUOUS
 10
3.164480
 20
4.775320
  0
SEQEND
  8
0
  0
SOLID
  8
0
 62
    15
 10
3.107720
 20
4.682040
 11
3.755840
 21
4.316840
 12
3.074720
 22
4.588760
 13
3.722840
 23
4.223560
  0
POLYLINE
  8
0
  6
CONTINUOUS
 66
     1
 40
0.000000
 41
0.000000
  0
VERTEX
  8
0
  6
CONTINUOUS
 10
3.107720
 20
4.682040
  0
VERTEX
  8
0
  6
CONTINUOUS
 10
3.755840
 20
4.316840
  0
VERTEX
  8
0
  6
CONTINUOUS
 10
3.722840
 20
4.223560
  0
VERTEX
  8
0
  6
CONTINUOUS
 10
3.074720
 20
4.588760
  0
VERTEX
  8
0
  6
CONTINUOUS
 10
3.107720
 20
4.682040
  0
SEQEND
  8
0
  0
SOLID
  8
0
 62
    15
 10
3.074720
 20
4.588760
 11
3.722840
 21
4.223560
 12
3.059760
 22
4.523640
 13
3.707880
 23
4.158440
  0
POLYLINE
  8
0
  6
CONTINUOUS
 66
     1
 40
0.000000
 41
0.000000
  0
VERTEX
  8
0
  6
CONTINUOUS
 10
3.074720
 20
4.588760
  0
VERTEX
  8
0
  6
CONTINUOUS
 10
3.722840
 20
4.223560
  0
VERTEX
  8
0
  6
CONTINUOUS
 10
3.707880
 20
4.158440
  0
VERTEX
  8
0
  6
CONTINUOUS
 10
3.059760
 20
4.523640
  0
VERTEX
  8
0
  6
CONTINUOUS
 10
3.074720
 20
4.588760
  0
SEQEND
  8
0
  0
SOLID
  8
0
 62
    15
 10
3.059760
 20
4.523640
 11
3.707880
 21
4.158440
 12
2.750880
 22
4.521880
 13
3.399000
 23
4.156680
  0
POLYLINE
  8
0
  6
CONTINUOUS
 66
     1
 40
0.000000
 41
0.000000
  0
VERTEX
  8
0
  6
CONTINUOUS
 10
3.059760
 20
4.523640
  0
VERTEX
  8
0
  6
CONTINUOUS
 10
3.707880
 20
4.158440
  0
VERTEX
  8
0
  6
CONTINUOUS
 10
3.399000
 20
4.156680
  0
VERTEX
  8
0
  6
CONTINUOUS
 10
2.750880
 20
4.521880
  0
VERTEX
  8
0
  6
CONTINUOUS
 10
3.059760
 20
4.523640
  0
SEQEND
  8
0
  0
POLYLINE
  8
0
  6
CONTINUOUS
 66
     1
 40
0.000000
 41
0.000000
  0
VERTEX
  8
0
  6
CONTINUOUS
 10
2.750000
 20
5.246560
  0
VERTEX
  8
0
  6
CONTINUOUS
 10
4.583920
 20
7.030320
  0
VERTEX
  8
0
  6
CONTINUOUS
 10
5.304640
 20
7.062000
  0
VERTEX
  8
0
  6
CONTINUOUS
 10
5.311680
 20
6.761920
  0
VERTEX
  8
0
  6
CONTINUOUS
 10
5.031840
 20
6.700760
  0
VERTEX
  8
0
  6
CONTINUOUS
 10
5.060440
 20
6.664240
  0
VERTEX
  8
0
  6
CONTINUOUS
 10
5.077160
 20
6.624200
  0
VERTEX
  8
0
  6
CONTINUOUS
 10
5.078920
 20
6.539280
  0
VERTEX
  8
0
  6
CONTINUOUS
 10
5.046360
 20
6.454800
  0
VERTEX
  8
0
  6
CONTINUOUS
 10
4.986960
 20
6.379120
  0
VERTEX
  8
0
  6
CONTINUOUS
 10
4.909520
 20
6.321480
  0
VERTEX
  8
0
  6
CONTINUOUS
 10
4.821960
 20
6.290680
  0
VERTEX
  8
0
  6
CONTINUOUS
 10
4.732640
 20
6.296400
  0
VERTEX
  8
0
  6
CONTINUOUS
 10
4.689960
 20
6.315320
  0
VERTEX
  8
0
  6
CONTINUOUS
 10
4.649920
 20
6.346560
  0
VERTEX
  8
0
  6
CONTINUOUS
 10
4.183520
 20
5.912720
  0
VERTEX
  8
0
  6
CONTINUOUS
 10
4.120160
 20
5.926360
  0
VERTEX
  8
0
  6
CONTINUOUS
 10
4.048440
 20
5.916680
  0
VERTEX
  8
0
  6
CONTINUOUS
 10
3.974960
 20
5.887200
  0
VERTEX
  8
0
  6
CONTINUOUS
 10
3.907200
 20
5.840120
  0
VERTEX
  8
0
  6
CONTINUOUS
 10
3.851760
 20
5.778520
  0
VERTEX
  8
0
  6
CONTINUOUS
 10
3.816120
 20
5.705480
  0
VERTEX
  8
0
  6
CONTINUOUS
 10
3.807320
 20
5.623640
  0
VERTEX
  8
0
  6
CONTINUOUS
 10
3.832400
 20
5.536520
  0
VERTEX
  8
0
  6
CONTINUOUS
 10
3.852200
 20
5.463920
  0
VERTEX
  8
0
  6
CONTINUOUS
 10
3.850000
 20
5.393080
  0
VERTEX
  8
0
  6
CONTINUOUS
 10
3.829320
 20
5.327080
  0
VERTEX
  8
0
  6
CONTINUOUS
 10
3.795000
 20
5.269880
  0
VERTEX
  8
0
  6
CONTINUOUS
 10
3.751440
 20
5.225440
  0
VERTEX
  8
0
  6
CONTINUOUS
 10
3.702160
 20
5.197280
  0
VERTEX
  8
0
  6
CONTINUOUS
 10
3.651560
 20
5.188920
  0
VERTEX
  8
0
  6
CONTINUOUS
 10
3.604040
 20
5.204760
  0
VERTEX
  8
0
  6
CONTINUOUS
 10
3.609760
 20
5.112800
  0
VERTEX
  8
0
  6
CONTINUOUS
 10
3.590400
 20
5.040640
  0
VERTEX
  8
0
  6
CONTINUOUS
 10
3.552120
 20
4.984760
  0
VERTEX
  8
0
  6
CONTINUOUS
 10
3.499320
 20
4.942080
  0
VERTEX
  8
0
  6
CONTINUOUS
 10
3.373040
 20
4.884440
  0
VERTEX
  8
0
  6
CONTINUOUS
 10
3.340480
 20
4.873440
  0
VERTEX
  8
0
  6
CONTINUOUS
 10
3.309240
 20
4.862880
  0
VERTEX
  8
0
  6
CONTINUOUS
 10
3.252040
 20
4.841760
  0
VERTEX
  8
0
  6
CONTINUOUS
 10
3.204080
 20
4.813600
  0
VERTEX
  8
0
  6
CONTINUOUS
 10
3.164480
 20
4.775320
  0
VERTEX
  8
0
  6
CONTINUOUS
 10
3.107720
 20
4.682040
  0
VERTEX
  8
0
  6
CONTINUOUS
 10
3.074720
 20
4.588760
  0
VERTEX
  8
0
  6
CONTINUOUS
 10
3.059760
 20
4.523640
  0
VERTEX
  8
0
  6
CONTINUOUS
 10
2.750880
 20
4.521880
  0
VERTEX
  8
0
  6
CONTINUOUS
 10
2.750440
 20
5.246560
  0
VERTEX
  8
0
  6
CONTINUOUS
 10
2.750000
 20
5.246560
  0
SEQEND
  8
0
  0
POLYLINE
  8
0
  6
CONTINUOUS
 66
     1
 40
0.000000
 41
0.000000
  0
VERTEX
  8
0
  6
CONTINUOUS
 10
5.526840
 20
1.683000
  0
VERTEX
  8
0
  6
CONTINUOUS
 10
2.968680
 20
1.683000
  0
VERTEX
  8
0
  6
CONTINUOUS
 10
2.430120
 20
2.162600
  0
VERTEX
  8
0
  6
CONTINUOUS
 10
2.634280
 20
2.382600
  0
VERTEX
  8
0
  6
CONTINUOUS
 10
2.877600
 20
2.231240
  0
VERTEX
  8
0
  6
CONTINUOUS
 10
2.878480
 20
2.255000
  0
VERTEX
  8
0
  6
CONTINUOUS
 10
2.882440
 20
2.277440
  0
VERTEX
  8
0
  6
CONTINUOUS
 10
2.893440
 20
2.307800
  0
VERTEX
  8
0
  6
CONTINUOUS
 10
2.909720
 20
2.335080
  0
VERTEX
  8
0
  6
CONTINUOUS
 10
2.923360
 20
2.351360
  0
VERTEX
  8
0
  6
CONTINUOUS
 10
2.938760
 20
2.366320
  0
VERTEX
  8
0
  6
CONTINUOUS
 10
2.974840
 20
2.391400
  0
VERTEX
  8
0
  6
CONTINUOUS
 10
2.995080
 20
2.401960
  0
VERTEX
  8
0
  6
CONTINUOUS
 10
3.038640
 20
2.417800
  0
VERTEX
  8
0
  6
CONTINUOUS
 10
3.085720
 20
2.427040
  0
VERTEX
  8
0
  6
CONTINUOUS
 10
3.109920
 20
2.429680
  0
VERTEX
  8
0
  6
CONTINUOUS
 10
3.134120
 20
2.430560
  0
VERTEX
  8
0
  6
CONTINUOUS
 10
3.182520
 20
2.427480
  0
VERTEX
  8
0
  6
CONTINUOUS
 10
3.206720
 20
2.423520
  0
VERTEX
  8
0
  6
CONTINUOUS
 10
3.230040
 20
2.417800
  0
VERTEX
  8
0
  6
CONTINUOUS
 10
3.274040
 20
2.401520
  0
VERTEX
  8
0
  6
CONTINUOUS
 10
3.294720
 20
2.390960
  0
VERTEX
  8
0
  6
CONTINUOUS
 10
3.314080
 20
2.378640
  0
VERTEX
  8
0
  6
CONTINUOUS
 10
3.331680
 20
2.364560
  0
VERTEX
  8
0
  6
CONTINUOUS
 10
3.355000
 20
2.340360
  0
VERTEX
  8
0
  6
CONTINUOUS
 10
3.373920
 20
2.312640
  0
VERTEX
  8
0
  6
CONTINUOUS
 10
3.388000
 20
2.280520
  0
VERTEX
  8
0
  6
CONTINUOUS
 10
3.394160
 20
2.257200
  0
VERTEX
  8
0
  6
CONTINUOUS
 10
3.397680
 20
2.232120
  0
VERTEX
  8
0
  6
CONTINUOUS
 10
3.398120
 20
2.218920
  0
VERTEX
  8
0
  6
CONTINUOUS
 10
4.035240
 20
2.204840
  0
VERTEX
  8
0
  6
CONTINUOUS
 10
4.049760
 20
2.176680
  0
VERTEX
  8
0
  6
CONTINUOUS
 10
4.070880
 20
2.151160
  0
VERTEX
  8
0
  6
CONTINUOUS
 10
4.097720
 20
2.127840
  0
VERTEX
  8
0
  6
CONTINUOUS
 10
4.128960
 20
2.107600
  0
VERTEX
  8
0
  6
CONTINUOUS
 10
4.164160
 20
2.090880
  0
VERTEX
  8
0
  6
CONTINUOUS
 10
4.202440
 20
2.077680
  0
VERTEX
  8
0
  6
CONTINUOUS
 10
4.242480
 20
2.068880
  0
VERTEX
  8
0
  6
CONTINUOUS
 10
4.283840
 20
2.064040
  0
VERTEX
  8
0
  6
CONTINUOUS
 10
4.304960
 20
2.063600
  0
VERTEX
  8
0
  6
CONTINUOUS
 10
4.346320
 20
2.066240
  0
VERTEX
  8
0
  6
CONTINUOUS
 10
4.386360
 20
2.074160
  0
VERTEX
  8
0
  6
CONTINUOUS
 10
4.405720
 20
2.080320
  0
VERTEX
  8
0
  6
CONTINUOUS
 10
4.442680
 20
2.097040
  0
VERTEX
  8
0
  6
CONTINUOUS
 10
4.460280
 20
2.107600
  0
VERTEX
  8
0
  6
CONTINUOUS
 10
4.476560
 20
2.119920
  0
VERTEX
  8
0
  6
CONTINUOUS
 10
4.506040
 20
2.149400
  0
VERTEX
  8
0
  6
CONTINUOUS
 10
4.519240
 20
2.166560
  0
VERTEX
  8
0
  6
CONTINUOUS
 10
4.540800
 20
2.206600
  0
VERTEX
  8
0
  6
CONTINUOUS
 10
4.556640
 20
2.247520
  0
VERTEX
  8
0
  6
CONTINUOUS
 10
4.574680
 20
2.280520
  0
VERTEX
  8
0
  6
CONTINUOUS
 10
4.597120
 20
2.309120
  0
VERTEX
  8
0
  6
CONTINUOUS
 10
4.622640
 20
2.333760
  0
VERTEX
  8
0
  6
CONTINUOUS
 10
4.651240
 20
2.354440
  0
VERTEX
  8
0
  6
CONTINUOUS
 10
4.681600
 20
2.370720
  0
VERTEX
  8
0
  6
CONTINUOUS
 10
4.713280
 20
2.383480
  0
VERTEX
  8
0
  6
CONTINUOUS
 10
4.745400
 20
2.391840
  0
VERTEX
  8
0
  6
CONTINUOUS
 10
4.777520
 20
2.396240
  0
VERTEX
  8
0
  6
CONTINUOUS
 10
4.809200
 20
2.397120
  0
VERTEX
  8
0
  6
CONTINUOUS
 10
4.838680
 20
2.394040
  0
VERTEX
  8
0
  6
CONTINUOUS
 10
4.866400
 20
2.387000
  0
VERTEX
  8
0
  6
CONTINUOUS
 10
4.891040
 20
2.376000
  0
VERTEX
  8
0
  6
CONTINUOUS
 10
4.912160
 20
2.361480
  0
VERTEX
  8
0
  6
CONTINUOUS
 10
4.928880
 20
2.343000
  0
VERTEX
  8
0
  6
CONTINUOUS
 10
4.940320
 20
2.321000
  0
VERTEX
  8
0
  6
CONTINUOUS
 10
4.943840
 20
2.308680
  0
VERTEX
  8
0
  6
CONTINUOUS
 10
4.973320
 20
2.347840
  0
VERTEX
  8
0
  6
CONTINUOUS
 10
5.004120
 20
2.378200
  0
VERTEX
  8
0
  6
CONTINUOUS
 10
5.035800
 20
2.401080
  0
VERTEX
  8
0
  6
CONTINUOUS
 10
5.067920
 20
2.416480
  0
VERTEX
  8
0
  6
CONTINUOUS
 10
5.084640
 20
2.422200
  0
VERTEX
  8
0
  6
CONTINUOUS
 10
5.101360
 20
2.426160
  0
VERTEX
  8
0
  6
CONTINUOUS
 10
5.134800
 20
2.429680
  0
VERTEX
  8
0
  6
CONTINUOUS
 10
5.168240
 20
2.428800
  0
VERTEX
  8
0
  6
CONTINUOUS
 10
5.218840
 20
2.420000
  0
VERTEX
  8
0
  6
CONTINUOUS
 10
5.268560
 20
2.404160
  0
VERTEX
  8
0
  6
CONTINUOUS
 10
5.333240
 20
2.376880
  0
VERTEX
  8
0
  6
CONTINUOUS
 10
5.436200
 20
2.328480
  0
VERTEX
  8
0
  6
CONTINUOUS
 10
5.462600
 20
2.318360
  0
VERTEX
  8
0
  6
CONTINUOUS
 10
5.489440
 20
2.311760
  0
VERTEX
  8
0
  6
CONTINUOUS
 10
5.517160
 20
2.308680
  0
VERTEX
  8
0
  6
CONTINUOUS
 10
5.544440
 20
2.308680
  0
VERTEX
  8
0
  6
CONTINUOUS
 10
5.585800
 20
2.313520
  0
VERTEX
  8
0
  6
CONTINUOUS
 10
5.612640
 20
2.319680
  0
VERTEX
  8
0
  6
CONTINUOUS
 10
5.664560
 20
2.336840
  0
VERTEX
  8
0
  6
CONTINUOUS
 10
5.712080
 20
2.358400
  0
VERTEX
  8
0
  6
CONTINUOUS
 10
5.778960
 20
2.396680
  0
VERTEX
  8
0
  6
CONTINUOUS
 10
5.809320
 20
2.417360
  0
VERTEX
  8
0
  6
CONTINUOUS
 10
6.031520
 20
2.203080
  0
VERTEX
  8
0
  6
CONTINUOUS
 10
5.526840
 20
1.683000
  0
SEQEND
  8
0
  0
POLYLINE
  8
0
  6
CONTINUOUS
 66
     1
 40
0.000000
 41
0.000000
  0
VERTEX
  8
0
  6
CONTINUOUS
 10
2.973080
 20
2.885080
  0
VERTEX
  8
0
  6
CONTINUOUS
 10
5.531240
 20
2.885080
  0
VERTEX
  8
0
  6
CONTINUOUS
 10
6.069800
 20
3.364680
  0
VERTEX
  8
0
  6
CONTINUOUS
 10
5.865640
 20
3.584680
  0
VERTEX
  8
0
  6
CONTINUOUS
 10
5.622320
 20
3.433320
  0
VERTEX
  8
0
  6
CONTINUOUS
 10
5.621440
 20
3.457080
  0
VERTEX
  8
0
  6
CONTINUOUS
 10
5.617480
 20
3.479520
  0
VERTEX
  8
0
  6
CONTINUOUS
 10
5.606480
 20
3.509880
  0
VERTEX
  8
0
  6
CONTINUOUS
 10
5.590200
 20
3.537160
  0
VERTEX
  8
0
  6
CONTINUOUS
 10
5.576560
 20
3.553440
  0
VERTEX
  8
0
  6
CONTINUOUS
 10
5.561160
 20
3.568400
  0
VERTEX
  8
0
  6
CONTINUOUS
 10
5.544000
 20
3.581600
  0
VERTEX
  8
0
  6
CONTINUOUS
 10
5.504840
 20
3.604040
  0
VERTEX
  8
0
  6
CONTINUOUS
 10
5.461280
 20
3.619880
  0
VERTEX
  8
0
  6
CONTINUOUS
 10
5.414640
 20
3.629120
  0
VERTEX
  8
0
  6
CONTINUOUS
 10
5.390440
 20
3.631760
  0
VERTEX
  8
0
  6
CONTINUOUS
 10
5.366240
 20
3.632640
  0
VERTEX
  8
0
  6
CONTINUOUS
 10
5.317400
 20
3.629560
  0
VERTEX
  8
0
  6
CONTINUOUS
 10
5.293640
 20
3.625600
  0
VERTEX
  8
0
  6
CONTINUOUS
 10
5.270320
 20
3.619880
  0
VERTEX
  8
0
  6
CONTINUOUS
 10
5.225880
 20
3.603600
  0
VERTEX
  8
0
  6
CONTINUOUS
 10
5.205640
 20
3.593040
  0
VERTEX
  8
0
  6
CONTINUOUS
 10
5.186280
 20
3.580720
  0
VERTEX
  8
0
  6
CONTINUOUS
 10
5.168240
 20
3.566640
  0
VERTEX
  8
0
  6
CONTINUOUS
 10
5.144920
 20
3.542440
  0
VERTEX
  8
0
  6
CONTINUOUS
 10
5.126000
 20
3.514720
  0
VERTEX
  8
0
  6
CONTINUOUS
 10
5.111920
 20
3.482600
  0
VERTEX
  8
0
  6
CONTINUOUS
 10
5.105760
 20
3.459280
  0
VERTEX
  8
0
  6
CONTINUOUS
 10
5.102240
 20
3.434200
  0
VERTEX
  8
0
  6
CONTINUOUS
 10
5.101800
 20
3.421000
  0
VERTEX
  8
0
  6
CONTINUOUS
 10
4.464680
 20
3.406920
  0
VERTEX
  8
0
  6
CONTINUOUS
 10
4.450160
 20
3.378760
  0
VERTEX
  8
0
  6
CONTINUOUS
 10
4.429040
 20
3.353240
  0
VERTEX
  8
0
  6
CONTINUOUS
 10
4.402200
 20
3.329920
  0
VERTEX
  8
0
  6
CONTINUOUS
 10
4.370960
 20
3.309680
  0
VERTEX
  8
0
  6
CONTINUOUS
 10
4.335760
 20
3.292960
  0
VERTEX
  8
0
  6
CONTINUOUS
 10
4.297480
 20
3.279760
  0
VERTEX
  8
0
  6
CONTINUOUS
 10
4.257440
 20
3.270960
  0
VERTEX
  8
0
  6
CONTINUOUS
 10
4.216080
 20
3.266120
  0
VERTEX
  8
0
  6
CONTINUOUS
 10
4.194960
 20
3.265680
  0
VERTEX
  8
0
  6
CONTINUOUS
 10
4.153600
 20
3.268320
  0
VERTEX
  8
0
  6
CONTINUOUS
 10
4.113560
 20
3.276240
  0
VERTEX
  8
0
  6
CONTINUOUS
 10
4.094200
 20
3.282400
  0
VERTEX
  8
0
  6
CONTINUOUS
 10
4.057240
 20
3.299120
  0
VERTEX
  8
0
  6
CONTINUOUS
 10
4.039640
 20
3.309680
  0
VERTEX
  8
0
  6
CONTINUOUS
 10
4.023360
 20
3.322000
  0
VERTEX
  8
0
  6
CONTINUOUS
 10
4.007960
 20
3.336080
  0
VERTEX
  8
0
  6
CONTINUOUS
 10
3.980680
 20
3.368640
  0
VERTEX
  8
0
  6
CONTINUOUS
 10
3.969240
 20
3.388000
  0
VERTEX
  8
0
  6
CONTINUOUS
 10
3.959120
 20
3.408680
  0
VERTEX
  8
0
  6
CONTINUOUS
 10
3.943280
 20
3.449600
  0
VERTEX
  8
0
  6
CONTINUOUS
 10
3.925240
 20
3.482600
  0
VERTEX
  8
0
  6
CONTINUOUS
 10
3.902800
 20
3.511200
  0
VERTEX
  8
0
  6
CONTINUOUS
 10
3.877280
 20
3.535840
  0
VERTEX
  8
0
  6
CONTINUOUS
 10
3.849120
 20
3.556520
  0
VERTEX
  8
0
  6
CONTINUOUS
 10
3.818320
 20
3.572800
  0
VERTEX
  8
0
  6
CONTINUOUS
 10
3.786640
 20
3.585560
  0
VERTEX
  8
0
  6
CONTINUOUS
 10
3.754520
 20
3.593920
  0
VERTEX
  8
0
  6
CONTINUOUS
 10
3.722400
 20
3.598320
  0
VERTEX
  8
0
  6
CONTINUOUS
 10
3.691160
 20
3.599200
  0
VERTEX
  8
0
  6
CONTINUOUS
 10
3.661240
 20
3.596120
  0
VERTEX
  8
0
  6
CONTINUOUS
 10
3.633520
 20
3.589080
  0
VERTEX
  8
0
  6
CONTINUOUS
 10
3.608880
 20
3.578080
  0
VERTEX
  8
0
  6
CONTINUOUS
 10
3.588200
 20
3.563560
  0
VERTEX
  8
0
  6
CONTINUOUS
 10
3.578960
 20
3.554760
  0
VERTEX
  8
0
  6
CONTINUOUS
 10
3.564880
 20
3.534520
  0
VERTEX
  8
0
  6
CONTINUOUS
 10
3.559600
 20
3.523080
  0
VERTEX
  8
0
  6
CONTINUOUS
 10
3.556080
 20
3.510760
  0
VERTEX
  8
0
  6
CONTINUOUS
 10
3.526600
 20
3.549920
  0
VERTEX
  8
0
  6
CONTINUOUS
 10
3.495800
 20
3.580280
  0
VERTEX
  8
0
  6
CONTINUOUS
 10
3.464120
 20
3.603160
  0
VERTEX
  8
0
  6
CONTINUOUS
 10
3.432000
 20
3.618560
  0
VERTEX
  8
0
  6
CONTINUOUS
 10
3.415280
 20
3.624280
  0
VERTEX
  8
0
  6
CONTINUOUS
 10
3.398560
 20
3.628240
  0
VERTEX
  8
0
  6
CONTINUOUS
 10
3.365120
 20
3.631760
  0
VERTEX
  8
0
  6
CONTINUOUS
 10
3.331680
 20
3.630880
  0
VERTEX
  8
0
  6
CONTINUOUS
 10
3.298240
 20
3.625600
  0
VERTEX
  8
0
  6
CONTINUOUS
 10
3.264360
 20
3.617240
  0
VERTEX
  8
0
  6
CONTINUOUS
 10
3.231360
 20
3.606240
  0
VERTEX
  8
0
  6
CONTINUOUS
 10
3.166680
 20
3.578960
  0
VERTEX
  8
0
  6
CONTINUOUS
 10
3.063720
 20
3.530560
  0
VERTEX
  8
0
  6
CONTINUOUS
 10
3.037320
 20
3.520000
  0
VERTEX
  8
0
  6
CONTINUOUS
 10
3.010480
 20
3.513400
  0
VERTEX
  8
0
  6
CONTINUOUS
 10
2.982760
 20
3.510320
  0
VERTEX
  8
0
  6
CONTINUOUS
 10
2.955480
 20
3.510320
  0
VERTEX
  8
0
  6
CONTINUOUS
 10
2.914120
 20
3.515600
  0
VERTEX
  8
0
  6
CONTINUOUS
 10
2.887280
 20
3.521760
  0
VERTEX
  8
0
  6
CONTINUOUS
 10
2.835360
 20
3.538920
  0
VERTEX
  8
0
  6
CONTINUOUS
 10
2.788280
 20
3.560480
  0
VERTEX
  8
0
  6
CONTINUOUS
 10
2.729320
 20
3.593920
  0
VERTEX
  8
0
  6
CONTINUOUS
 10
2.691040
 20
3.619440
  0
VERTEX
  8
0
  6
CONTINUOUS
 10
2.468400
 20
3.405160
  0
VERTEX
  8
0
  6
CONTINUOUS
 10
2.973080
 20
2.885080
  0
SEQEND
  8
0
  0
TEXT
  8
0
 10
4.527160
 20
4.402200
 40
0.138009
  1
BA  1251
 41
1.000000
  7
SN0
 71
     0
 72
     5
 11
5.207977
 21
4.402200
  0
TEXT
  8
0
 10
4.417600
 20
4.210800
 40
0.138009
  1
3/4" x 3-5/8"
 41
1.000000
  7
SN0
 71
     0
 72
     5
 11
5.316547
 21
4.210800
  0
TEXT
  8
0
 10
5.184080
 20
7.910320
 40
0.138009
  1
BA  1251
 41
1.000000
  7
SN0
 71
     0
 72
     5
 11
5.864897
 21
7.910320
  0
TEXT
  8
0
 10
5.074520
 20
7.718920
 40
0.138009
  1
3/4" x 3-5/8"
 41
1.000000
  7
SN0
 71
     0
 72
     5
 11
5.973467
 21
7.718920
  0
ENDSEC
  0
EOF
