  0
SECTION
  2
HEADER
  9
$ACADVER
  1
AC1006
  9
$EXTMIN
 10
3.223000
 20
0.814440
  9
$EXTMAX
 10
6.522120
 20
6.648840
  9
$LTSCALE
 40
0.044000
  9
$PDMODE
 70
    35
  9
$PDSIZE
 40
0.035200
  0
ENDSEC
  0
SECTION
  2
TABLES
  0
TABLE
  2
LTYPE
 70
     9
  0
LTYPE
  2
CONTINUOUS
 70
    64
  3
Solid line
 72
    65
 73
     0
 40
0.000000
  0
LTYPE
  2
DASHED
 70
    64
  3
__ __ __ __ __ __ __ __ __ __ __ __ __ __ __
 72
    65
 73
     2
 40
0.000330
 49
0.000220
 49
-0.000110
  0
LTYPE
  2
HIDDEN
 70
    64
  3
 _ _ _ _ _ _ _ _ _ _ _ _ _ _ _ _ _ _ _ _ _ _
 72
    65
 73
     2
 40
0.000165
 49
0.000110
 49
-0.000055
  0
LTYPE
  2
CENTER
 70
    64
  3
____ _ ____ _ ____ _ ____ _ ____ _ ____ _ ____
 72
    65
 73
     4
 40
0.000880
 49
0.000550
 49
-0.000110
 49
0.000110
 49
-0.000110
  0
LTYPE
  2
PHANTOM
 70
    64
  3
_____ _ _ _____ _ _ _____ _ _ _____ _ _ ____
 72
    65
 73
     6
 40
0.001100
 49
0.000550
 49
-0.000110
 49
0.000110
 49
-0.000110
 49
0.000110
 49
-0.000110
  0
LTYPE
  2
DOT
 70
    64
  3
...............................................
 72
    65
 73
     2
 40
0.000110
 49
0.000000
 49
-0.000110
  0
LTYPE
  2
DASHDOT
 70
    64
  3
__ . __ . __ . __ . __ . __ . __ . __ . __ . __
 72
    65
 73
     4
 40
0.000440
 49
0.000220
 49
-0.000110
 49
0.000000
 49
-0.000110
  0
LTYPE
  2
BORDER
 70
    64
  3
__ __ . __ __ . __ __ . __ __ . __ __ . __ __
 72
    65
 73
     6
 40
0.000770
 49
0.000220
 49
-0.000110
 49
0.000220
 49
-0.000110
 49
0.000000
 49
-0.000110
  0
LTYPE
  2
DIVIDE
 70
    64
  3
__ . . __ . . __ . . __ . . __ . . __ . . __
 72
    65
 73
     6
 40
0.000550
 49
0.000220
 49
-0.000110
 49
0.000000
 49
-0.000110
 49
0.000000
 49
-0.000110
  0
LTYPE
  2
DOTDOT
 70
    64
  3
 . .  . .  . .  . .  . .  . . 
 72
    65
 73
     5
 40
0.000242
 49
-0.000110
 49
0.000000
 49
-0.000110
 49
0.000000
 49
-0.000110
  0
ENDTAB
  0
TABLE
  2
STYLE
 70
     2
  0
STYLE
 70
     0
  2
SN0
 40
0.000000
 41
0.000440
 50
0.000000
 71
     0
 42
0.000000
  3
ROMAND
  0
STYLE
 70
    68
  2
SV0
 40
0.000000
 41
0.000440
 50
0.000000
 71
     0
 42
0.000000
  3
ROMAND
  0
ENDTAB
  0
TABLE
  2
LAYER
 70
     3
  0
LAYER
  2
FOREGROUND
 70
    64
 62
     7
  6
CONTINUOUS
  0
LAYER
  2
BACKGROUND
 70
    65
 62
    -7
  6
CONTINUOUS
  0
LAYER
  2
0
 70
    64
 62
     7
  6
CONTINUOUS
  0
ENDTAB
  0
ENDSEC
  0
SECTION
  2
ENTITIES
  0
POLYLINE
  8
FOREGROUND
  6
CONTINUOUS
 66
     1
 40
0.000000
 41
0.000000
  0
VERTEX
  8
FOREGROUND
  6
CONTINUOUS
 10
0.000000
 20
7.463280
  0
VERTEX
  8
FOREGROUND
  6
CONTINUOUS
 10
8.499920
 20
7.463280
  0
VERTEX
  8
FOREGROUND
  6
CONTINUOUS
 10
8.499920
 20
-3.536720
  0
VERTEX
  8
FOREGROUND
  6
CONTINUOUS
 10
0.000000
 20
-3.536720
  0
VERTEX
  8
FOREGROUND
  6
CONTINUOUS
 10
0.000000
 20
7.463280
  0
SEQEND
  8
0
  0
POLYLINE
  8
FOREGROUND
  6
CONTINUOUS
 66
     1
 40
0.000000
 41
0.000000
  0
VERTEX
  8
FOREGROUND
  6
CONTINUOUS
 10
0.000000
 20
7.463280
  0
VERTEX
  8
FOREGROUND
  6
CONTINUOUS
 10
8.499920
 20
7.463280
  0
VERTEX
  8
FOREGROUND
  6
CONTINUOUS
 10
8.499920
 20
-3.536720
  0
VERTEX
  8
FOREGROUND
  6
CONTINUOUS
 10
0.000000
 20
-3.536720
  0
VERTEX
  8
FOREGROUND
  6
CONTINUOUS
 10
0.000000
 20
7.463280
  0
SEQEND
  8
0
  0
POLYLINE
  8
0
  6
CONTINUOUS
 66
     1
 40
0.014080
 41
0.014080
  0
VERTEX
  8
0
  6
CONTINUOUS
 10
4.762120
 20
5.976520
  0
VERTEX
  8
0
  6
CONTINUOUS
 10
4.754200
 20
5.999840
  0
VERTEX
  8
0
  6
CONTINUOUS
 10
4.745400
 20
6.022720
  0
VERTEX
  8
0
  6
CONTINUOUS
 10
4.736160
 20
6.044720
  0
VERTEX
  8
0
  6
CONTINUOUS
 10
4.726040
 20
6.065840
  0
VERTEX
  8
0
  6
CONTINUOUS
 10
4.715920
 20
6.086520
  0
VERTEX
  8
0
  6
CONTINUOUS
 10
4.704920
 20
6.106320
  0
VERTEX
  8
0
  6
CONTINUOUS
 10
4.693040
 20
6.125680
  0
VERTEX
  8
0
  6
CONTINUOUS
 10
4.681160
 20
6.144160
  0
VERTEX
  8
0
  6
CONTINUOUS
 10
4.668400
 20
6.162200
  0
VERTEX
  8
0
  6
CONTINUOUS
 10
4.641120
 20
6.196520
  0
VERTEX
  8
0
  6
CONTINUOUS
 10
4.626600
 20
6.212360
  0
VERTEX
  8
0
  6
CONTINUOUS
 10
4.611640
 20
6.228200
  0
VERTEX
  8
0
  6
CONTINUOUS
 10
4.596240
 20
6.243160
  0
VERTEX
  8
0
  6
CONTINUOUS
 10
4.580400
 20
6.257680
  0
VERTEX
  8
0
  6
CONTINUOUS
 10
4.564120
 20
6.271760
  0
VERTEX
  8
0
  6
CONTINUOUS
 10
4.546960
 20
6.285400
  0
VERTEX
  8
0
  6
CONTINUOUS
 10
4.529360
 20
6.298600
  0
VERTEX
  8
0
  6
CONTINUOUS
 10
4.493280
 20
6.323240
  0
VERTEX
  8
0
  6
CONTINUOUS
 10
4.473920
 20
6.335120
  0
VERTEX
  8
0
  6
CONTINUOUS
 10
4.454560
 20
6.346120
  0
VERTEX
  8
0
  6
CONTINUOUS
 10
4.414520
 20
6.367680
  0
VERTEX
  8
0
  6
CONTINUOUS
 10
4.372280
 20
6.387480
  0
VERTEX
  8
0
  6
CONTINUOUS
 10
4.328280
 20
6.405520
  0
VERTEX
  8
0
  6
CONTINUOUS
 10
4.282520
 20
6.422680
  0
VERTEX
  8
0
  6
CONTINUOUS
 10
4.235440
 20
6.438960
  0
VERTEX
  8
0
  6
CONTINUOUS
 10
4.186160
 20
6.453920
  0
VERTEX
  8
0
  6
CONTINUOUS
 10
4.135560
 20
6.468000
  0
VERTEX
  8
0
  6
CONTINUOUS
 10
4.083640
 20
6.481200
  0
VERTEX
  8
0
  6
CONTINUOUS
 10
4.029960
 20
6.493960
  0
VERTEX
  8
0
  6
CONTINUOUS
 10
3.974960
 20
6.506280
  0
VERTEX
  8
0
  6
CONTINUOUS
 10
3.918640
 20
6.517720
  0
VERTEX
  8
0
  6
CONTINUOUS
 10
3.860560
 20
6.529160
  0
VERTEX
  8
0
  6
CONTINUOUS
 10
3.801600
 20
6.540600
  0
VERTEX
  8
0
  6
CONTINUOUS
 10
3.741320
 20
6.551600
  0
VERTEX
  8
0
  6
CONTINUOUS
 10
3.679720
 20
6.563040
  0
VERTEX
  8
0
  6
CONTINUOUS
 10
3.616800
 20
6.574480
  0
VERTEX
  8
0
  6
CONTINUOUS
 10
3.553440
 20
6.586360
  0
VERTEX
  8
0
  6
CONTINUOUS
 10
3.488320
 20
6.598680
  0
VERTEX
  8
0
  6
CONTINUOUS
 10
3.422760
 20
6.611440
  0
VERTEX
  8
0
  6
CONTINUOUS
 10
3.355880
 20
6.625080
  0
VERTEX
  8
0
  6
CONTINUOUS
 10
3.288120
 20
6.639600
  0
VERTEX
  8
0
  6
CONTINUOUS
 10
3.288120
 20
5.937800
  0
VERTEX
  8
0
  6
CONTINUOUS
 10
4.762120
 20
5.937800
  0
VERTEX
  8
0
  6
CONTINUOUS
 10
4.762120
 20
5.976520
  0
SEQEND
  8
0
  0
POLYLINE
  8
0
  6
CONTINUOUS
 66
     1
 40
0.000000
 41
0.000000
  0
VERTEX
  8
0
  6
CONTINUOUS
 10
4.173400
 20
2.288440
  0
VERTEX
  8
0
  6
CONTINUOUS
 10
4.196720
 20
2.280520
  0
VERTEX
  8
0
  6
CONTINUOUS
 10
4.219600
 20
2.271720
  0
VERTEX
  8
0
  6
CONTINUOUS
 10
4.241600
 20
2.262480
  0
VERTEX
  8
0
  6
CONTINUOUS
 10
4.262720
 20
2.252800
  0
VERTEX
  8
0
  6
CONTINUOUS
 10
4.283400
 20
2.242240
  0
VERTEX
  8
0
  6
CONTINUOUS
 10
4.303200
 20
2.231240
  0
VERTEX
  8
0
  6
CONTINUOUS
 10
4.341040
 20
2.207480
  0
VERTEX
  8
0
  6
CONTINUOUS
 10
4.359080
 20
2.194720
  0
VERTEX
  8
0
  6
CONTINUOUS
 10
4.376240
 20
2.181520
  0
VERTEX
  8
0
  6
CONTINUOUS
 10
4.392960
 20
2.167440
  0
VERTEX
  8
0
  6
CONTINUOUS
 10
4.409240
 20
2.153360
  0
VERTEX
  8
0
  6
CONTINUOUS
 10
4.425080
 20
2.138400
  0
VERTEX
  8
0
  6
CONTINUOUS
 10
4.440040
 20
2.123000
  0
VERTEX
  8
0
  6
CONTINUOUS
 10
4.454560
 20
2.107160
  0
VERTEX
  8
0
  6
CONTINUOUS
 10
4.468640
 20
2.090440
  0
VERTEX
  8
0
  6
CONTINUOUS
 10
4.482280
 20
2.073720
  0
VERTEX
  8
0
  6
CONTINUOUS
 10
4.495040
 20
2.056120
  0
VERTEX
  8
0
  6
CONTINUOUS
 10
4.507800
 20
2.038080
  0
VERTEX
  8
0
  6
CONTINUOUS
 10
4.519680
 20
2.019600
  0
VERTEX
  8
0
  6
CONTINUOUS
 10
4.531560
 20
2.000680
  0
VERTEX
  8
0
  6
CONTINUOUS
 10
4.543000
 20
1.981320
  0
VERTEX
  8
0
  6
CONTINUOUS
 10
4.564120
 20
1.940840
  0
VERTEX
  8
0
  6
CONTINUOUS
 10
4.583920
 20
1.898600
  0
VERTEX
  8
0
  6
CONTINUOUS
 10
4.602400
 20
1.855040
  0
VERTEX
  8
0
  6
CONTINUOUS
 10
4.619560
 20
1.809280
  0
VERTEX
  8
0
  6
CONTINUOUS
 10
4.635400
 20
1.761760
  0
VERTEX
  8
0
  6
CONTINUOUS
 10
4.650360
 20
1.712920
  0
VERTEX
  8
0
  6
CONTINUOUS
 10
4.664440
 20
1.662320
  0
VERTEX
  8
0
  6
CONTINUOUS
 10
4.678080
 20
1.609960
  0
VERTEX
  8
0
  6
CONTINUOUS
 10
4.690400
 20
1.556720
  0
VERTEX
  8
0
  6
CONTINUOUS
 10
4.702720
 20
1.501280
  0
VERTEX
  8
0
  6
CONTINUOUS
 10
4.714600
 20
1.444960
  0
VERTEX
  8
0
  6
CONTINUOUS
 10
4.726040
 20
1.387320
  0
VERTEX
  8
0
  6
CONTINUOUS
 10
4.737040
 20
1.327920
  0
VERTEX
  8
0
  6
CONTINUOUS
 10
4.748480
 20
1.267640
  0
VERTEX
  8
0
  6
CONTINUOUS
 10
4.759480
 20
1.206480
  0
VERTEX
  8
0
  6
CONTINUOUS
 10
4.771360
 20
1.143560
  0
VERTEX
  8
0
  6
CONTINUOUS
 10
4.782800
 20
1.079760
  0
VERTEX
  8
0
  6
CONTINUOUS
 10
4.795120
 20
1.015080
  0
VERTEX
  8
0
  6
CONTINUOUS
 10
4.808320
 20
0.949080
  0
VERTEX
  8
0
  6
CONTINUOUS
 10
4.821520
 20
0.882640
  0
VERTEX
  8
0
  6
CONTINUOUS
 10
4.836040
 20
0.814880
  0
VERTEX
  8
0
  6
CONTINUOUS
 10
4.134240
 20
0.814880
  0
VERTEX
  8
0
  6
CONTINUOUS
 10
4.134240
 20
2.288440
  0
VERTEX
  8
0
  6
CONTINUOUS
 10
4.173400
 20
2.288440
  0
SEQEND
  8
0
  0
POLYLINE
  8
0
  6
CONTINUOUS
 66
     1
 40
0.000000
 41
0.000000
  0
VERTEX
  8
0
  6
CONTINUOUS
 10
3.886520
 20
2.288440
  0
VERTEX
  8
0
  6
CONTINUOUS
 10
3.863200
 20
2.280520
  0
VERTEX
  8
0
  6
CONTINUOUS
 10
3.840320
 20
2.271720
  0
VERTEX
  8
0
  6
CONTINUOUS
 10
3.818320
 20
2.262480
  0
VERTEX
  8
0
  6
CONTINUOUS
 10
3.797200
 20
2.252800
  0
VERTEX
  8
0
  6
CONTINUOUS
 10
3.776520
 20
2.242240
  0
VERTEX
  8
0
  6
CONTINUOUS
 10
3.756720
 20
2.231240
  0
VERTEX
  8
0
  6
CONTINUOUS
 10
3.718880
 20
2.207480
  0
VERTEX
  8
0
  6
CONTINUOUS
 10
3.700840
 20
2.194720
  0
VERTEX
  8
0
  6
CONTINUOUS
 10
3.683680
 20
2.181520
  0
VERTEX
  8
0
  6
CONTINUOUS
 10
3.666960
 20
2.167440
  0
VERTEX
  8
0
  6
CONTINUOUS
 10
3.650680
 20
2.153360
  0
VERTEX
  8
0
  6
CONTINUOUS
 10
3.634840
 20
2.138400
  0
VERTEX
  8
0
  6
CONTINUOUS
 10
3.619880
 20
2.123000
  0
VERTEX
  8
0
  6
CONTINUOUS
 10
3.605360
 20
2.107160
  0
VERTEX
  8
0
  6
CONTINUOUS
 10
3.591280
 20
2.090440
  0
VERTEX
  8
0
  6
CONTINUOUS
 10
3.577640
 20
2.073720
  0
VERTEX
  8
0
  6
CONTINUOUS
 10
3.564880
 20
2.056120
  0
VERTEX
  8
0
  6
CONTINUOUS
 10
3.552120
 20
2.038080
  0
VERTEX
  8
0
  6
CONTINUOUS
 10
3.540240
 20
2.019600
  0
VERTEX
  8
0
  6
CONTINUOUS
 10
3.528360
 20
2.000680
  0
VERTEX
  8
0
  6
CONTINUOUS
 10
3.516920
 20
1.981320
  0
VERTEX
  8
0
  6
CONTINUOUS
 10
3.495800
 20
1.940840
  0
VERTEX
  8
0
  6
CONTINUOUS
 10
3.476000
 20
1.898600
  0
VERTEX
  8
0
  6
CONTINUOUS
 10
3.457520
 20
1.855040
  0
VERTEX
  8
0
  6
CONTINUOUS
 10
3.440360
 20
1.809280
  0
VERTEX
  8
0
  6
CONTINUOUS
 10
3.424520
 20
1.761760
  0
VERTEX
  8
0
  6
CONTINUOUS
 10
3.409560
 20
1.712920
  0
VERTEX
  8
0
  6
CONTINUOUS
 10
3.395480
 20
1.662320
  0
VERTEX
  8
0
  6
CONTINUOUS
 10
3.381840
 20
1.609960
  0
VERTEX
  8
0
  6
CONTINUOUS
 10
3.369520
 20
1.556720
  0
VERTEX
  8
0
  6
CONTINUOUS
 10
3.357200
 20
1.501280
  0
VERTEX
  8
0
  6
CONTINUOUS
 10
3.345320
 20
1.444960
  0
VERTEX
  8
0
  6
CONTINUOUS
 10
3.333880
 20
1.387320
  0
VERTEX
  8
0
  6
CONTINUOUS
 10
3.322880
 20
1.327920
  0
VERTEX
  8
0
  6
CONTINUOUS
 10
3.311440
 20
1.267640
  0
VERTEX
  8
0
  6
CONTINUOUS
 10
3.300440
 20
1.206480
  0
VERTEX
  8
0
  6
CONTINUOUS
 10
3.288560
 20
1.143560
  0
VERTEX
  8
0
  6
CONTINUOUS
 10
3.277120
 20
1.079760
  0
VERTEX
  8
0
  6
CONTINUOUS
 10
3.264800
 20
1.015080
  0
VERTEX
  8
0
  6
CONTINUOUS
 10
3.251600
 20
0.949080
  0
VERTEX
  8
0
  6
CONTINUOUS
 10
3.238400
 20
0.882640
  0
VERTEX
  8
0
  6
CONTINUOUS
 10
3.223880
 20
0.814880
  0
VERTEX
  8
0
  6
CONTINUOUS
 10
3.925680
 20
0.814880
  0
VERTEX
  8
0
  6
CONTINUOUS
 10
3.925680
 20
2.288440
  0
VERTEX
  8
0
  6
CONTINUOUS
 10
3.886960
 20
2.288440
  0
VERTEX
  8
0
  6
CONTINUOUS
 10
3.886520
 20
2.288440
  0
SEQEND
  8
0
  0
SOLID
  8
0
 62
    15
 10
3.849120
 20
4.174280
 11
4.478760
 21
4.546520
 12
3.878160
 22
4.074400
 13
4.507800
 23
4.447080
  0
POLYLINE
  8
0
  6
CONTINUOUS
 66
     1
 40
0.000000
 41
0.000000
  0
VERTEX
  8
0
  6
CONTINUOUS
 10
3.849120
 20
4.174280
  0
VERTEX
  8
0
  6
CONTINUOUS
 10
4.478760
 20
4.546520
  0
VERTEX
  8
0
  6
CONTINUOUS
 10
4.507800
 20
4.447080
  0
VERTEX
  8
0
  6
CONTINUOUS
 10
3.878160
 20
4.074400
  0
VERTEX
  8
0
  6
CONTINUOUS
 10
3.849120
 20
4.174280
  0
SEQEND
  8
0
  0
SOLID
  8
0
 62
    15
 10
3.432880
 20
4.684240
 11
4.062520
 21
5.056480
 12
3.476000
 22
4.664880
 13
4.105640
 23
5.037560
  0
POLYLINE
  8
0
  6
CONTINUOUS
 66
     1
 40
0.000000
 41
0.000000
  0
VERTEX
  8
0
  6
CONTINUOUS
 10
3.432880
 20
4.684240
  0
VERTEX
  8
0
  6
CONTINUOUS
 10
4.062520
 20
5.056480
  0
VERTEX
  8
0
  6
CONTINUOUS
 10
4.105640
 20
5.037560
  0
VERTEX
  8
0
  6
CONTINUOUS
 10
3.476000
 20
4.664880
  0
VERTEX
  8
0
  6
CONTINUOUS
 10
3.432880
 20
4.684240
  0
SEQEND
  8
0
  0
SOLID
  8
0
 62
    15
 10
3.476000
 20
4.664880
 11
4.105640
 21
5.037560
 12
3.516480
 22
4.643760
 13
4.146120
 23
5.016000
  0
POLYLINE
  8
0
  6
CONTINUOUS
 66
     1
 40
0.000000
 41
0.000000
  0
VERTEX
  8
0
  6
CONTINUOUS
 10
3.476000
 20
4.664880
  0
VERTEX
  8
0
  6
CONTINUOUS
 10
4.105640
 20
5.037560
  0
VERTEX
  8
0
  6
CONTINUOUS
 10
4.146120
 20
5.016000
  0
VERTEX
  8
0
  6
CONTINUOUS
 10
3.516480
 20
4.643760
  0
VERTEX
  8
0
  6
CONTINUOUS
 10
3.476000
 20
4.664880
  0
SEQEND
  8
0
  0
SOLID
  8
0
 62
    15
 10
3.516480
 20
4.643760
 11
4.146120
 21
5.016000
 12
3.554320
 22
4.620000
 13
4.183960
 23
4.992240
  0
POLYLINE
  8
0
  6
CONTINUOUS
 66
     1
 40
0.000000
 41
0.000000
  0
VERTEX
  8
0
  6
CONTINUOUS
 10
3.516480
 20
4.643760
  0
VERTEX
  8
0
  6
CONTINUOUS
 10
4.146120
 20
5.016000
  0
VERTEX
  8
0
  6
CONTINUOUS
 10
4.183960
 20
4.992240
  0
VERTEX
  8
0
  6
CONTINUOUS
 10
3.554320
 20
4.620000
  0
VERTEX
  8
0
  6
CONTINUOUS
 10
3.516480
 20
4.643760
  0
SEQEND
  8
0
  0
SOLID
  8
0
 62
    15
 10
3.554320
 20
4.620000
 11
4.183960
 21
4.992240
 12
3.622960
 22
4.565440
 13
4.252160
 23
4.938120
  0
POLYLINE
  8
0
  6
CONTINUOUS
 66
     1
 40
0.000000
 41
0.000000
  0
VERTEX
  8
0
  6
CONTINUOUS
 10
3.554320
 20
4.620000
  0
VERTEX
  8
0
  6
CONTINUOUS
 10
4.183960
 20
4.992240
  0
VERTEX
  8
0
  6
CONTINUOUS
 10
4.252160
 20
4.938120
  0
VERTEX
  8
0
  6
CONTINUOUS
 10
3.622960
 20
4.565440
  0
VERTEX
  8
0
  6
CONTINUOUS
 10
3.554320
 20
4.620000
  0
SEQEND
  8
0
  0
SOLID
  8
0
 62
    15
 10
3.622960
 20
4.565440
 11
4.252160
 21
4.938120
 12
3.681920
 22
4.502960
 13
4.311560
 23
4.875200
  0
POLYLINE
  8
0
  6
CONTINUOUS
 66
     1
 40
0.000000
 41
0.000000
  0
VERTEX
  8
0
  6
CONTINUOUS
 10
3.622960
 20
4.565440
  0
VERTEX
  8
0
  6
CONTINUOUS
 10
4.252160
 20
4.938120
  0
VERTEX
  8
0
  6
CONTINUOUS
 10
4.311560
 20
4.875200
  0
VERTEX
  8
0
  6
CONTINUOUS
 10
3.681920
 20
4.502960
  0
VERTEX
  8
0
  6
CONTINUOUS
 10
3.622960
 20
4.565440
  0
SEQEND
  8
0
  0
SOLID
  8
0
 62
    15
 10
3.681920
 20
4.502960
 11
4.311560
 21
4.875200
 12
3.733400
 22
4.432120
 13
4.363040
 23
4.804360
  0
POLYLINE
  8
0
  6
CONTINUOUS
 66
     1
 40
0.000000
 41
0.000000
  0
VERTEX
  8
0
  6
CONTINUOUS
 10
3.681920
 20
4.502960
  0
VERTEX
  8
0
  6
CONTINUOUS
 10
4.311560
 20
4.875200
  0
VERTEX
  8
0
  6
CONTINUOUS
 10
4.363040
 20
4.804360
  0
VERTEX
  8
0
  6
CONTINUOUS
 10
3.733400
 20
4.432120
  0
VERTEX
  8
0
  6
CONTINUOUS
 10
3.681920
 20
4.502960
  0
SEQEND
  8
0
  0
SOLID
  8
0
 62
    15
 10
3.733400
 20
4.432120
 11
4.363040
 21
4.804360
 12
3.777840
 22
4.353360
 13
4.407040
 23
4.725600
  0
POLYLINE
  8
0
  6
CONTINUOUS
 66
     1
 40
0.000000
 41
0.000000
  0
VERTEX
  8
0
  6
CONTINUOUS
 10
3.733400
 20
4.432120
  0
VERTEX
  8
0
  6
CONTINUOUS
 10
4.363040
 20
4.804360
  0
VERTEX
  8
0
  6
CONTINUOUS
 10
4.407040
 20
4.725600
  0
VERTEX
  8
0
  6
CONTINUOUS
 10
3.777840
 20
4.353360
  0
VERTEX
  8
0
  6
CONTINUOUS
 10
3.733400
 20
4.432120
  0
SEQEND
  8
0
  0
SOLID
  8
0
 62
    15
 10
3.777840
 20
4.353360
 11
4.407040
 21
4.725600
 12
3.816120
 22
4.267120
 13
4.445320
 23
4.639360
  0
POLYLINE
  8
0
  6
CONTINUOUS
 66
     1
 40
0.000000
 41
0.000000
  0
VERTEX
  8
0
  6
CONTINUOUS
 10
3.777840
 20
4.353360
  0
VERTEX
  8
0
  6
CONTINUOUS
 10
4.407040
 20
4.725600
  0
VERTEX
  8
0
  6
CONTINUOUS
 10
4.445320
 20
4.639360
  0
VERTEX
  8
0
  6
CONTINUOUS
 10
3.816120
 20
4.267120
  0
VERTEX
  8
0
  6
CONTINUOUS
 10
3.777840
 20
4.353360
  0
SEQEND
  8
0
  0
SOLID
  8
0
 62
    15
 10
3.816120
 20
4.267120
 11
4.445320
 21
4.639360
 12
3.849120
 22
4.174280
 13
4.478760
 23
4.546520
  0
POLYLINE
  8
0
  6
CONTINUOUS
 66
     1
 40
0.000000
 41
0.000000
  0
VERTEX
  8
0
  6
CONTINUOUS
 10
3.816120
 20
4.267120
  0
VERTEX
  8
0
  6
CONTINUOUS
 10
4.445320
 20
4.639360
  0
VERTEX
  8
0
  6
CONTINUOUS
 10
4.478760
 20
4.546520
  0
VERTEX
  8
0
  6
CONTINUOUS
 10
3.849120
 20
4.174280
  0
VERTEX
  8
0
  6
CONTINUOUS
 10
3.816120
 20
4.267120
  0
SEQEND
  8
0
  0
SOLID
  8
0
 62
    15
 10
3.386680
 20
4.700960
 11
4.016320
 21
5.073200
 12
3.432880
 22
4.684240
 13
4.062520
 23
5.056480
  0
POLYLINE
  8
0
  6
CONTINUOUS
 66
     1
 40
0.000000
 41
0.000000
  0
VERTEX
  8
0
  6
CONTINUOUS
 10
3.386680
 20
4.700960
  0
VERTEX
  8
0
  6
CONTINUOUS
 10
4.016320
 20
5.073200
  0
VERTEX
  8
0
  6
CONTINUOUS
 10
4.062520
 20
5.056480
  0
VERTEX
  8
0
  6
CONTINUOUS
 10
3.432880
 20
4.684240
  0
VERTEX
  8
0
  6
CONTINUOUS
 10
3.386680
 20
4.700960
  0
SEQEND
  8
0
  0
SOLID
  8
0
 62
    15
 10
3.878160
 20
4.074400
 11
4.507800
 21
4.447080
 12
3.904120
 22
3.968800
 13
4.533760
 23
4.341040
  0
POLYLINE
  8
0
  6
CONTINUOUS
 66
     1
 40
0.000000
 41
0.000000
  0
VERTEX
  8
0
  6
CONTINUOUS
 10
3.878160
 20
4.074400
  0
VERTEX
  8
0
  6
CONTINUOUS
 10
4.507800
 20
4.447080
  0
VERTEX
  8
0
  6
CONTINUOUS
 10
4.533760
 20
4.341040
  0
VERTEX
  8
0
  6
CONTINUOUS
 10
3.904120
 20
3.968800
  0
VERTEX
  8
0
  6
CONTINUOUS
 10
3.878160
 20
4.074400
  0
SEQEND
  8
0
  0
SOLID
  8
0
 62
    15
 10
3.904120
 20
3.968800
 11
4.533760
 21
4.341040
 12
3.927880
 22
3.857480
 13
4.557520
 23
4.229720
  0
POLYLINE
  8
0
  6
CONTINUOUS
 66
     1
 40
0.000000
 41
0.000000
  0
VERTEX
  8
0
  6
CONTINUOUS
 10
3.904120
 20
3.968800
  0
VERTEX
  8
0
  6
CONTINUOUS
 10
4.533760
 20
4.341040
  0
VERTEX
  8
0
  6
CONTINUOUS
 10
4.557520
 20
4.229720
  0
VERTEX
  8
0
  6
CONTINUOUS
 10
3.927880
 20
3.857480
  0
VERTEX
  8
0
  6
CONTINUOUS
 10
3.904120
 20
3.968800
  0
SEQEND
  8
0
  0
SOLID
  8
0
 62
    15
 10
3.927880
 20
3.857480
 11
4.557520
 21
4.229720
 12
3.950760
 22
3.740440
 13
4.579960
 23
4.112680
  0
POLYLINE
  8
0
  6
CONTINUOUS
 66
     1
 40
0.000000
 41
0.000000
  0
VERTEX
  8
0
  6
CONTINUOUS
 10
3.927880
 20
3.857480
  0
VERTEX
  8
0
  6
CONTINUOUS
 10
4.557520
 20
4.229720
  0
VERTEX
  8
0
  6
CONTINUOUS
 10
4.579960
 20
4.112680
  0
VERTEX
  8
0
  6
CONTINUOUS
 10
3.950760
 20
3.740440
  0
VERTEX
  8
0
  6
CONTINUOUS
 10
3.927880
 20
3.857480
  0
SEQEND
  8
0
  0
SOLID
  8
0
 62
    15
 10
3.950760
 20
3.740440
 11
4.579960
 21
4.112680
 12
3.961760
 22
3.680160
 13
4.591400
 23
4.052400
  0
POLYLINE
  8
0
  6
CONTINUOUS
 66
     1
 40
0.000000
 41
0.000000
  0
VERTEX
  8
0
  6
CONTINUOUS
 10
3.950760
 20
3.740440
  0
VERTEX
  8
0
  6
CONTINUOUS
 10
4.579960
 20
4.112680
  0
VERTEX
  8
0
  6
CONTINUOUS
 10
4.591400
 20
4.052400
  0
VERTEX
  8
0
  6
CONTINUOUS
 10
3.961760
 20
3.680160
  0
VERTEX
  8
0
  6
CONTINUOUS
 10
3.950760
 20
3.740440
  0
SEQEND
  8
0
  0
SOLID
  8
0
 62
    15
 10
3.961760
 20
3.680160
 11
4.591400
 21
4.052400
 12
3.984640
 22
3.556080
 13
4.614280
 23
3.928320
  0
POLYLINE
  8
0
  6
CONTINUOUS
 66
     1
 40
0.000000
 41
0.000000
  0
VERTEX
  8
0
  6
CONTINUOUS
 10
3.961760
 20
3.680160
  0
VERTEX
  8
0
  6
CONTINUOUS
 10
4.591400
 20
4.052400
  0
VERTEX
  8
0
  6
CONTINUOUS
 10
4.614280
 20
3.928320
  0
VERTEX
  8
0
  6
CONTINUOUS
 10
3.984640
 20
3.556080
  0
VERTEX
  8
0
  6
CONTINUOUS
 10
3.961760
 20
3.680160
  0
SEQEND
  8
0
  0
SOLID
  8
0
 62
    15
 10
3.984640
 20
3.556080
 11
4.614280
 21
3.928320
 12
3.996520
 22
3.492280
 13
4.626160
 23
3.864520
  0
POLYLINE
  8
0
  6
CONTINUOUS
 66
     1
 40
0.000000
 41
0.000000
  0
VERTEX
  8
0
  6
CONTINUOUS
 10
3.984640
 20
3.556080
  0
VERTEX
  8
0
  6
CONTINUOUS
 10
4.614280
 20
3.928320
  0
VERTEX
  8
0
  6
CONTINUOUS
 10
4.626160
 20
3.864520
  0
VERTEX
  8
0
  6
CONTINUOUS
 10
3.996520
 20
3.492280
  0
VERTEX
  8
0
  6
CONTINUOUS
 10
3.984640
 20
3.556080
  0
SEQEND
  8
0
  0
SOLID
  8
0
 62
    15
 10
3.996520
 20
3.492280
 11
4.626160
 21
3.864520
 12
4.021600
 22
3.361600
 13
4.651240
 23
3.733840
  0
POLYLINE
  8
0
  6
CONTINUOUS
 66
     1
 40
0.000000
 41
0.000000
  0
VERTEX
  8
0
  6
CONTINUOUS
 10
3.996520
 20
3.492280
  0
VERTEX
  8
0
  6
CONTINUOUS
 10
4.626160
 20
3.864520
  0
VERTEX
  8
0
  6
CONTINUOUS
 10
4.651240
 20
3.733840
  0
VERTEX
  8
0
  6
CONTINUOUS
 10
4.021600
 20
3.361600
  0
VERTEX
  8
0
  6
CONTINUOUS
 10
3.996520
 20
3.492280
  0
SEQEND
  8
0
  0
SOLID
  8
0
 62
    15
 10
4.021600
 20
3.361600
 11
4.651240
 21
3.733840
 12
4.049760
 22
3.226960
 13
4.678960
 23
3.599640
  0
POLYLINE
  8
0
  6
CONTINUOUS
 66
     1
 40
0.000000
 41
0.000000
  0
VERTEX
  8
0
  6
CONTINUOUS
 10
4.021600
 20
3.361600
  0
VERTEX
  8
0
  6
CONTINUOUS
 10
4.651240
 20
3.733840
  0
VERTEX
  8
0
  6
CONTINUOUS
 10
4.678960
 20
3.599640
  0
VERTEX
  8
0
  6
CONTINUOUS
 10
4.049760
 20
3.226960
  0
VERTEX
  8
0
  6
CONTINUOUS
 10
4.021600
 20
3.361600
  0
SEQEND
  8
0
  0
SOLID
  8
0
 62
    15
 10
3.347960
 20
4.700960
 11
3.977160
 21
5.073200
 12
3.386680
 22
4.700960
 13
4.016320
 23
5.073200
  0
POLYLINE
  8
0
  6
CONTINUOUS
 66
     1
 40
0.000000
 41
0.000000
  0
VERTEX
  8
0
  6
CONTINUOUS
 10
3.347960
 20
4.700960
  0
VERTEX
  8
0
  6
CONTINUOUS
 10
3.977160
 20
5.073200
  0
VERTEX
  8
0
  6
CONTINUOUS
 10
4.016320
 20
5.073200
  0
VERTEX
  8
0
  6
CONTINUOUS
 10
3.386680
 20
4.700960
  0
VERTEX
  8
0
  6
CONTINUOUS
 10
3.347960
 20
4.700960
  0
SEQEND
  8
0
  0
POLYLINE
  8
0
  6
CONTINUOUS
 66
     1
 40
0.000000
 41
0.000000
  0
VERTEX
  8
0
  6
CONTINUOUS
 10
3.386680
 20
4.700960
  0
VERTEX
  8
0
  6
CONTINUOUS
 10
4.016320
 20
5.073200
  0
VERTEX
  8
0
  6
CONTINUOUS
 10
3.386680
 20
4.700960
  0
SEQEND
  8
0
  0
POLYLINE
  8
0
  6
CONTINUOUS
 66
     1
 40
0.000000
 41
0.000000
  0
VERTEX
  8
0
  6
CONTINUOUS
 10
3.386680
 20
4.700960
  0
VERTEX
  8
0
  6
CONTINUOUS
 10
3.432880
 20
4.684240
  0
VERTEX
  8
0
  6
CONTINUOUS
 10
3.476000
 20
4.664880
  0
VERTEX
  8
0
  6
CONTINUOUS
 10
3.516480
 20
4.643760
  0
VERTEX
  8
0
  6
CONTINUOUS
 10
3.554320
 20
4.620000
  0
VERTEX
  8
0
  6
CONTINUOUS
 10
3.622960
 20
4.565440
  0
VERTEX
  8
0
  6
CONTINUOUS
 10
3.681920
 20
4.502960
  0
VERTEX
  8
0
  6
CONTINUOUS
 10
3.733400
 20
4.432120
  0
VERTEX
  8
0
  6
CONTINUOUS
 10
3.777840
 20
4.353360
  0
VERTEX
  8
0
  6
CONTINUOUS
 10
3.816120
 20
4.267120
  0
VERTEX
  8
0
  6
CONTINUOUS
 10
3.849120
 20
4.174280
  0
VERTEX
  8
0
  6
CONTINUOUS
 10
3.878160
 20
4.074400
  0
VERTEX
  8
0
  6
CONTINUOUS
 10
3.904120
 20
3.968800
  0
VERTEX
  8
0
  6
CONTINUOUS
 10
3.927880
 20
3.857480
  0
VERTEX
  8
0
  6
CONTINUOUS
 10
3.950760
 20
3.740440
  0
VERTEX
  8
0
  6
CONTINUOUS
 10
3.961760
 20
3.680160
  0
VERTEX
  8
0
  6
CONTINUOUS
 10
3.984640
 20
3.556080
  0
VERTEX
  8
0
  6
CONTINUOUS
 10
3.996520
 20
3.492280
  0
VERTEX
  8
0
  6
CONTINUOUS
 10
4.021600
 20
3.361600
  0
VERTEX
  8
0
  6
CONTINUOUS
 10
4.049760
 20
3.226960
  0
VERTEX
  8
0
  6
CONTINUOUS
 10
3.347960
 20
3.226960
  0
VERTEX
  8
0
  6
CONTINUOUS
 10
3.347960
 20
4.700960
  0
VERTEX
  8
0
  6
CONTINUOUS
 10
3.386680
 20
4.700960
  0
SEQEND
  8
0
  0
TEXT
  8
0
 10
3.645400
 20
2.915000
 40
0.138256
  1
BA  1250
 41
1.000000
  7
SN0
 71
     0
 72
     5
 11
4.329483
 21
2.915000
  0
TEXT
  8
0
 10
3.443440
 20
2.723600
 40
0.138256
  1
11/16" x 1-1/2" 
 41
1.000000
  7
SN0
 71
     0
 72
     5
 11
4.577647
 21
2.723600
  0
TEXT
  8
0
 10
3.666080
 20
5.729240
 40
0.138256
  1
BA  1250
 41
1.000000
  7
SN0
 71
     0
 72
     5
 11
4.350163
 21
5.729240
  0
TEXT
  8
0
 10
3.464120
 20
5.537840
 40
0.138256
  1
11/16" x 1-1/2" 
 41
1.000000
  7
SN0
 71
     0
 72
     5
 11
4.598327
 21
5.537840
  0
TEXT
  8
0
 10
5.792600
 20
5.965080
 40
0.138256
  1
Base Cap
 41
1.000000
  7
SN0
 71
     0
 72
     5
 11
6.522775
 21
5.965080
  0
ENDSEC
  0
EOF
