  0
SECTION
  2
HEADER
  9
$ACADVER
  1
AC1006
  9
$EXTMIN
 10
3.197480
 20
1.706760
  9
$EXTMAX
 10
6.054400
 20
5.309920
  9
$LTSCALE
 40
0.044000
  9
$PDMODE
 70
    35
  9
$PDSIZE
 40
0.035200
  0
ENDSEC
  0
SECTION
  2
TABLES
  0
TABLE
  2
LTYPE
 70
     9
  0
LTYPE
  2
CONTINUOUS
 70
    64
  3
Solid line
 72
    65
 73
     0
 40
0.000000
  0
LTYPE
  2
DASHED
 70
    64
  3
__ __ __ __ __ __ __ __ __ __ __ __ __ __ __
 72
    65
 73
     2
 40
0.000330
 49
0.000220
 49
-0.000110
  0
LTYPE
  2
HIDDEN
 70
    64
  3
 _ _ _ _ _ _ _ _ _ _ _ _ _ _ _ _ _ _ _ _ _ _
 72
    65
 73
     2
 40
0.000165
 49
0.000110
 49
-0.000055
  0
LTYPE
  2
CENTER
 70
    64
  3
____ _ ____ _ ____ _ ____ _ ____ _ ____ _ ____
 72
    65
 73
     4
 40
0.000880
 49
0.000550
 49
-0.000110
 49
0.000110
 49
-0.000110
  0
LTYPE
  2
PHANTOM
 70
    64
  3
_____ _ _ _____ _ _ _____ _ _ _____ _ _ ____
 72
    65
 73
     6
 40
0.001100
 49
0.000550
 49
-0.000110
 49
0.000110
 49
-0.000110
 49
0.000110
 49
-0.000110
  0
LTYPE
  2
DOT
 70
    64
  3
...............................................
 72
    65
 73
     2
 40
0.000110
 49
0.000000
 49
-0.000110
  0
LTYPE
  2
DASHDOT
 70
    64
  3
__ . __ . __ . __ . __ . __ . __ . __ . __ . __
 72
    65
 73
     4
 40
0.000440
 49
0.000220
 49
-0.000110
 49
0.000000
 49
-0.000110
  0
LTYPE
  2
BORDER
 70
    64
  3
__ __ . __ __ . __ __ . __ __ . __ __ . __ __
 72
    65
 73
     6
 40
0.000770
 49
0.000220
 49
-0.000110
 49
0.000220
 49
-0.000110
 49
0.000000
 49
-0.000110
  0
LTYPE
  2
DIVIDE
 70
    64
  3
__ . . __ . . __ . . __ . . __ . . __ . . __
 72
    65
 73
     6
 40
0.000550
 49
0.000220
 49
-0.000110
 49
0.000000
 49
-0.000110
 49
0.000000
 49
-0.000110
  0
LTYPE
  2
DOTDOT
 70
    64
  3
 . .  . .  . .  . .  . .  . . 
 72
    65
 73
     5
 40
0.000242
 49
-0.000110
 49
0.000000
 49
-0.000110
 49
0.000000
 49
-0.000110
  0
ENDTAB
  0
TABLE
  2
STYLE
 70
     2
  0
STYLE
 70
     0
  2
SN0
 40
0.000000
 41
0.000440
 50
0.000000
 71
     0
 42
0.000000
  3
ROMAND
  0
STYLE
 70
    68
  2
SV0
 40
0.000000
 41
0.000440
 50
0.000000
 71
     0
 42
0.000000
  3
ROMAND
  0
ENDTAB
  0
TABLE
  2
LAYER
 70
     3
  0
LAYER
  2
FOREGROUND
 70
    64
 62
     7
  6
CONTINUOUS
  0
LAYER
  2
BACKGROUND
 70
    65
 62
    -7
  6
CONTINUOUS
  0
LAYER
  2
0
 70
    64
 62
     7
  6
CONTINUOUS
  0
ENDTAB
  0
ENDSEC
  0
SECTION
  2
ENTITIES
  0
POLYLINE
  8
FOREGROUND
  6
CONTINUOUS
 66
     1
 40
0.000000
 41
0.000000
  0
VERTEX
  8
FOREGROUND
  6
CONTINUOUS
 10
0.000000
 20
7.016680
  0
VERTEX
  8
FOREGROUND
  6
CONTINUOUS
 10
8.499920
 20
7.016680
  0
VERTEX
  8
FOREGROUND
  6
CONTINUOUS
 10
8.499920
 20
-3.983320
  0
VERTEX
  8
FOREGROUND
  6
CONTINUOUS
 10
0.000000
 20
-3.983320
  0
VERTEX
  8
FOREGROUND
  6
CONTINUOUS
 10
0.000000
 20
7.016680
  0
SEQEND
  8
0
  0
POLYLINE
  8
FOREGROUND
  6
CONTINUOUS
 66
     1
 40
0.000000
 41
0.000000
  0
VERTEX
  8
FOREGROUND
  6
CONTINUOUS
 10
0.000000
 20
7.016680
  0
VERTEX
  8
FOREGROUND
  6
CONTINUOUS
 10
8.499920
 20
7.016680
  0
VERTEX
  8
FOREGROUND
  6
CONTINUOUS
 10
8.499920
 20
-3.983320
  0
VERTEX
  8
FOREGROUND
  6
CONTINUOUS
 10
0.000000
 20
-3.983320
  0
VERTEX
  8
FOREGROUND
  6
CONTINUOUS
 10
0.000000
 20
7.016680
  0
SEQEND
  8
0
  0
POLYLINE
  8
0
  6
CONTINUOUS
 66
     1
 40
0.014080
 41
0.014080
  0
VERTEX
  8
0
  6
CONTINUOUS
 10
3.204960
 20
4.596680
  0
VERTEX
  8
0
  6
CONTINUOUS
 10
4.732200
 20
4.596680
  0
VERTEX
  8
0
  6
CONTINUOUS
 10
4.732200
 20
4.833840
  0
VERTEX
  8
0
  6
CONTINUOUS
 10
4.537720
 20
4.833840
  0
VERTEX
  8
0
  6
CONTINUOUS
 10
4.532880
 20
4.866840
  0
VERTEX
  8
0
  6
CONTINUOUS
 10
4.523200
 20
4.896320
  0
VERTEX
  8
0
  6
CONTINUOUS
 10
4.504280
 20
4.930200
  0
VERTEX
  8
0
  6
CONTINUOUS
 10
4.492400
 20
4.945160
  0
VERTEX
  8
0
  6
CONTINUOUS
 10
4.463800
 20
4.971120
  0
VERTEX
  8
0
  6
CONTINUOUS
 10
4.429920
 20
4.992680
  0
VERTEX
  8
0
  6
CONTINUOUS
 10
4.391640
 20
5.009840
  0
VERTEX
  8
0
  6
CONTINUOUS
 10
4.349840
 20
5.023040
  0
VERTEX
  8
0
  6
CONTINUOUS
 10
4.305400
 20
5.033160
  0
VERTEX
  8
0
  6
CONTINUOUS
 10
4.258320
 20
5.040200
  0
VERTEX
  8
0
  6
CONTINUOUS
 10
4.210800
 20
5.045040
  0
VERTEX
  8
0
  6
CONTINUOUS
 10
4.162400
 20
5.048120
  0
VERTEX
  8
0
  6
CONTINUOUS
 10
4.023360
 20
5.050320
  0
VERTEX
  8
0
  6
CONTINUOUS
 10
3.943720
 20
5.050760
  0
VERTEX
  8
0
  6
CONTINUOUS
 10
3.833280
 20
5.054720
  0
VERTEX
  8
0
  6
CONTINUOUS
 10
3.759360
 20
5.062200
  0
VERTEX
  8
0
  6
CONTINUOUS
 10
3.706120
 20
5.072320
  0
VERTEX
  8
0
  6
CONTINUOUS
 10
3.672240
 20
5.081560
  0
VERTEX
  8
0
  6
CONTINUOUS
 10
3.624720
 20
5.100920
  0
VERTEX
  8
0
  6
CONTINUOUS
 10
3.595680
 20
5.117640
  0
VERTEX
  8
0
  6
CONTINUOUS
 10
3.569280
 20
5.137440
  0
VERTEX
  8
0
  6
CONTINUOUS
 10
3.545520
 20
5.161640
  0
VERTEX
  8
0
  6
CONTINUOUS
 10
3.525280
 20
5.189360
  0
VERTEX
  8
0
  6
CONTINUOUS
 10
3.508560
 20
5.222360
  0
VERTEX
  8
0
  6
CONTINUOUS
 10
3.496240
 20
5.259760
  0
VERTEX
  8
0
  6
CONTINUOUS
 10
3.491400
 20
5.280440
  0
VERTEX
  8
0
  6
CONTINUOUS
 10
3.487880
 20
5.302440
  0
VERTEX
  8
0
  6
CONTINUOUS
 10
3.204960
 20
5.302440
  0
VERTEX
  8
0
  6
CONTINUOUS
 10
3.204960
 20
4.596680
  0
SEQEND
  8
0
  0
SOLID
  8
0
 62
    15
 10
4.163720
 20
2.898720
 11
4.802600
 21
2.532640
 12
4.163280
 22
2.860880
 13
4.802160
 23
2.494800
  0
POLYLINE
  8
0
  6
CONTINUOUS
 66
     1
 40
0.000000
 41
0.000000
  0
VERTEX
  8
0
  6
CONTINUOUS
 10
4.163720
 20
2.898720
  0
VERTEX
  8
0
  6
CONTINUOUS
 10
4.802600
 20
2.532640
  0
VERTEX
  8
0
  6
CONTINUOUS
 10
4.802160
 20
2.494800
  0
VERTEX
  8
0
  6
CONTINUOUS
 10
4.163280
 20
2.860880
  0
VERTEX
  8
0
  6
CONTINUOUS
 10
4.163720
 20
2.898720
  0
SEQEND
  8
0
  0
SOLID
  8
0
 62
    15
 10
4.415400
 20
3.354560
 11
5.054280
 21
2.988480
 12
4.372720
 22
3.346200
 13
5.011600
 23
2.980120
  0
POLYLINE
  8
0
  6
CONTINUOUS
 66
     1
 40
0.000000
 41
0.000000
  0
VERTEX
  8
0
  6
CONTINUOUS
 10
4.415400
 20
3.354560
  0
VERTEX
  8
0
  6
CONTINUOUS
 10
5.054280
 20
2.988480
  0
VERTEX
  8
0
  6
CONTINUOUS
 10
5.011600
 20
2.980120
  0
VERTEX
  8
0
  6
CONTINUOUS
 10
4.372720
 20
3.346200
  0
VERTEX
  8
0
  6
CONTINUOUS
 10
4.415400
 20
3.354560
  0
SEQEND
  8
0
  0
SOLID
  8
0
 62
    15
 10
4.372720
 20
3.346200
 11
5.011600
 21
2.980120
 12
4.335320
 22
3.333880
 13
4.974200
 23
2.967360
  0
POLYLINE
  8
0
  6
CONTINUOUS
 66
     1
 40
0.000000
 41
0.000000
  0
VERTEX
  8
0
  6
CONTINUOUS
 10
4.372720
 20
3.346200
  0
VERTEX
  8
0
  6
CONTINUOUS
 10
5.011600
 20
2.980120
  0
VERTEX
  8
0
  6
CONTINUOUS
 10
4.974200
 20
2.967360
  0
VERTEX
  8
0
  6
CONTINUOUS
 10
4.335320
 20
3.333880
  0
VERTEX
  8
0
  6
CONTINUOUS
 10
4.372720
 20
3.346200
  0
SEQEND
  8
0
  0
SOLID
  8
0
 62
    15
 10
4.335320
 20
3.333880
 11
4.974200
 21
2.967360
 12
4.302760
 22
3.317160
 13
4.941640
 23
2.951080
  0
POLYLINE
  8
0
  6
CONTINUOUS
 66
     1
 40
0.000000
 41
0.000000
  0
VERTEX
  8
0
  6
CONTINUOUS
 10
4.335320
 20
3.333880
  0
VERTEX
  8
0
  6
CONTINUOUS
 10
4.974200
 20
2.967360
  0
VERTEX
  8
0
  6
CONTINUOUS
 10
4.941640
 20
2.951080
  0
VERTEX
  8
0
  6
CONTINUOUS
 10
4.302760
 20
3.317160
  0
VERTEX
  8
0
  6
CONTINUOUS
 10
4.335320
 20
3.333880
  0
SEQEND
  8
0
  0
SOLID
  8
0
 62
    15
 10
4.302760
 20
3.317160
 11
4.941640
 21
2.951080
 12
4.274600
 22
3.296920
 13
4.913480
 23
2.930840
  0
POLYLINE
  8
0
  6
CONTINUOUS
 66
     1
 40
0.000000
 41
0.000000
  0
VERTEX
  8
0
  6
CONTINUOUS
 10
4.302760
 20
3.317160
  0
VERTEX
  8
0
  6
CONTINUOUS
 10
4.941640
 20
2.951080
  0
VERTEX
  8
0
  6
CONTINUOUS
 10
4.913480
 20
2.930840
  0
VERTEX
  8
0
  6
CONTINUOUS
 10
4.274600
 20
3.296920
  0
VERTEX
  8
0
  6
CONTINUOUS
 10
4.302760
 20
3.317160
  0
SEQEND
  8
0
  0
SOLID
  8
0
 62
    15
 10
4.274600
 20
3.296920
 11
4.913480
 21
2.930840
 12
4.250840
 22
3.273160
 13
4.889720
 23
2.907080
  0
POLYLINE
  8
0
  6
CONTINUOUS
 66
     1
 40
0.000000
 41
0.000000
  0
VERTEX
  8
0
  6
CONTINUOUS
 10
4.274600
 20
3.296920
  0
VERTEX
  8
0
  6
CONTINUOUS
 10
4.913480
 20
2.930840
  0
VERTEX
  8
0
  6
CONTINUOUS
 10
4.889720
 20
2.907080
  0
VERTEX
  8
0
  6
CONTINUOUS
 10
4.250840
 20
3.273160
  0
VERTEX
  8
0
  6
CONTINUOUS
 10
4.274600
 20
3.296920
  0
SEQEND
  8
0
  0
SOLID
  8
0
 62
    15
 10
4.250840
 20
3.273160
 11
4.889720
 21
2.907080
 12
4.230600
 22
3.246760
 13
4.869480
 23
2.880680
  0
POLYLINE
  8
0
  6
CONTINUOUS
 66
     1
 40
0.000000
 41
0.000000
  0
VERTEX
  8
0
  6
CONTINUOUS
 10
4.250840
 20
3.273160
  0
VERTEX
  8
0
  6
CONTINUOUS
 10
4.889720
 20
2.907080
  0
VERTEX
  8
0
  6
CONTINUOUS
 10
4.869480
 20
2.880680
  0
VERTEX
  8
0
  6
CONTINUOUS
 10
4.230600
 20
3.246760
  0
VERTEX
  8
0
  6
CONTINUOUS
 10
4.250840
 20
3.273160
  0
SEQEND
  8
0
  0
SOLID
  8
0
 62
    15
 10
4.230600
 20
3.246760
 11
4.869480
 21
2.880680
 12
4.213880
 22
3.217720
 13
4.853200
 23
2.851640
  0
POLYLINE
  8
0
  6
CONTINUOUS
 66
     1
 40
0.000000
 41
0.000000
  0
VERTEX
  8
0
  6
CONTINUOUS
 10
4.230600
 20
3.246760
  0
VERTEX
  8
0
  6
CONTINUOUS
 10
4.869480
 20
2.880680
  0
VERTEX
  8
0
  6
CONTINUOUS
 10
4.853200
 20
2.851640
  0
VERTEX
  8
0
  6
CONTINUOUS
 10
4.213880
 20
3.217720
  0
VERTEX
  8
0
  6
CONTINUOUS
 10
4.230600
 20
3.246760
  0
SEQEND
  8
0
  0
SOLID
  8
0
 62
    15
 10
4.213880
 20
3.217720
 11
4.853200
 21
2.851640
 12
4.200680
 22
3.186480
 13
4.839560
 23
2.820400
  0
POLYLINE
  8
0
  6
CONTINUOUS
 66
     1
 40
0.000000
 41
0.000000
  0
VERTEX
  8
0
  6
CONTINUOUS
 10
4.213880
 20
3.217720
  0
VERTEX
  8
0
  6
CONTINUOUS
 10
4.853200
 20
2.851640
  0
VERTEX
  8
0
  6
CONTINUOUS
 10
4.839560
 20
2.820400
  0
VERTEX
  8
0
  6
CONTINUOUS
 10
4.200680
 20
3.186480
  0
VERTEX
  8
0
  6
CONTINUOUS
 10
4.213880
 20
3.217720
  0
SEQEND
  8
0
  0
SOLID
  8
0
 62
    15
 10
4.200680
 20
3.186480
 11
4.839560
 21
2.820400
 12
4.181760
 22
3.118720
 13
4.820640
 23
2.752640
  0
POLYLINE
  8
0
  6
CONTINUOUS
 66
     1
 40
0.000000
 41
0.000000
  0
VERTEX
  8
0
  6
CONTINUOUS
 10
4.200680
 20
3.186480
  0
VERTEX
  8
0
  6
CONTINUOUS
 10
4.839560
 20
2.820400
  0
VERTEX
  8
0
  6
CONTINUOUS
 10
4.820640
 20
2.752640
  0
VERTEX
  8
0
  6
CONTINUOUS
 10
4.181760
 20
3.118720
  0
VERTEX
  8
0
  6
CONTINUOUS
 10
4.200680
 20
3.186480
  0
SEQEND
  8
0
  0
SOLID
  8
0
 62
    15
 10
4.181760
 20
3.118720
 11
4.820640
 21
2.752640
 12
4.171200
 22
3.046120
 13
4.810080
 23
2.680040
  0
POLYLINE
  8
0
  6
CONTINUOUS
 66
     1
 40
0.000000
 41
0.000000
  0
VERTEX
  8
0
  6
CONTINUOUS
 10
4.181760
 20
3.118720
  0
VERTEX
  8
0
  6
CONTINUOUS
 10
4.820640
 20
2.752640
  0
VERTEX
  8
0
  6
CONTINUOUS
 10
4.810080
 20
2.680040
  0
VERTEX
  8
0
  6
CONTINUOUS
 10
4.171200
 20
3.046120
  0
VERTEX
  8
0
  6
CONTINUOUS
 10
4.181760
 20
3.118720
  0
SEQEND
  8
0
  0
SOLID
  8
0
 62
    15
 10
4.171200
 20
3.046120
 11
4.810080
 21
2.680040
 12
4.165920
 22
2.972200
 13
4.804800
 23
2.605680
  0
POLYLINE
  8
0
  6
CONTINUOUS
 66
     1
 40
0.000000
 41
0.000000
  0
VERTEX
  8
0
  6
CONTINUOUS
 10
4.171200
 20
3.046120
  0
VERTEX
  8
0
  6
CONTINUOUS
 10
4.810080
 20
2.680040
  0
VERTEX
  8
0
  6
CONTINUOUS
 10
4.804800
 20
2.605680
  0
VERTEX
  8
0
  6
CONTINUOUS
 10
4.165920
 20
2.972200
  0
VERTEX
  8
0
  6
CONTINUOUS
 10
4.171200
 20
3.046120
  0
SEQEND
  8
0
  0
SOLID
  8
0
 62
    15
 10
4.165920
 20
2.972200
 11
4.804800
 21
2.605680
 12
4.164600
 22
2.935240
 13
4.803480
 23
2.569160
  0
POLYLINE
  8
0
  6
CONTINUOUS
 66
     1
 40
0.000000
 41
0.000000
  0
VERTEX
  8
0
  6
CONTINUOUS
 10
4.165920
 20
2.972200
  0
VERTEX
  8
0
  6
CONTINUOUS
 10
4.804800
 20
2.605680
  0
VERTEX
  8
0
  6
CONTINUOUS
 10
4.803480
 20
2.569160
  0
VERTEX
  8
0
  6
CONTINUOUS
 10
4.164600
 20
2.935240
  0
VERTEX
  8
0
  6
CONTINUOUS
 10
4.165920
 20
2.972200
  0
SEQEND
  8
0
  0
SOLID
  8
0
 62
    15
 10
4.164600
 20
2.935240
 11
4.803480
 21
2.569160
 12
4.163720
 22
2.898720
 13
4.802600
 23
2.532640
  0
POLYLINE
  8
0
  6
CONTINUOUS
 66
     1
 40
0.000000
 41
0.000000
  0
VERTEX
  8
0
  6
CONTINUOUS
 10
4.164600
 20
2.935240
  0
VERTEX
  8
0
  6
CONTINUOUS
 10
4.803480
 20
2.569160
  0
VERTEX
  8
0
  6
CONTINUOUS
 10
4.802600
 20
2.532640
  0
VERTEX
  8
0
  6
CONTINUOUS
 10
4.163720
 20
2.898720
  0
VERTEX
  8
0
  6
CONTINUOUS
 10
4.164600
 20
2.935240
  0
SEQEND
  8
0
  0
SOLID
  8
0
 62
    15
 10
4.415400
 20
3.637480
 11
5.054280
 21
3.271400
 12
4.415400
 22
3.354560
 13
5.054280
 23
2.988480
  0
POLYLINE
  8
0
  6
CONTINUOUS
 66
     1
 40
0.000000
 41
0.000000
  0
VERTEX
  8
0
  6
CONTINUOUS
 10
4.415400
 20
3.637480
  0
VERTEX
  8
0
  6
CONTINUOUS
 10
5.054280
 20
3.271400
  0
VERTEX
  8
0
  6
CONTINUOUS
 10
5.054280
 20
2.988480
  0
VERTEX
  8
0
  6
CONTINUOUS
 10
4.415400
 20
3.354560
  0
VERTEX
  8
0
  6
CONTINUOUS
 10
4.415400
 20
3.637480
  0
SEQEND
  8
0
  0
SOLID
  8
0
 62
    15
 10
4.163280
 20
2.860880
 11
4.802160
 21
2.494800
 12
4.163280
 22
2.819080
 13
4.802160
 23
2.453000
  0
POLYLINE
  8
0
  6
CONTINUOUS
 66
     1
 40
0.000000
 41
0.000000
  0
VERTEX
  8
0
  6
CONTINUOUS
 10
4.163280
 20
2.860880
  0
VERTEX
  8
0
  6
CONTINUOUS
 10
4.802160
 20
2.494800
  0
VERTEX
  8
0
  6
CONTINUOUS
 10
4.802160
 20
2.453000
  0
VERTEX
  8
0
  6
CONTINUOUS
 10
4.163280
 20
2.819080
  0
VERTEX
  8
0
  6
CONTINUOUS
 10
4.163280
 20
2.860880
  0
SEQEND
  8
0
  0
SOLID
  8
0
 62
    15
 10
4.163280
 20
2.819080
 11
4.802160
 21
2.453000
 12
4.162400
 22
2.728000
 13
4.801720
 23
2.361920
  0
POLYLINE
  8
0
  6
CONTINUOUS
 66
     1
 40
0.000000
 41
0.000000
  0
VERTEX
  8
0
  6
CONTINUOUS
 10
4.163280
 20
2.819080
  0
VERTEX
  8
0
  6
CONTINUOUS
 10
4.802160
 20
2.453000
  0
VERTEX
  8
0
  6
CONTINUOUS
 10
4.801720
 20
2.361920
  0
VERTEX
  8
0
  6
CONTINUOUS
 10
4.162400
 20
2.728000
  0
VERTEX
  8
0
  6
CONTINUOUS
 10
4.163280
 20
2.819080
  0
SEQEND
  8
0
  0
SOLID
  8
0
 62
    15
 10
4.162400
 20
2.728000
 11
4.801720
 21
2.361920
 12
4.158000
 22
2.632080
 13
4.797320
 23
2.265560
  0
POLYLINE
  8
0
  6
CONTINUOUS
 66
     1
 40
0.000000
 41
0.000000
  0
VERTEX
  8
0
  6
CONTINUOUS
 10
4.162400
 20
2.728000
  0
VERTEX
  8
0
  6
CONTINUOUS
 10
4.801720
 20
2.361920
  0
VERTEX
  8
0
  6
CONTINUOUS
 10
4.797320
 20
2.265560
  0
VERTEX
  8
0
  6
CONTINUOUS
 10
4.158000
 20
2.632080
  0
VERTEX
  8
0
  6
CONTINUOUS
 10
4.162400
 20
2.728000
  0
SEQEND
  8
0
  0
SOLID
  8
0
 62
    15
 10
4.158000
 20
2.632080
 11
4.797320
 21
2.265560
 12
4.146120
 22
2.537040
 13
4.785000
 23
2.170960
  0
POLYLINE
  8
0
  6
CONTINUOUS
 66
     1
 40
0.000000
 41
0.000000
  0
VERTEX
  8
0
  6
CONTINUOUS
 10
4.158000
 20
2.632080
  0
VERTEX
  8
0
  6
CONTINUOUS
 10
4.797320
 20
2.265560
  0
VERTEX
  8
0
  6
CONTINUOUS
 10
4.785000
 20
2.170960
  0
VERTEX
  8
0
  6
CONTINUOUS
 10
4.146120
 20
2.537040
  0
VERTEX
  8
0
  6
CONTINUOUS
 10
4.158000
 20
2.632080
  0
SEQEND
  8
0
  0
SOLID
  8
0
 62
    15
 10
4.146120
 20
2.537040
 11
4.785000
 21
2.170960
 12
4.136000
 22
2.492600
 13
4.775320
 23
2.126520
  0
POLYLINE
  8
0
  6
CONTINUOUS
 66
     1
 40
0.000000
 41
0.000000
  0
VERTEX
  8
0
  6
CONTINUOUS
 10
4.146120
 20
2.537040
  0
VERTEX
  8
0
  6
CONTINUOUS
 10
4.785000
 20
2.170960
  0
VERTEX
  8
0
  6
CONTINUOUS
 10
4.775320
 20
2.126520
  0
VERTEX
  8
0
  6
CONTINUOUS
 10
4.136000
 20
2.492600
  0
VERTEX
  8
0
  6
CONTINUOUS
 10
4.146120
 20
2.537040
  0
SEQEND
  8
0
  0
SOLID
  8
0
 62
    15
 10
4.136000
 20
2.492600
 11
4.775320
 21
2.126520
 12
4.122800
 22
2.450800
 13
4.761680
 23
2.084280
  0
POLYLINE
  8
0
  6
CONTINUOUS
 66
     1
 40
0.000000
 41
0.000000
  0
VERTEX
  8
0
  6
CONTINUOUS
 10
4.136000
 20
2.492600
  0
VERTEX
  8
0
  6
CONTINUOUS
 10
4.775320
 20
2.126520
  0
VERTEX
  8
0
  6
CONTINUOUS
 10
4.761680
 20
2.084280
  0
VERTEX
  8
0
  6
CONTINUOUS
 10
4.122800
 20
2.450800
  0
VERTEX
  8
0
  6
CONTINUOUS
 10
4.136000
 20
2.492600
  0
SEQEND
  8
0
  0
SOLID
  8
0
 62
    15
 10
4.122800
 20
2.450800
 11
4.761680
 21
2.084280
 12
4.105640
 22
2.412520
 13
4.744520
 23
2.046440
  0
POLYLINE
  8
0
  6
CONTINUOUS
 66
     1
 40
0.000000
 41
0.000000
  0
VERTEX
  8
0
  6
CONTINUOUS
 10
4.122800
 20
2.450800
  0
VERTEX
  8
0
  6
CONTINUOUS
 10
4.761680
 20
2.084280
  0
VERTEX
  8
0
  6
CONTINUOUS
 10
4.744520
 20
2.046440
  0
VERTEX
  8
0
  6
CONTINUOUS
 10
4.105640
 20
2.412520
  0
VERTEX
  8
0
  6
CONTINUOUS
 10
4.122800
 20
2.450800
  0
SEQEND
  8
0
  0
SOLID
  8
0
 62
    15
 10
4.105640
 20
2.412520
 11
4.744520
 21
2.046440
 12
4.084520
 22
2.378640
 13
4.723400
 23
2.012560
  0
POLYLINE
  8
0
  6
CONTINUOUS
 66
     1
 40
0.000000
 41
0.000000
  0
VERTEX
  8
0
  6
CONTINUOUS
 10
4.105640
 20
2.412520
  0
VERTEX
  8
0
  6
CONTINUOUS
 10
4.744520
 20
2.046440
  0
VERTEX
  8
0
  6
CONTINUOUS
 10
4.723400
 20
2.012560
  0
VERTEX
  8
0
  6
CONTINUOUS
 10
4.084520
 20
2.378640
  0
VERTEX
  8
0
  6
CONTINUOUS
 10
4.105640
 20
2.412520
  0
SEQEND
  8
0
  0
SOLID
  8
0
 62
    15
 10
4.084520
 20
2.378640
 11
4.723400
 21
2.012560
 12
4.058120
 22
2.350040
 13
4.697440
 23
1.983960
  0
POLYLINE
  8
0
  6
CONTINUOUS
 66
     1
 40
0.000000
 41
0.000000
  0
VERTEX
  8
0
  6
CONTINUOUS
 10
4.084520
 20
2.378640
  0
VERTEX
  8
0
  6
CONTINUOUS
 10
4.723400
 20
2.012560
  0
VERTEX
  8
0
  6
CONTINUOUS
 10
4.697440
 20
1.983960
  0
VERTEX
  8
0
  6
CONTINUOUS
 10
4.058120
 20
2.350040
  0
VERTEX
  8
0
  6
CONTINUOUS
 10
4.084520
 20
2.378640
  0
SEQEND
  8
0
  0
SOLID
  8
0
 62
    15
 10
4.058120
 20
2.350040
 11
4.697440
 21
1.983960
 12
4.026880
 22
2.327600
 13
4.666200
 23
1.961520
  0
POLYLINE
  8
0
  6
CONTINUOUS
 66
     1
 40
0.000000
 41
0.000000
  0
VERTEX
  8
0
  6
CONTINUOUS
 10
4.058120
 20
2.350040
  0
VERTEX
  8
0
  6
CONTINUOUS
 10
4.697440
 20
1.983960
  0
VERTEX
  8
0
  6
CONTINUOUS
 10
4.666200
 20
1.961520
  0
VERTEX
  8
0
  6
CONTINUOUS
 10
4.026880
 20
2.327600
  0
VERTEX
  8
0
  6
CONTINUOUS
 10
4.058120
 20
2.350040
  0
SEQEND
  8
0
  0
SOLID
  8
0
 62
    15
 10
4.026880
 20
2.327600
 11
4.666200
 21
1.961520
 12
3.989920
 22
2.312200
 13
4.629240
 23
1.946120
  0
POLYLINE
  8
0
  6
CONTINUOUS
 66
     1
 40
0.000000
 41
0.000000
  0
VERTEX
  8
0
  6
CONTINUOUS
 10
4.026880
 20
2.327600
  0
VERTEX
  8
0
  6
CONTINUOUS
 10
4.666200
 20
1.961520
  0
VERTEX
  8
0
  6
CONTINUOUS
 10
4.629240
 20
1.946120
  0
VERTEX
  8
0
  6
CONTINUOUS
 10
3.989920
 20
2.312200
  0
VERTEX
  8
0
  6
CONTINUOUS
 10
4.026880
 20
2.327600
  0
SEQEND
  8
0
  0
SOLID
  8
0
 62
    15
 10
3.989920
 20
2.312200
 11
4.629240
 21
1.946120
 12
3.946800
 22
2.304720
 13
4.586120
 23
1.938200
  0
POLYLINE
  8
0
  6
CONTINUOUS
 66
     1
 40
0.000000
 41
0.000000
  0
VERTEX
  8
0
  6
CONTINUOUS
 10
3.989920
 20
2.312200
  0
VERTEX
  8
0
  6
CONTINUOUS
 10
4.629240
 20
1.946120
  0
VERTEX
  8
0
  6
CONTINUOUS
 10
4.586120
 20
1.938200
  0
VERTEX
  8
0
  6
CONTINUOUS
 10
3.946800
 20
2.304720
  0
VERTEX
  8
0
  6
CONTINUOUS
 10
3.989920
 20
2.312200
  0
SEQEND
  8
0
  0
SOLID
  8
0
 62
    15
 10
3.946800
 20
2.304720
 11
4.586120
 21
1.938200
 12
3.946800
 22
2.110240
 13
4.586120
 23
1.744160
  0
POLYLINE
  8
0
  6
CONTINUOUS
 66
     1
 40
0.000000
 41
0.000000
  0
VERTEX
  8
0
  6
CONTINUOUS
 10
3.946800
 20
2.304720
  0
VERTEX
  8
0
  6
CONTINUOUS
 10
4.586120
 20
1.938200
  0
VERTEX
  8
0
  6
CONTINUOUS
 10
4.586120
 20
1.744160
  0
VERTEX
  8
0
  6
CONTINUOUS
 10
3.946800
 20
2.110240
  0
VERTEX
  8
0
  6
CONTINUOUS
 10
3.946800
 20
2.304720
  0
SEQEND
  8
0
  0
SOLID
  8
0
 62
    15
 10
3.946800
 20
2.110240
 11
4.586120
 21
1.744160
 12
3.709640
 22
2.110240
 13
4.348520
 23
1.744160
  0
POLYLINE
  8
0
  6
CONTINUOUS
 66
     1
 40
0.000000
 41
0.000000
  0
VERTEX
  8
0
  6
CONTINUOUS
 10
3.946800
 20
2.110240
  0
VERTEX
  8
0
  6
CONTINUOUS
 10
4.586120
 20
1.744160
  0
VERTEX
  8
0
  6
CONTINUOUS
 10
4.348520
 20
1.744160
  0
VERTEX
  8
0
  6
CONTINUOUS
 10
3.709640
 20
2.110240
  0
VERTEX
  8
0
  6
CONTINUOUS
 10
3.946800
 20
2.110240
  0
SEQEND
  8
0
  0
POLYLINE
  8
0
  6
CONTINUOUS
 66
     1
 40
0.000000
 41
0.000000
  0
VERTEX
  8
0
  6
CONTINUOUS
 10
3.709640
 20
3.637480
  0
VERTEX
  8
0
  6
CONTINUOUS
 10
4.415400
 20
3.637480
  0
VERTEX
  8
0
  6
CONTINUOUS
 10
4.415400
 20
3.354560
  0
VERTEX
  8
0
  6
CONTINUOUS
 10
4.372720
 20
3.346200
  0
VERTEX
  8
0
  6
CONTINUOUS
 10
4.335320
 20
3.333880
  0
VERTEX
  8
0
  6
CONTINUOUS
 10
4.302760
 20
3.317160
  0
VERTEX
  8
0
  6
CONTINUOUS
 10
4.274600
 20
3.296920
  0
VERTEX
  8
0
  6
CONTINUOUS
 10
4.250840
 20
3.273160
  0
VERTEX
  8
0
  6
CONTINUOUS
 10
4.230600
 20
3.246760
  0
VERTEX
  8
0
  6
CONTINUOUS
 10
4.213880
 20
3.217720
  0
VERTEX
  8
0
  6
CONTINUOUS
 10
4.200680
 20
3.186480
  0
VERTEX
  8
0
  6
CONTINUOUS
 10
4.181760
 20
3.118720
  0
VERTEX
  8
0
  6
CONTINUOUS
 10
4.171200
 20
3.046120
  0
VERTEX
  8
0
  6
CONTINUOUS
 10
4.165920
 20
2.972200
  0
VERTEX
  8
0
  6
CONTINUOUS
 10
4.164600
 20
2.935240
  0
VERTEX
  8
0
  6
CONTINUOUS
 10
4.163720
 20
2.898720
  0
VERTEX
  8
0
  6
CONTINUOUS
 10
4.163280
 20
2.860880
  0
VERTEX
  8
0
  6
CONTINUOUS
 10
4.163280
 20
2.819080
  0
VERTEX
  8
0
  6
CONTINUOUS
 10
4.162400
 20
2.728000
  0
VERTEX
  8
0
  6
CONTINUOUS
 10
4.158000
 20
2.632080
  0
VERTEX
  8
0
  6
CONTINUOUS
 10
4.146120
 20
2.537040
  0
VERTEX
  8
0
  6
CONTINUOUS
 10
4.136000
 20
2.492600
  0
VERTEX
  8
0
  6
CONTINUOUS
 10
4.122800
 20
2.450800
  0
VERTEX
  8
0
  6
CONTINUOUS
 10
4.105640
 20
2.412520
  0
VERTEX
  8
0
  6
CONTINUOUS
 10
4.084520
 20
2.378640
  0
VERTEX
  8
0
  6
CONTINUOUS
 10
4.058120
 20
2.350040
  0
VERTEX
  8
0
  6
CONTINUOUS
 10
4.026880
 20
2.327600
  0
VERTEX
  8
0
  6
CONTINUOUS
 10
3.989920
 20
2.312200
  0
VERTEX
  8
0
  6
CONTINUOUS
 10
3.946800
 20
2.304720
  0
VERTEX
  8
0
  6
CONTINUOUS
 10
3.946800
 20
2.110240
  0
VERTEX
  8
0
  6
CONTINUOUS
 10
3.709640
 20
2.110240
  0
VERTEX
  8
0
  6
CONTINUOUS
 10
3.709640
 20
3.637480
  0
SEQEND
  8
0
  0
TEXT
  8
0
 10
5.056480
 20
1.949640
 40
0.138066
  1
BA  1248
 41
1.000000
  7
SN0
 71
     0
 72
     5
 11
5.738919
 21
1.949640
  0
TEXT
  8
0
 10
4.854520
 20
1.758240
 40
0.138066
  1
11/16" x 1-1/2"
 41
1.000000
  7
SN0
 71
     0
 72
     5
 11
5.939792
 21
1.758240
  0
TEXT
  8
0
 10
3.626920
 20
4.255680
 40
0.138066
  1
BA  1248
 41
1.000000
  7
SN0
 71
     0
 72
     5
 11
4.309359
 21
4.255680
  0
TEXT
  8
0
 10
3.424960
 20
4.064280
 40
0.138066
  1
11/16" x 1-1/2"
 41
1.000000
  7
SN0
 71
     0
 72
     5
 11
4.510232
 21
4.064280
  0
ENDSEC
  0
EOF
