  0
SECTION
  2
HEADER
  9
$ACADVER
  1
AC1006
  9
$EXTMIN
 10
1.305920
 20
1.586200
  9
$EXTMAX
 10
7.200600
 20
9.406320
  9
$LTSCALE
 40
0.044000
  9
$PDMODE
 70
    35
  9
$PDSIZE
 40
0.035200
  0
ENDSEC
  0
SECTION
  2
TABLES
  0
TABLE
  2
LTYPE
 70
     9
  0
LTYPE
  2
CONTINUOUS
 70
    64
  3
Solid line
 72
    65
 73
     0
 40
0.000000
  0
LTYPE
  2
DASHED
 70
    64
  3
__ __ __ __ __ __ __ __ __ __ __ __ __ __ __
 72
    65
 73
     2
 40
0.000330
 49
0.000220
 49
-0.000110
  0
LTYPE
  2
HIDDEN
 70
    64
  3
 _ _ _ _ _ _ _ _ _ _ _ _ _ _ _ _ _ _ _ _ _ _
 72
    65
 73
     2
 40
0.000165
 49
0.000110
 49
-0.000055
  0
LTYPE
  2
CENTER
 70
    64
  3
____ _ ____ _ ____ _ ____ _ ____ _ ____ _ ____
 72
    65
 73
     4
 40
0.000880
 49
0.000550
 49
-0.000110
 49
0.000110
 49
-0.000110
  0
LTYPE
  2
PHANTOM
 70
    64
  3
_____ _ _ _____ _ _ _____ _ _ _____ _ _ ____
 72
    65
 73
     6
 40
0.001100
 49
0.000550
 49
-0.000110
 49
0.000110
 49
-0.000110
 49
0.000110
 49
-0.000110
  0
LTYPE
  2
DOT
 70
    64
  3
...............................................
 72
    65
 73
     2
 40
0.000110
 49
0.000000
 49
-0.000110
  0
LTYPE
  2
DASHDOT
 70
    64
  3
__ . __ . __ . __ . __ . __ . __ . __ . __ . __
 72
    65
 73
     4
 40
0.000440
 49
0.000220
 49
-0.000110
 49
0.000000
 49
-0.000110
  0
LTYPE
  2
BORDER
 70
    64
  3
__ __ . __ __ . __ __ . __ __ . __ __ . __ __
 72
    65
 73
     6
 40
0.000770
 49
0.000220
 49
-0.000110
 49
0.000220
 49
-0.000110
 49
0.000000
 49
-0.000110
  0
LTYPE
  2
DIVIDE
 70
    64
  3
__ . . __ . . __ . . __ . . __ . . __ . . __
 72
    65
 73
     6
 40
0.000550
 49
0.000220
 49
-0.000110
 49
0.000000
 49
-0.000110
 49
0.000000
 49
-0.000110
  0
LTYPE
  2
DOTDOT
 70
    64
  3
 . .  . .  . .  . .  . .  . . 
 72
    65
 73
     5
 40
0.000242
 49
-0.000110
 49
0.000000
 49
-0.000110
 49
0.000000
 49
-0.000110
  0
ENDTAB
  0
TABLE
  2
STYLE
 70
     2
  0
STYLE
 70
     0
  2
SN0
 40
0.000000
 41
0.000440
 50
0.000000
 71
     0
 42
0.000000
  3
ROMAND
  0
STYLE
 70
    68
  2
SV0
 40
0.000000
 41
0.000440
 50
0.000000
 71
     0
 42
0.000000
  3
ROMAND
  0
ENDTAB
  0
TABLE
  2
LAYER
 70
     3
  0
LAYER
  2
FOREGROUND
 70
    64
 62
     7
  6
CONTINUOUS
  0
LAYER
  2
BACKGROUND
 70
    65
 62
    -7
  6
CONTINUOUS
  0
LAYER
  2
0
 70
    64
 62
     7
  6
CONTINUOUS
  0
ENDTAB
  0
ENDSEC
  0
SECTION
  2
ENTITIES
  0
POLYLINE
  8
FOREGROUND
  6
CONTINUOUS
 66
     1
 40
0.000000
 41
0.000000
  0
VERTEX
  8
FOREGROUND
  6
CONTINUOUS
 10
0.000000
 20
10.992520
  0
VERTEX
  8
FOREGROUND
  6
CONTINUOUS
 10
8.499920
 20
10.992520
  0
VERTEX
  8
FOREGROUND
  6
CONTINUOUS
 10
8.499920
 20
-0.007480
  0
VERTEX
  8
FOREGROUND
  6
CONTINUOUS
 10
0.000000
 20
-0.007480
  0
VERTEX
  8
FOREGROUND
  6
CONTINUOUS
 10
0.000000
 20
10.992520
  0
SEQEND
  8
0
  0
POLYLINE
  8
FOREGROUND
  6
CONTINUOUS
 66
     1
 40
0.000000
 41
0.000000
  0
VERTEX
  8
FOREGROUND
  6
CONTINUOUS
 10
0.000000
 20
10.992520
  0
VERTEX
  8
FOREGROUND
  6
CONTINUOUS
 10
8.499920
 20
10.992520
  0
VERTEX
  8
FOREGROUND
  6
CONTINUOUS
 10
8.499920
 20
-0.007480
  0
VERTEX
  8
FOREGROUND
  6
CONTINUOUS
 10
0.000000
 20
-0.007480
  0
VERTEX
  8
FOREGROUND
  6
CONTINUOUS
 10
0.000000
 20
10.992520
  0
SEQEND
  8
0
  0
POLYLINE
  8
0
  6
CONTINUOUS
 66
     1
 40
0.014080
 41
0.014080
  0
VERTEX
  8
0
  6
CONTINUOUS
 10
3.055360
 20
8.224040
  0
VERTEX
  8
0
  6
CONTINUOUS
 10
3.055360
 20
8.975120
  0
VERTEX
  8
0
  6
CONTINUOUS
 10
6.145040
 20
8.975120
  0
VERTEX
  8
0
  6
CONTINUOUS
 10
6.154280
 20
8.863800
  0
VERTEX
  8
0
  6
CONTINUOUS
 10
6.337320
 20
8.863800
  0
VERTEX
  8
0
  6
CONTINUOUS
 10
6.349200
 20
8.778880
  0
VERTEX
  8
0
  6
CONTINUOUS
 10
6.429720
 20
8.778000
  0
VERTEX
  8
0
  6
CONTINUOUS
 10
6.496600
 20
8.774480
  0
VERTEX
  8
0
  6
CONTINUOUS
 10
6.552480
 20
8.767440
  0
VERTEX
  8
0
  6
CONTINUOUS
 10
6.600000
 20
8.756880
  0
VERTEX
  8
0
  6
CONTINUOUS
 10
6.621120
 20
8.749840
  0
VERTEX
  8
0
  6
CONTINUOUS
 10
6.659840
 20
8.732240
  0
VERTEX
  8
0
  6
CONTINUOUS
 10
6.696360
 20
8.709360
  0
VERTEX
  8
0
  6
CONTINUOUS
 10
6.732880
 20
8.680760
  0
VERTEX
  8
0
  6
CONTINUOUS
 10
6.822200
 20
8.600680
  0
VERTEX
  8
0
  6
CONTINUOUS
 10
6.858280
 20
8.574720
  0
VERTEX
  8
0
  6
CONTINUOUS
 10
6.878080
 20
8.562840
  0
VERTEX
  8
0
  6
CONTINUOUS
 10
6.911080
 20
8.547440
  0
VERTEX
  8
0
  6
CONTINUOUS
 10
6.949800
 20
8.534680
  0
VERTEX
  8
0
  6
CONTINUOUS
 10
6.996000
 20
8.524120
  0
VERTEX
  8
0
  6
CONTINUOUS
 10
7.051000
 20
8.516640
  0
VERTEX
  8
0
  6
CONTINUOUS
 10
7.116120
 20
8.511800
  0
VERTEX
  8
0
  6
CONTINUOUS
 10
7.193560
 20
8.510040
  0
VERTEX
  8
0
  6
CONTINUOUS
 10
7.193560
 20
8.223600
  0
VERTEX
  8
0
  6
CONTINUOUS
 10
3.055360
 20
8.224040
  0
SEQEND
  8
0
  0
POLYLINE
  8
0
  6
CONTINUOUS
 66
     1
 40
0.014080
 41
0.014080
  0
VERTEX
  8
0
  6
CONTINUOUS
 10
1.638120
 20
8.223160
  0
VERTEX
  8
0
  6
CONTINUOUS
 10
1.638120
 20
9.398840
  0
VERTEX
  8
0
  6
CONTINUOUS
 10
2.133560
 20
9.398840
  0
VERTEX
  8
0
  6
CONTINUOUS
 10
2.151160
 20
9.323160
  0
VERTEX
  8
0
  6
CONTINUOUS
 10
2.201760
 20
9.342960
  0
VERTEX
  8
0
  6
CONTINUOUS
 10
2.234320
 20
9.351320
  0
VERTEX
  8
0
  6
CONTINUOUS
 10
2.266000
 20
9.356160
  0
VERTEX
  8
0
  6
CONTINUOUS
 10
2.296800
 20
9.357480
  0
VERTEX
  8
0
  6
CONTINUOUS
 10
2.326720
 20
9.355720
  0
VERTEX
  8
0
  6
CONTINUOUS
 10
2.355320
 20
9.351320
  0
VERTEX
  8
0
  6
CONTINUOUS
 10
2.395800
 20
9.340320
  0
VERTEX
  8
0
  6
CONTINUOUS
 10
2.421320
 20
9.330200
  0
VERTEX
  8
0
  6
CONTINUOUS
 10
2.445960
 20
9.318320
  0
VERTEX
  8
0
  6
CONTINUOUS
 10
2.468840
 20
9.305120
  0
VERTEX
  8
0
  6
CONTINUOUS
 10
2.510640
 20
9.274760
  0
VERTEX
  8
0
  6
CONTINUOUS
 10
2.546280
 20
9.241760
  0
VERTEX
  8
0
  6
CONTINUOUS
 10
2.576640
 20
9.208760
  0
VERTEX
  8
0
  6
CONTINUOUS
 10
2.609200
 20
9.179720
  0
VERTEX
  8
0
  6
CONTINUOUS
 10
2.626800
 20
9.166520
  0
VERTEX
  8
0
  6
CONTINUOUS
 10
2.664640
 20
9.144080
  0
VERTEX
  8
0
  6
CONTINUOUS
 10
2.706880
 20
9.126040
  0
VERTEX
  8
0
  6
CONTINUOUS
 10
2.753080
 20
9.111960
  0
VERTEX
  8
0
  6
CONTINUOUS
 10
2.804120
 20
9.102280
  0
VERTEX
  8
0
  6
CONTINUOUS
 10
2.860000
 20
9.096560
  0
VERTEX
  8
0
  6
CONTINUOUS
 10
2.921160
 20
9.094800
  0
VERTEX
  8
0
  6
CONTINUOUS
 10
2.921160
 20
8.974680
  0
VERTEX
  8
0
  6
CONTINUOUS
 10
2.672120
 20
8.974680
  0
VERTEX
  8
0
  6
CONTINUOUS
 10
2.672120
 20
8.223160
  0
VERTEX
  8
0
  6
CONTINUOUS
 10
1.638120
 20
8.223160
  0
SEQEND
  8
0
  0
POLYLINE
  8
0
  6
CONTINUOUS
 66
     1
 40
0.000000
 41
0.000000
  0
VERTEX
  8
0
  6
CONTINUOUS
 10
2.815560
 20
3.161840
  0
VERTEX
  8
0
  6
CONTINUOUS
 10
2.815560
 20
3.912920
  0
VERTEX
  8
0
  6
CONTINUOUS
 10
5.905240
 20
3.912920
  0
VERTEX
  8
0
  6
CONTINUOUS
 10
5.914040
 20
3.801600
  0
VERTEX
  8
0
  6
CONTINUOUS
 10
6.097520
 20
3.801600
  0
VERTEX
  8
0
  6
CONTINUOUS
 10
6.109400
 20
3.716680
  0
VERTEX
  8
0
  6
CONTINUOUS
 10
6.189920
 20
3.715800
  0
VERTEX
  8
0
  6
CONTINUOUS
 10
6.256800
 20
3.712280
  0
VERTEX
  8
0
  6
CONTINUOUS
 10
6.312680
 20
3.705240
  0
VERTEX
  8
0
  6
CONTINUOUS
 10
6.360200
 20
3.694680
  0
VERTEX
  8
0
  6
CONTINUOUS
 10
6.381320
 20
3.687640
  0
VERTEX
  8
0
  6
CONTINUOUS
 10
6.420040
 20
3.670040
  0
VERTEX
  8
0
  6
CONTINUOUS
 10
6.456560
 20
3.647160
  0
VERTEX
  8
0
  6
CONTINUOUS
 10
6.511560
 20
3.601840
  0
VERTEX
  8
0
  6
CONTINUOUS
 10
6.582400
 20
3.538480
  0
VERTEX
  8
0
  6
CONTINUOUS
 10
6.618040
 20
3.512520
  0
VERTEX
  8
0
  6
CONTINUOUS
 10
6.637840
 20
3.500640
  0
VERTEX
  8
0
  6
CONTINUOUS
 10
6.671280
 20
3.485240
  0
VERTEX
  8
0
  6
CONTINUOUS
 10
6.710000
 20
3.472480
  0
VERTEX
  8
0
  6
CONTINUOUS
 10
6.755760
 20
3.461920
  0
VERTEX
  8
0
  6
CONTINUOUS
 10
6.810760
 20
3.454440
  0
VERTEX
  8
0
  6
CONTINUOUS
 10
6.875880
 20
3.449600
  0
VERTEX
  8
0
  6
CONTINUOUS
 10
6.953320
 20
3.447840
  0
VERTEX
  8
0
  6
CONTINUOUS
 10
6.953320
 20
3.161400
  0
VERTEX
  8
0
  6
CONTINUOUS
 10
2.815560
 20
3.161840
  0
SEQEND
  8
0
  0
POLYLINE
  8
0
  6
CONTINUOUS
 66
     1
 40
0.000000
 41
0.000000
  0
VERTEX
  8
0
  6
CONTINUOUS
 10
1.306800
 20
3.160960
  0
VERTEX
  8
0
  6
CONTINUOUS
 10
1.306800
 20
4.336640
  0
VERTEX
  8
0
  6
CONTINUOUS
 10
1.801800
 20
4.336640
  0
VERTEX
  8
0
  6
CONTINUOUS
 10
1.819400
 20
4.260960
  0
VERTEX
  8
0
  6
CONTINUOUS
 10
1.870000
 20
4.280760
  0
VERTEX
  8
0
  6
CONTINUOUS
 10
1.903000
 20
4.289120
  0
VERTEX
  8
0
  6
CONTINUOUS
 10
1.934680
 20
4.293960
  0
VERTEX
  8
0
  6
CONTINUOUS
 10
1.965480
 20
4.295280
  0
VERTEX
  8
0
  6
CONTINUOUS
 10
1.994960
 20
4.293520
  0
VERTEX
  8
0
  6
CONTINUOUS
 10
2.023560
 20
4.289120
  0
VERTEX
  8
0
  6
CONTINUOUS
 10
2.051280
 20
4.282520
  0
VERTEX
  8
0
  6
CONTINUOUS
 10
2.090000
 20
4.268000
  0
VERTEX
  8
0
  6
CONTINUOUS
 10
2.137520
 20
4.242920
  0
VERTEX
  8
0
  6
CONTINUOUS
 10
2.179320
 20
4.212560
  0
VERTEX
  8
0
  6
CONTINUOUS
 10
2.214960
 20
4.179560
  0
VERTEX
  8
0
  6
CONTINUOUS
 10
2.245320
 20
4.146560
  0
VERTEX
  8
0
  6
CONTINUOUS
 10
2.277880
 20
4.117520
  0
VERTEX
  8
0
  6
CONTINUOUS
 10
2.295480
 20
4.104320
  0
VERTEX
  8
0
  6
CONTINUOUS
 10
2.333320
 20
4.081880
  0
VERTEX
  8
0
  6
CONTINUOUS
 10
2.375120
 20
4.063840
  0
VERTEX
  8
0
  6
CONTINUOUS
 10
2.421320
 20
4.049760
  0
VERTEX
  8
0
  6
CONTINUOUS
 10
2.472360
 20
4.040080
  0
VERTEX
  8
0
  6
CONTINUOUS
 10
2.528240
 20
4.034360
  0
VERTEX
  8
0
  6
CONTINUOUS
 10
2.589400
 20
4.033040
  0
VERTEX
  8
0
  6
CONTINUOUS
 10
2.589400
 20
3.912480
  0
VERTEX
  8
0
  6
CONTINUOUS
 10
2.340800
 20
3.912480
  0
VERTEX
  8
0
  6
CONTINUOUS
 10
2.340800
 20
3.160960
  0
VERTEX
  8
0
  6
CONTINUOUS
 10
1.306800
 20
3.160960
  0
SEQEND
  8
0
  0
POLYLINE
  8
0
  6
CONTINUOUS
 66
     1
 40
0.000000
 41
0.000000
  0
VERTEX
  8
0
  6
CONTINUOUS
 10
5.499560
 20
1.587080
  0
VERTEX
  8
0
  6
CONTINUOUS
 10
5.499560
 20
2.338160
  0
VERTEX
  8
0
  6
CONTINUOUS
 10
2.409880
 20
2.338160
  0
VERTEX
  8
0
  6
CONTINUOUS
 10
2.400640
 20
2.226840
  0
VERTEX
  8
0
  6
CONTINUOUS
 10
2.217600
 20
2.226840
  0
VERTEX
  8
0
  6
CONTINUOUS
 10
2.205720
 20
2.141920
  0
VERTEX
  8
0
  6
CONTINUOUS
 10
2.107160
 20
2.140600
  0
VERTEX
  8
0
  6
CONTINUOUS
 10
2.043360
 20
2.136200
  0
VERTEX
  8
0
  6
CONTINUOUS
 10
2.002440
 20
2.130920
  0
VERTEX
  8
0
  6
CONTINUOUS
 10
1.977800
 20
2.126080
  0
VERTEX
  8
0
  6
CONTINUOUS
 10
1.933800
 20
2.112880
  0
VERTEX
  8
0
  6
CONTINUOUS
 10
1.895080
 20
2.095720
  0
VERTEX
  8
0
  6
CONTINUOUS
 10
1.858560
 20
2.072840
  0
VERTEX
  8
0
  6
CONTINUOUS
 10
1.822040
 20
2.044240
  0
VERTEX
  8
0
  6
CONTINUOUS
 10
1.732720
 20
1.964160
  0
VERTEX
  8
0
  6
CONTINUOUS
 10
1.696640
 20
1.937760
  0
VERTEX
  8
0
  6
CONTINUOUS
 10
1.655720
 20
1.915760
  0
VERTEX
  8
0
  6
CONTINUOUS
 10
1.618760
 20
1.902120
  0
VERTEX
  8
0
  6
CONTINUOUS
 10
1.575200
 20
1.890680
  0
VERTEX
  8
0
  6
CONTINUOUS
 10
1.523280
 20
1.882320
  0
VERTEX
  8
0
  6
CONTINUOUS
 10
1.483680
 20
1.877920
  0
VERTEX
  8
0
  6
CONTINUOUS
 10
1.414160
 20
1.874400
  0
VERTEX
  8
0
  6
CONTINUOUS
 10
1.361360
 20
1.873520
  0
VERTEX
  8
0
  6
CONTINUOUS
 10
1.361360
 20
1.586640
  0
VERTEX
  8
0
  6
CONTINUOUS
 10
5.499560
 20
1.587080
  0
SEQEND
  8
0
  0
POLYLINE
  8
0
  6
CONTINUOUS
 66
     1
 40
0.000000
 41
0.000000
  0
VERTEX
  8
0
  6
CONTINUOUS
 10
7.008320
 20
1.586200
  0
VERTEX
  8
0
  6
CONTINUOUS
 10
7.008320
 20
2.761880
  0
VERTEX
  8
0
  6
CONTINUOUS
 10
6.513320
 20
2.761880
  0
VERTEX
  8
0
  6
CONTINUOUS
 10
6.495280
 20
2.686200
  0
VERTEX
  8
0
  6
CONTINUOUS
 10
6.444680
 20
2.706000
  0
VERTEX
  8
0
  6
CONTINUOUS
 10
6.412120
 20
2.714360
  0
VERTEX
  8
0
  6
CONTINUOUS
 10
6.380440
 20
2.719200
  0
VERTEX
  8
0
  6
CONTINUOUS
 10
6.349640
 20
2.720520
  0
VERTEX
  8
0
  6
CONTINUOUS
 10
6.319720
 20
2.718760
  0
VERTEX
  8
0
  6
CONTINUOUS
 10
6.291120
 20
2.714800
  0
VERTEX
  8
0
  6
CONTINUOUS
 10
6.250640
 20
2.703360
  0
VERTEX
  8
0
  6
CONTINUOUS
 10
6.225120
 20
2.693240
  0
VERTEX
  8
0
  6
CONTINUOUS
 10
6.200480
 20
2.681360
  0
VERTEX
  8
0
  6
CONTINUOUS
 10
6.156040
 20
2.653640
  0
VERTEX
  8
0
  6
CONTINUOUS
 10
6.117320
 20
2.621520
  0
VERTEX
  8
0
  6
CONTINUOUS
 10
6.053960
 20
2.556840
  0
VERTEX
  8
0
  6
CONTINUOUS
 10
6.019640
 20
2.530000
  0
VERTEX
  8
0
  6
CONTINUOUS
 10
5.981800
 20
2.507560
  0
VERTEX
  8
0
  6
CONTINUOUS
 10
5.939560
 20
2.489080
  0
VERTEX
  8
0
  6
CONTINUOUS
 10
5.893360
 20
2.475000
  0
VERTEX
  8
0
  6
CONTINUOUS
 10
5.842320
 20
2.465320
  0
VERTEX
  8
0
  6
CONTINUOUS
 10
5.786880
 20
2.459600
  0
VERTEX
  8
0
  6
CONTINUOUS
 10
5.725720
 20
2.458280
  0
VERTEX
  8
0
  6
CONTINUOUS
 10
5.725720
 20
2.337720
  0
VERTEX
  8
0
  6
CONTINUOUS
 10
5.974320
 20
2.337720
  0
VERTEX
  8
0
  6
CONTINUOUS
 10
5.974320
 20
1.586200
  0
VERTEX
  8
0
  6
CONTINUOUS
 10
7.008320
 20
1.586200
  0
SEQEND
  8
0
  0
TEXT
  8
0
 10
1.895960
 20
8.019880
 40
0.138356
  1
BA  1246
 41
1.000000
  7
SN0
 71
     0
 72
     5
 11
2.578265
 21
8.019880
  0
TEXT
  8
0
 10
1.666280
 20
7.828040
 40
0.138356
  1
1-3/16" x 1-1/4"
 41
1.000000
  7
SN0
 71
     0
 72
     5
 11
2.806062
 21
7.828040
  0
TEXT
  8
0
 10
4.677640
 20
8.004480
 40
0.138356
  1
BA  1247
 41
1.000000
  7
SN0
 71
     0
 72
     5
 11
5.359945
 21
8.004480
  0
TEXT
  8
0
 10
4.568080
 20
7.813080
 40
0.138356
  1
3/4" x 4-1/8"
 41
1.000000
  7
SN0
 71
     0
 72
     5
 11
5.468176
 21
7.813080
  0
SOLID
  8
0
 62
    15
 10
6.176280
 20
5.869160
 11
6.171440
 21
6.624640
 12
6.213240
 22
5.837040
 13
6.208840
 23
6.592520
  0
POLYLINE
  8
0
  6
CONTINUOUS
 66
     1
 40
0.000000
 41
0.000000
  0
VERTEX
  8
0
  6
CONTINUOUS
 10
6.176280
 20
5.869160
  0
VERTEX
  8
0
  6
CONTINUOUS
 10
6.171440
 20
6.624640
  0
VERTEX
  8
0
  6
CONTINUOUS
 10
6.208840
 20
6.592520
  0
VERTEX
  8
0
  6
CONTINUOUS
 10
6.213240
 20
5.837040
  0
VERTEX
  8
0
  6
CONTINUOUS
 10
6.176280
 20
5.869160
  0
SEQEND
  8
0
  0
SOLID
  8
0
 62
    15
 10
5.811080
 20
5.951880
 11
5.806240
 21
6.707360
 12
5.852880
 22
5.951880
 13
5.848480
 23
6.707360
  0
POLYLINE
  8
0
  6
CONTINUOUS
 66
     1
 40
0.000000
 41
0.000000
  0
VERTEX
  8
0
  6
CONTINUOUS
 10
5.811080
 20
5.951880
  0
VERTEX
  8
0
  6
CONTINUOUS
 10
5.806240
 20
6.707360
  0
VERTEX
  8
0
  6
CONTINUOUS
 10
5.848480
 20
6.707360
  0
VERTEX
  8
0
  6
CONTINUOUS
 10
5.852880
 20
5.951880
  0
VERTEX
  8
0
  6
CONTINUOUS
 10
5.811080
 20
5.951880
  0
SEQEND
  8
0
  0
SOLID
  8
0
 62
    15
 10
5.799200
 20
6.036800
 11
5.794800
 21
6.792280
 12
5.811080
 22
5.951880
 13
5.806240
 23
6.707360
  0
POLYLINE
  8
0
  6
CONTINUOUS
 66
     1
 40
0.000000
 41
0.000000
  0
VERTEX
  8
0
  6
CONTINUOUS
 10
5.799200
 20
6.036800
  0
VERTEX
  8
0
  6
CONTINUOUS
 10
5.794800
 20
6.792280
  0
VERTEX
  8
0
  6
CONTINUOUS
 10
5.806240
 20
6.707360
  0
VERTEX
  8
0
  6
CONTINUOUS
 10
5.811080
 20
5.951880
  0
VERTEX
  8
0
  6
CONTINUOUS
 10
5.799200
 20
6.036800
  0
SEQEND
  8
0
  0
SOLID
  8
0
 62
    15
 10
5.615720
 20
6.036800
 11
5.611320
 21
6.792280
 12
5.799200
 22
6.036800
 13
5.794800
 23
6.792280
  0
POLYLINE
  8
0
  6
CONTINUOUS
 66
     1
 40
0.000000
 41
0.000000
  0
VERTEX
  8
0
  6
CONTINUOUS
 10
5.615720
 20
6.036800
  0
VERTEX
  8
0
  6
CONTINUOUS
 10
5.611320
 20
6.792280
  0
VERTEX
  8
0
  6
CONTINUOUS
 10
5.794800
 20
6.792280
  0
VERTEX
  8
0
  6
CONTINUOUS
 10
5.799200
 20
6.036800
  0
VERTEX
  8
0
  6
CONTINUOUS
 10
5.615720
 20
6.036800
  0
SEQEND
  8
0
  0
SOLID
  8
0
 62
    15
 10
5.606920
 20
6.148120
 11
5.602080
 21
6.903600
 12
5.615720
 22
6.036800
 13
5.611320
 23
6.792280
  0
POLYLINE
  8
0
  6
CONTINUOUS
 66
     1
 40
0.000000
 41
0.000000
  0
VERTEX
  8
0
  6
CONTINUOUS
 10
5.606920
 20
6.148120
  0
VERTEX
  8
0
  6
CONTINUOUS
 10
5.602080
 20
6.903600
  0
VERTEX
  8
0
  6
CONTINUOUS
 10
5.611320
 20
6.792280
  0
VERTEX
  8
0
  6
CONTINUOUS
 10
5.615720
 20
6.036800
  0
VERTEX
  8
0
  6
CONTINUOUS
 10
5.606920
 20
6.148120
  0
SEQEND
  8
0
  0
SOLID
  8
0
 62
    15
 10
2.517240
 20
5.397040
 11
2.512400
 21
6.152520
 12
2.517240
 22
6.148120
 13
2.512400
 23
6.903600
  0
POLYLINE
  8
0
  6
CONTINUOUS
 66
     1
 40
0.000000
 41
0.000000
  0
VERTEX
  8
0
  6
CONTINUOUS
 10
2.517240
 20
5.397040
  0
VERTEX
  8
0
  6
CONTINUOUS
 10
2.512400
 20
6.152520
  0
VERTEX
  8
0
  6
CONTINUOUS
 10
2.512400
 20
6.903600
  0
VERTEX
  8
0
  6
CONTINUOUS
 10
2.517240
 20
6.148120
  0
VERTEX
  8
0
  6
CONTINUOUS
 10
2.517240
 20
5.397040
  0
SEQEND
  8
0
  0
SOLID
  8
0
 62
    15
 10
5.852880
 20
5.951880
 11
5.848480
 21
6.707360
 12
5.891600
 22
5.951000
 13
5.886760
 23
6.706480
  0
POLYLINE
  8
0
  6
CONTINUOUS
 66
     1
 40
0.000000
 41
0.000000
  0
VERTEX
  8
0
  6
CONTINUOUS
 10
5.852880
 20
5.951880
  0
VERTEX
  8
0
  6
CONTINUOUS
 10
5.848480
 20
6.707360
  0
VERTEX
  8
0
  6
CONTINUOUS
 10
5.886760
 20
6.706480
  0
VERTEX
  8
0
  6
CONTINUOUS
 10
5.891600
 20
5.951000
  0
VERTEX
  8
0
  6
CONTINUOUS
 10
5.852880
 20
5.951880
  0
SEQEND
  8
0
  0
SOLID
  8
0
 62
    15
 10
5.891600
 20
5.951000
 11
5.886760
 21
6.706480
 12
5.958480
 22
5.947480
 13
5.953640
 23
6.702960
  0
POLYLINE
  8
0
  6
CONTINUOUS
 66
     1
 40
0.000000
 41
0.000000
  0
VERTEX
  8
0
  6
CONTINUOUS
 10
5.891600
 20
5.951000
  0
VERTEX
  8
0
  6
CONTINUOUS
 10
5.886760
 20
6.706480
  0
VERTEX
  8
0
  6
CONTINUOUS
 10
5.953640
 20
6.702960
  0
VERTEX
  8
0
  6
CONTINUOUS
 10
5.958480
 20
5.947480
  0
VERTEX
  8
0
  6
CONTINUOUS
 10
5.891600
 20
5.951000
  0
SEQEND
  8
0
  0
SOLID
  8
0
 62
    15
 10
5.958480
 20
5.947480
 11
5.953640
 21
6.702960
 12
6.014360
 22
5.940440
 13
6.009960
 23
6.695920
  0
POLYLINE
  8
0
  6
CONTINUOUS
 66
     1
 40
0.000000
 41
0.000000
  0
VERTEX
  8
0
  6
CONTINUOUS
 10
5.958480
 20
5.947480
  0
VERTEX
  8
0
  6
CONTINUOUS
 10
5.953640
 20
6.702960
  0
VERTEX
  8
0
  6
CONTINUOUS
 10
6.009960
 20
6.695920
  0
VERTEX
  8
0
  6
CONTINUOUS
 10
6.014360
 20
5.940440
  0
VERTEX
  8
0
  6
CONTINUOUS
 10
5.958480
 20
5.947480
  0
SEQEND
  8
0
  0
SOLID
  8
0
 62
    15
 10
6.014360
 20
5.940440
 11
6.009960
 21
6.695920
 12
6.061440
 22
5.929880
 13
6.057040
 23
6.685360
  0
POLYLINE
  8
0
  6
CONTINUOUS
 66
     1
 40
0.000000
 41
0.000000
  0
VERTEX
  8
0
  6
CONTINUOUS
 10
6.014360
 20
5.940440
  0
VERTEX
  8
0
  6
CONTINUOUS
 10
6.009960
 20
6.695920
  0
VERTEX
  8
0
  6
CONTINUOUS
 10
6.057040
 20
6.685360
  0
VERTEX
  8
0
  6
CONTINUOUS
 10
6.061440
 20
5.929880
  0
VERTEX
  8
0
  6
CONTINUOUS
 10
6.014360
 20
5.940440
  0
SEQEND
  8
0
  0
SOLID
  8
0
 62
    15
 10
6.061440
 20
5.929880
 11
6.057040
 21
6.685360
 12
6.102800
 22
5.914920
 13
6.097960
 23
6.670400
  0
POLYLINE
  8
0
  6
CONTINUOUS
 66
     1
 40
0.000000
 41
0.000000
  0
VERTEX
  8
0
  6
CONTINUOUS
 10
6.061440
 20
5.929880
  0
VERTEX
  8
0
  6
CONTINUOUS
 10
6.057040
 20
6.685360
  0
VERTEX
  8
0
  6
CONTINUOUS
 10
6.097960
 20
6.670400
  0
VERTEX
  8
0
  6
CONTINUOUS
 10
6.102800
 20
5.914920
  0
VERTEX
  8
0
  6
CONTINUOUS
 10
6.061440
 20
5.929880
  0
SEQEND
  8
0
  0
SOLID
  8
0
 62
    15
 10
6.102800
 20
5.914920
 11
6.097960
 21
6.670400
 12
6.140200
 22
5.894680
 13
6.135360
 23
6.650160
  0
POLYLINE
  8
0
  6
CONTINUOUS
 66
     1
 40
0.000000
 41
0.000000
  0
VERTEX
  8
0
  6
CONTINUOUS
 10
6.102800
 20
5.914920
  0
VERTEX
  8
0
  6
CONTINUOUS
 10
6.097960
 20
6.670400
  0
VERTEX
  8
0
  6
CONTINUOUS
 10
6.135360
 20
6.650160
  0
VERTEX
  8
0
  6
CONTINUOUS
 10
6.140200
 20
5.894680
  0
VERTEX
  8
0
  6
CONTINUOUS
 10
6.102800
 20
5.914920
  0
SEQEND
  8
0
  0
SOLID
  8
0
 62
    15
 10
6.140200
 20
5.894680
 11
6.135360
 21
6.650160
 12
6.176280
 22
5.869160
 13
6.171440
 23
6.624640
  0
POLYLINE
  8
0
  6
CONTINUOUS
 66
     1
 40
0.000000
 41
0.000000
  0
VERTEX
  8
0
  6
CONTINUOUS
 10
6.140200
 20
5.894680
  0
VERTEX
  8
0
  6
CONTINUOUS
 10
6.135360
 20
6.650160
  0
VERTEX
  8
0
  6
CONTINUOUS
 10
6.171440
 20
6.624640
  0
VERTEX
  8
0
  6
CONTINUOUS
 10
6.176280
 20
5.869160
  0
VERTEX
  8
0
  6
CONTINUOUS
 10
6.140200
 20
5.894680
  0
SEQEND
  8
0
  0
SOLID
  8
0
 62
    15
 10
2.517240
 20
6.148120
 11
2.512400
 21
6.903600
 12
5.606920
 22
6.148120
 13
5.602080
 23
6.903600
  0
POLYLINE
  8
0
  6
CONTINUOUS
 66
     1
 40
0.000000
 41
0.000000
  0
VERTEX
  8
0
  6
CONTINUOUS
 10
2.517240
 20
6.148120
  0
VERTEX
  8
0
  6
CONTINUOUS
 10
2.512400
 20
6.903600
  0
VERTEX
  8
0
  6
CONTINUOUS
 10
5.602080
 20
6.903600
  0
VERTEX
  8
0
  6
CONTINUOUS
 10
5.606920
 20
6.148120
  0
VERTEX
  8
0
  6
CONTINUOUS
 10
2.517240
 20
6.148120
  0
SEQEND
  8
0
  0
SOLID
  8
0
 62
    15
 10
6.213240
 20
5.837040
 11
6.208840
 21
6.592520
 12
6.249760
 22
5.803600
 13
6.244920
 23
6.559080
  0
POLYLINE
  8
0
  6
CONTINUOUS
 66
     1
 40
0.000000
 41
0.000000
  0
VERTEX
  8
0
  6
CONTINUOUS
 10
6.213240
 20
5.837040
  0
VERTEX
  8
0
  6
CONTINUOUS
 10
6.208840
 20
6.592520
  0
VERTEX
  8
0
  6
CONTINUOUS
 10
6.244920
 20
6.559080
  0
VERTEX
  8
0
  6
CONTINUOUS
 10
6.249760
 20
5.803600
  0
VERTEX
  8
0
  6
CONTINUOUS
 10
6.213240
 20
5.837040
  0
SEQEND
  8
0
  0
SOLID
  8
0
 62
    15
 10
6.249760
 20
5.803600
 11
6.244920
 21
6.559080
 12
6.284080
 22
5.773680
 13
6.279240
 23
6.529160
  0
POLYLINE
  8
0
  6
CONTINUOUS
 66
     1
 40
0.000000
 41
0.000000
  0
VERTEX
  8
0
  6
CONTINUOUS
 10
6.249760
 20
5.803600
  0
VERTEX
  8
0
  6
CONTINUOUS
 10
6.244920
 20
6.559080
  0
VERTEX
  8
0
  6
CONTINUOUS
 10
6.279240
 20
6.529160
  0
VERTEX
  8
0
  6
CONTINUOUS
 10
6.284080
 20
5.773680
  0
VERTEX
  8
0
  6
CONTINUOUS
 10
6.249760
 20
5.803600
  0
SEQEND
  8
0
  0
SOLID
  8
0
 62
    15
 10
6.284080
 20
5.773680
 11
6.279240
 21
6.529160
 12
6.319720
 22
5.747720
 13
6.315320
 23
6.503200
  0
POLYLINE
  8
0
  6
CONTINUOUS
 66
     1
 40
0.000000
 41
0.000000
  0
VERTEX
  8
0
  6
CONTINUOUS
 10
6.284080
 20
5.773680
  0
VERTEX
  8
0
  6
CONTINUOUS
 10
6.279240
 20
6.529160
  0
VERTEX
  8
0
  6
CONTINUOUS
 10
6.315320
 20
6.503200
  0
VERTEX
  8
0
  6
CONTINUOUS
 10
6.319720
 20
5.747720
  0
VERTEX
  8
0
  6
CONTINUOUS
 10
6.284080
 20
5.773680
  0
SEQEND
  8
0
  0
SOLID
  8
0
 62
    15
 10
6.319720
 20
5.747720
 11
6.315320
 21
6.503200
 12
6.361080
 22
5.725280
 13
6.356680
 23
6.481200
  0
POLYLINE
  8
0
  6
CONTINUOUS
 66
     1
 40
0.000000
 41
0.000000
  0
VERTEX
  8
0
  6
CONTINUOUS
 10
6.319720
 20
5.747720
  0
VERTEX
  8
0
  6
CONTINUOUS
 10
6.315320
 20
6.503200
  0
VERTEX
  8
0
  6
CONTINUOUS
 10
6.356680
 20
6.481200
  0
VERTEX
  8
0
  6
CONTINUOUS
 10
6.361080
 20
5.725280
  0
VERTEX
  8
0
  6
CONTINUOUS
 10
6.319720
 20
5.747720
  0
SEQEND
  8
0
  0
SOLID
  8
0
 62
    15
 10
6.361080
 20
5.725280
 11
6.356680
 21
6.481200
 12
6.411680
 22
5.707680
 13
6.406840
 23
6.463160
  0
POLYLINE
  8
0
  6
CONTINUOUS
 66
     1
 40
0.000000
 41
0.000000
  0
VERTEX
  8
0
  6
CONTINUOUS
 10
6.361080
 20
5.725280
  0
VERTEX
  8
0
  6
CONTINUOUS
 10
6.356680
 20
6.481200
  0
VERTEX
  8
0
  6
CONTINUOUS
 10
6.406840
 20
6.463160
  0
VERTEX
  8
0
  6
CONTINUOUS
 10
6.411680
 20
5.707680
  0
VERTEX
  8
0
  6
CONTINUOUS
 10
6.361080
 20
5.725280
  0
SEQEND
  8
0
  0
SOLID
  8
0
 62
    15
 10
6.411680
 20
5.707680
 11
6.406840
 21
6.463160
 12
6.441160
 22
5.700640
 13
6.436760
 23
6.456120
  0
POLYLINE
  8
0
  6
CONTINUOUS
 66
     1
 40
0.000000
 41
0.000000
  0
VERTEX
  8
0
  6
CONTINUOUS
 10
6.411680
 20
5.707680
  0
VERTEX
  8
0
  6
CONTINUOUS
 10
6.406840
 20
6.463160
  0
VERTEX
  8
0
  6
CONTINUOUS
 10
6.436760
 20
6.456120
  0
VERTEX
  8
0
  6
CONTINUOUS
 10
6.441160
 20
5.700640
  0
VERTEX
  8
0
  6
CONTINUOUS
 10
6.411680
 20
5.707680
  0
SEQEND
  8
0
  0
SOLID
  8
0
 62
    15
 10
6.441160
 20
5.700640
 11
6.436760
 21
6.456120
 12
6.475040
 22
5.694480
 13
6.470200
 23
6.449960
  0
POLYLINE
  8
0
  6
CONTINUOUS
 66
     1
 40
0.000000
 41
0.000000
  0
VERTEX
  8
0
  6
CONTINUOUS
 10
6.441160
 20
5.700640
  0
VERTEX
  8
0
  6
CONTINUOUS
 10
6.436760
 20
6.456120
  0
VERTEX
  8
0
  6
CONTINUOUS
 10
6.470200
 20
6.449960
  0
VERTEX
  8
0
  6
CONTINUOUS
 10
6.475040
 20
5.694480
  0
VERTEX
  8
0
  6
CONTINUOUS
 10
6.441160
 20
5.700640
  0
SEQEND
  8
0
  0
SOLID
  8
0
 62
    15
 10
6.475040
 20
5.694480
 11
6.470200
 21
6.449960
 12
6.512440
 22
5.689640
 13
6.508040
 23
6.445120
  0
POLYLINE
  8
0
  6
CONTINUOUS
 66
     1
 40
0.000000
 41
0.000000
  0
VERTEX
  8
0
  6
CONTINUOUS
 10
6.475040
 20
5.694480
  0
VERTEX
  8
0
  6
CONTINUOUS
 10
6.470200
 20
6.449960
  0
VERTEX
  8
0
  6
CONTINUOUS
 10
6.508040
 20
6.445120
  0
VERTEX
  8
0
  6
CONTINUOUS
 10
6.512440
 20
5.689640
  0
VERTEX
  8
0
  6
CONTINUOUS
 10
6.475040
 20
5.694480
  0
SEQEND
  8
0
  0
SOLID
  8
0
 62
    15
 10
6.512440
 20
5.689640
 11
6.508040
 21
6.445120
 12
6.554680
 22
5.686120
 13
6.550280
 23
6.441600
  0
POLYLINE
  8
0
  6
CONTINUOUS
 66
     1
 40
0.000000
 41
0.000000
  0
VERTEX
  8
0
  6
CONTINUOUS
 10
6.512440
 20
5.689640
  0
VERTEX
  8
0
  6
CONTINUOUS
 10
6.508040
 20
6.445120
  0
VERTEX
  8
0
  6
CONTINUOUS
 10
6.550280
 20
6.441600
  0
VERTEX
  8
0
  6
CONTINUOUS
 10
6.554680
 20
5.686120
  0
VERTEX
  8
0
  6
CONTINUOUS
 10
6.512440
 20
5.689640
  0
SEQEND
  8
0
  0
SOLID
  8
0
 62
    15
 10
6.554680
 20
5.686120
 11
6.550280
 21
6.441600
 12
6.602200
 22
5.683920
 13
6.597360
 23
6.439840
  0
POLYLINE
  8
0
  6
CONTINUOUS
 66
     1
 40
0.000000
 41
0.000000
  0
VERTEX
  8
0
  6
CONTINUOUS
 10
6.554680
 20
5.686120
  0
VERTEX
  8
0
  6
CONTINUOUS
 10
6.550280
 20
6.441600
  0
VERTEX
  8
0
  6
CONTINUOUS
 10
6.597360
 20
6.439840
  0
VERTEX
  8
0
  6
CONTINUOUS
 10
6.602200
 20
5.683920
  0
VERTEX
  8
0
  6
CONTINUOUS
 10
6.554680
 20
5.686120
  0
SEQEND
  8
0
  0
SOLID
  8
0
 62
    15
 10
6.602200
 20
5.683920
 11
6.597360
 21
6.439840
 12
6.655000
 22
5.683480
 13
6.650600
 23
6.438960
  0
POLYLINE
  8
0
  6
CONTINUOUS
 66
     1
 40
0.000000
 41
0.000000
  0
VERTEX
  8
0
  6
CONTINUOUS
 10
6.602200
 20
5.683920
  0
VERTEX
  8
0
  6
CONTINUOUS
 10
6.597360
 20
6.439840
  0
VERTEX
  8
0
  6
CONTINUOUS
 10
6.650600
 20
6.438960
  0
VERTEX
  8
0
  6
CONTINUOUS
 10
6.655000
 20
5.683480
  0
VERTEX
  8
0
  6
CONTINUOUS
 10
6.602200
 20
5.683920
  0
SEQEND
  8
0
  0
SOLID
  8
0
 62
    15
 10
2.517240
 20
5.396600
 11
2.512400
 21
6.152080
 12
2.517240
 22
5.397040
 13
2.512400
 23
6.152520
  0
POLYLINE
  8
0
  6
CONTINUOUS
 66
     1
 40
0.000000
 41
0.000000
  0
VERTEX
  8
0
  6
CONTINUOUS
 10
2.517240
 20
5.396600
  0
VERTEX
  8
0
  6
CONTINUOUS
 10
2.512400
 20
6.152080
  0
VERTEX
  8
0
  6
CONTINUOUS
 10
2.512400
 20
6.152520
  0
VERTEX
  8
0
  6
CONTINUOUS
 10
2.517240
 20
5.397040
  0
VERTEX
  8
0
  6
CONTINUOUS
 10
2.517240
 20
5.396600
  0
SEQEND
  8
0
  0
POLYLINE
  8
0
  6
CONTINUOUS
 66
     1
 40
0.000000
 41
0.000000
  0
VERTEX
  8
0
  6
CONTINUOUS
 10
2.517240
 20
5.397040
  0
VERTEX
  8
0
  6
CONTINUOUS
 10
2.517240
 20
6.148120
  0
VERTEX
  8
0
  6
CONTINUOUS
 10
5.606920
 20
6.148120
  0
VERTEX
  8
0
  6
CONTINUOUS
 10
5.615720
 20
6.036800
  0
VERTEX
  8
0
  6
CONTINUOUS
 10
5.799200
 20
6.036800
  0
VERTEX
  8
0
  6
CONTINUOUS
 10
5.811080
 20
5.951880
  0
VERTEX
  8
0
  6
CONTINUOUS
 10
5.852880
 20
5.951880
  0
VERTEX
  8
0
  6
CONTINUOUS
 10
5.891600
 20
5.951000
  0
VERTEX
  8
0
  6
CONTINUOUS
 10
5.958480
 20
5.947480
  0
VERTEX
  8
0
  6
CONTINUOUS
 10
6.014360
 20
5.940440
  0
VERTEX
  8
0
  6
CONTINUOUS
 10
6.061440
 20
5.929880
  0
VERTEX
  8
0
  6
CONTINUOUS
 10
6.102800
 20
5.914920
  0
VERTEX
  8
0
  6
CONTINUOUS
 10
6.140200
 20
5.894680
  0
VERTEX
  8
0
  6
CONTINUOUS
 10
6.176280
 20
5.869160
  0
VERTEX
  8
0
  6
CONTINUOUS
 10
6.213240
 20
5.837040
  0
VERTEX
  8
0
  6
CONTINUOUS
 10
6.249760
 20
5.803600
  0
VERTEX
  8
0
  6
CONTINUOUS
 10
6.284080
 20
5.773680
  0
VERTEX
  8
0
  6
CONTINUOUS
 10
6.319720
 20
5.747720
  0
VERTEX
  8
0
  6
CONTINUOUS
 10
6.361080
 20
5.725280
  0
VERTEX
  8
0
  6
CONTINUOUS
 10
6.411680
 20
5.707680
  0
VERTEX
  8
0
  6
CONTINUOUS
 10
6.441160
 20
5.700640
  0
VERTEX
  8
0
  6
CONTINUOUS
 10
6.475040
 20
5.694480
  0
VERTEX
  8
0
  6
CONTINUOUS
 10
6.512440
 20
5.689640
  0
VERTEX
  8
0
  6
CONTINUOUS
 10
6.554680
 20
5.686120
  0
VERTEX
  8
0
  6
CONTINUOUS
 10
6.602200
 20
5.683920
  0
VERTEX
  8
0
  6
CONTINUOUS
 10
6.655000
 20
5.683480
  0
VERTEX
  8
0
  6
CONTINUOUS
 10
6.655000
 20
5.396600
  0
VERTEX
  8
0
  6
CONTINUOUS
 10
2.517240
 20
5.396600
  0
VERTEX
  8
0
  6
CONTINUOUS
 10
2.517240
 20
5.397040
  0
SEQEND
  8
0
  0
SOLID
  8
0
 62
    15
 10
2.407240
 20
6.398480
 11
2.408120
 21
7.135480
 12
2.438040
 22
6.366800
 13
2.438920
 23
7.104240
  0
POLYLINE
  8
0
  6
CONTINUOUS
 66
     1
 40
0.000000
 41
0.000000
  0
VERTEX
  8
0
  6
CONTINUOUS
 10
2.407240
 20
6.398480
  0
VERTEX
  8
0
  6
CONTINUOUS
 10
2.408120
 20
7.135480
  0
VERTEX
  8
0
  6
CONTINUOUS
 10
2.438920
 20
7.104240
  0
VERTEX
  8
0
  6
CONTINUOUS
 10
2.438040
 20
6.366800
  0
VERTEX
  8
0
  6
CONTINUOUS
 10
2.407240
 20
6.398480
  0
SEQEND
  8
0
  0
SOLID
  8
0
 62
    15
 10
1.979120
 20
6.572280
 11
1.980000
 21
7.309280
 12
1.996720
 22
6.496160
 13
1.997600
 23
7.233600
  0
POLYLINE
  8
0
  6
CONTINUOUS
 66
     1
 40
0.000000
 41
0.000000
  0
VERTEX
  8
0
  6
CONTINUOUS
 10
1.979120
 20
6.572280
  0
VERTEX
  8
0
  6
CONTINUOUS
 10
1.980000
 20
7.309280
  0
VERTEX
  8
0
  6
CONTINUOUS
 10
1.997600
 20
7.233600
  0
VERTEX
  8
0
  6
CONTINUOUS
 10
1.996720
 20
6.496160
  0
VERTEX
  8
0
  6
CONTINUOUS
 10
1.979120
 20
6.572280
  0
SEQEND
  8
0
  0
SOLID
  8
0
 62
    15
 10
1.996720
 20
6.496160
 11
1.997600
 21
7.233600
 12
2.063600
 22
6.520800
 13
2.064920
 23
7.258240
  0
POLYLINE
  8
0
  6
CONTINUOUS
 66
     1
 40
0.000000
 41
0.000000
  0
VERTEX
  8
0
  6
CONTINUOUS
 10
1.996720
 20
6.496160
  0
VERTEX
  8
0
  6
CONTINUOUS
 10
1.997600
 20
7.233600
  0
VERTEX
  8
0
  6
CONTINUOUS
 10
2.064920
 20
7.258240
  0
VERTEX
  8
0
  6
CONTINUOUS
 10
2.063600
 20
6.520800
  0
VERTEX
  8
0
  6
CONTINUOUS
 10
1.996720
 20
6.496160
  0
SEQEND
  8
0
  0
SOLID
  8
0
 62
    15
 10
2.063600
 20
6.520800
 11
2.064920
 21
7.258240
 12
2.127400
 22
6.530480
 13
2.128280
 23
7.267480
  0
POLYLINE
  8
0
  6
CONTINUOUS
 66
     1
 40
0.000000
 41
0.000000
  0
VERTEX
  8
0
  6
CONTINUOUS
 10
2.063600
 20
6.520800
  0
VERTEX
  8
0
  6
CONTINUOUS
 10
2.064920
 20
7.258240
  0
VERTEX
  8
0
  6
CONTINUOUS
 10
2.128280
 20
7.267480
  0
VERTEX
  8
0
  6
CONTINUOUS
 10
2.127400
 20
6.530480
  0
VERTEX
  8
0
  6
CONTINUOUS
 10
2.063600
 20
6.520800
  0
SEQEND
  8
0
  0
SOLID
  8
0
 62
    15
 10
2.127400
 20
6.530480
 11
2.128280
 21
7.267480
 12
2.186800
 22
6.527400
 13
2.187680
 23
7.264400
  0
POLYLINE
  8
0
  6
CONTINUOUS
 66
     1
 40
0.000000
 41
0.000000
  0
VERTEX
  8
0
  6
CONTINUOUS
 10
2.127400
 20
6.530480
  0
VERTEX
  8
0
  6
CONTINUOUS
 10
2.128280
 20
7.267480
  0
VERTEX
  8
0
  6
CONTINUOUS
 10
2.187680
 20
7.264400
  0
VERTEX
  8
0
  6
CONTINUOUS
 10
2.186800
 20
6.527400
  0
VERTEX
  8
0
  6
CONTINUOUS
 10
2.127400
 20
6.530480
  0
SEQEND
  8
0
  0
SOLID
  8
0
 62
    15
 10
2.186800
 20
6.527400
 11
2.187680
 21
7.264400
 12
2.241360
 22
6.513760
 13
2.242240
 23
7.250760
  0
POLYLINE
  8
0
  6
CONTINUOUS
 66
     1
 40
0.000000
 41
0.000000
  0
VERTEX
  8
0
  6
CONTINUOUS
 10
2.186800
 20
6.527400
  0
VERTEX
  8
0
  6
CONTINUOUS
 10
2.187680
 20
7.264400
  0
VERTEX
  8
0
  6
CONTINUOUS
 10
2.242240
 20
7.250760
  0
VERTEX
  8
0
  6
CONTINUOUS
 10
2.241360
 20
6.513760
  0
VERTEX
  8
0
  6
CONTINUOUS
 10
2.186800
 20
6.527400
  0
SEQEND
  8
0
  0
SOLID
  8
0
 62
    15
 10
2.241360
 20
6.513760
 11
2.242240
 21
7.250760
 12
2.291520
 22
6.491760
 13
2.292400
 23
7.228760
  0
POLYLINE
  8
0
  6
CONTINUOUS
 66
     1
 40
0.000000
 41
0.000000
  0
VERTEX
  8
0
  6
CONTINUOUS
 10
2.241360
 20
6.513760
  0
VERTEX
  8
0
  6
CONTINUOUS
 10
2.242240
 20
7.250760
  0
VERTEX
  8
0
  6
CONTINUOUS
 10
2.292400
 20
7.228760
  0
VERTEX
  8
0
  6
CONTINUOUS
 10
2.291520
 20
6.491760
  0
VERTEX
  8
0
  6
CONTINUOUS
 10
2.241360
 20
6.513760
  0
SEQEND
  8
0
  0
SOLID
  8
0
 62
    15
 10
2.291520
 20
6.491760
 11
2.292400
 21
7.228760
 12
2.335960
 22
6.463600
 13
2.336840
 23
7.201040
  0
POLYLINE
  8
0
  6
CONTINUOUS
 66
     1
 40
0.000000
 41
0.000000
  0
VERTEX
  8
0
  6
CONTINUOUS
 10
2.291520
 20
6.491760
  0
VERTEX
  8
0
  6
CONTINUOUS
 10
2.292400
 20
7.228760
  0
VERTEX
  8
0
  6
CONTINUOUS
 10
2.336840
 20
7.201040
  0
VERTEX
  8
0
  6
CONTINUOUS
 10
2.335960
 20
6.463600
  0
VERTEX
  8
0
  6
CONTINUOUS
 10
2.291520
 20
6.491760
  0
SEQEND
  8
0
  0
SOLID
  8
0
 62
    15
 10
2.335960
 20
6.463600
 11
2.336840
 21
7.201040
 12
2.374680
 22
6.431920
 13
2.375560
 23
7.168920
  0
POLYLINE
  8
0
  6
CONTINUOUS
 66
     1
 40
0.000000
 41
0.000000
  0
VERTEX
  8
0
  6
CONTINUOUS
 10
2.335960
 20
6.463600
  0
VERTEX
  8
0
  6
CONTINUOUS
 10
2.336840
 20
7.201040
  0
VERTEX
  8
0
  6
CONTINUOUS
 10
2.375560
 20
7.168920
  0
VERTEX
  8
0
  6
CONTINUOUS
 10
2.374680
 20
6.431920
  0
VERTEX
  8
0
  6
CONTINUOUS
 10
2.335960
 20
6.463600
  0
SEQEND
  8
0
  0
SOLID
  8
0
 62
    15
 10
2.374680
 20
6.431920
 11
2.375560
 21
7.168920
 12
2.407240
 22
6.398480
 13
2.408120
 23
7.135480
  0
POLYLINE
  8
0
  6
CONTINUOUS
 66
     1
 40
0.000000
 41
0.000000
  0
VERTEX
  8
0
  6
CONTINUOUS
 10
2.374680
 20
6.431920
  0
VERTEX
  8
0
  6
CONTINUOUS
 10
2.375560
 20
7.168920
  0
VERTEX
  8
0
  6
CONTINUOUS
 10
2.408120
 20
7.135480
  0
VERTEX
  8
0
  6
CONTINUOUS
 10
2.407240
 20
6.398480
  0
VERTEX
  8
0
  6
CONTINUOUS
 10
2.374680
 20
6.431920
  0
SEQEND
  8
0
  0
SOLID
  8
0
 62
    15
 10
1.483680
 20
6.572280
 11
1.484560
 21
7.309280
 12
1.979120
 22
6.572280
 13
1.980000
 23
7.309280
  0
POLYLINE
  8
0
  6
CONTINUOUS
 66
     1
 40
0.000000
 41
0.000000
  0
VERTEX
  8
0
  6
CONTINUOUS
 10
1.483680
 20
6.572280
  0
VERTEX
  8
0
  6
CONTINUOUS
 10
1.484560
 20
7.309280
  0
VERTEX
  8
0
  6
CONTINUOUS
 10
1.980000
 20
7.309280
  0
VERTEX
  8
0
  6
CONTINUOUS
 10
1.979120
 20
6.572280
  0
VERTEX
  8
0
  6
CONTINUOUS
 10
1.483680
 20
6.572280
  0
SEQEND
  8
0
  0
SOLID
  8
0
 62
    15
 10
2.438040
 20
6.366800
 11
2.438920
 21
7.104240
 12
2.472360
 22
6.339960
 13
2.473240
 23
7.077400
  0
POLYLINE
  8
0
  6
CONTINUOUS
 66
     1
 40
0.000000
 41
0.000000
  0
VERTEX
  8
0
  6
CONTINUOUS
 10
2.438040
 20
6.366800
  0
VERTEX
  8
0
  6
CONTINUOUS
 10
2.438920
 20
7.104240
  0
VERTEX
  8
0
  6
CONTINUOUS
 10
2.473240
 20
7.077400
  0
VERTEX
  8
0
  6
CONTINUOUS
 10
2.472360
 20
6.339960
  0
VERTEX
  8
0
  6
CONTINUOUS
 10
2.438040
 20
6.366800
  0
SEQEND
  8
0
  0
SOLID
  8
0
 62
    15
 10
2.472360
 20
6.339960
 11
2.473240
 21
7.077400
 12
2.510200
 22
6.317520
 13
2.511080
 23
7.054960
  0
POLYLINE
  8
0
  6
CONTINUOUS
 66
     1
 40
0.000000
 41
0.000000
  0
VERTEX
  8
0
  6
CONTINUOUS
 10
2.472360
 20
6.339960
  0
VERTEX
  8
0
  6
CONTINUOUS
 10
2.473240
 20
7.077400
  0
VERTEX
  8
0
  6
CONTINUOUS
 10
2.511080
 20
7.054960
  0
VERTEX
  8
0
  6
CONTINUOUS
 10
2.510200
 20
6.317520
  0
VERTEX
  8
0
  6
CONTINUOUS
 10
2.472360
 20
6.339960
  0
SEQEND
  8
0
  0
SOLID
  8
0
 62
    15
 10
2.517680
 20
6.148120
 11
2.518560
 21
6.885120
 12
2.517680
 22
5.396160
 13
2.518560
 23
6.133600
  0
POLYLINE
  8
0
  6
CONTINUOUS
 66
     1
 40
0.000000
 41
0.000000
  0
VERTEX
  8
0
  6
CONTINUOUS
 10
2.517680
 20
6.148120
  0
VERTEX
  8
0
  6
CONTINUOUS
 10
2.518560
 20
6.885120
  0
VERTEX
  8
0
  6
CONTINUOUS
 10
2.518560
 20
6.133600
  0
VERTEX
  8
0
  6
CONTINUOUS
 10
2.517680
 20
5.396160
  0
VERTEX
  8
0
  6
CONTINUOUS
 10
2.517680
 20
6.148120
  0
SEQEND
  8
0
  0
SOLID
  8
0
 62
    15
 10
2.552440
 20
6.299480
 11
2.553320
 21
7.036480
 12
2.598640
 22
6.285400
 13
2.599520
 23
7.022400
  0
POLYLINE
  8
0
  6
CONTINUOUS
 66
     1
 40
0.000000
 41
0.000000
  0
VERTEX
  8
0
  6
CONTINUOUS
 10
2.552440
 20
6.299480
  0
VERTEX
  8
0
  6
CONTINUOUS
 10
2.553320
 20
7.036480
  0
VERTEX
  8
0
  6
CONTINUOUS
 10
2.599520
 20
7.022400
  0
VERTEX
  8
0
  6
CONTINUOUS
 10
2.598640
 20
6.285400
  0
VERTEX
  8
0
  6
CONTINUOUS
 10
2.552440
 20
6.299480
  0
SEQEND
  8
0
  0
SOLID
  8
0
 62
    15
 10
2.598640
 20
6.285400
 11
2.599520
 21
7.022400
 12
2.649680
 22
6.275720
 13
2.650560
 23
7.012720
  0
POLYLINE
  8
0
  6
CONTINUOUS
 66
     1
 40
0.000000
 41
0.000000
  0
VERTEX
  8
0
  6
CONTINUOUS
 10
2.598640
 20
6.285400
  0
VERTEX
  8
0
  6
CONTINUOUS
 10
2.599520
 20
7.022400
  0
VERTEX
  8
0
  6
CONTINUOUS
 10
2.650560
 20
7.012720
  0
VERTEX
  8
0
  6
CONTINUOUS
 10
2.649680
 20
6.275720
  0
VERTEX
  8
0
  6
CONTINUOUS
 10
2.598640
 20
6.285400
  0
SEQEND
  8
0
  0
SOLID
  8
0
 62
    15
 10
2.649680
 20
6.275720
 11
2.650560
 21
7.012720
 12
2.705560
 22
6.270000
 13
2.706440
 23
7.007000
  0
POLYLINE
  8
0
  6
CONTINUOUS
 66
     1
 40
0.000000
 41
0.000000
  0
VERTEX
  8
0
  6
CONTINUOUS
 10
2.649680
 20
6.275720
  0
VERTEX
  8
0
  6
CONTINUOUS
 10
2.650560
 20
7.012720
  0
VERTEX
  8
0
  6
CONTINUOUS
 10
2.706440
 20
7.007000
  0
VERTEX
  8
0
  6
CONTINUOUS
 10
2.705560
 20
6.270000
  0
VERTEX
  8
0
  6
CONTINUOUS
 10
2.649680
 20
6.275720
  0
SEQEND
  8
0
  0
SOLID
  8
0
 62
    15
 10
2.766720
 20
6.268240
 11
2.767600
 21
7.005680
 12
2.766720
 22
6.148120
 13
2.767600
 23
6.885120
  0
POLYLINE
  8
0
  6
CONTINUOUS
 66
     1
 40
0.000000
 41
0.000000
  0
VERTEX
  8
0
  6
CONTINUOUS
 10
2.766720
 20
6.268240
  0
VERTEX
  8
0
  6
CONTINUOUS
 10
2.767600
 20
7.005680
  0
VERTEX
  8
0
  6
CONTINUOUS
 10
2.767600
 20
6.885120
  0
VERTEX
  8
0
  6
CONTINUOUS
 10
2.766720
 20
6.148120
  0
VERTEX
  8
0
  6
CONTINUOUS
 10
2.766720
 20
6.268240
  0
SEQEND
  8
0
  0
SOLID
  8
0
 62
    15
 10
2.705560
 20
6.270000
 11
2.706440
 21
7.007000
 12
2.766720
 22
6.268240
 13
2.767600
 23
7.005680
  0
POLYLINE
  8
0
  6
CONTINUOUS
 66
     1
 40
0.000000
 41
0.000000
  0
VERTEX
  8
0
  6
CONTINUOUS
 10
2.705560
 20
6.270000
  0
VERTEX
  8
0
  6
CONTINUOUS
 10
2.706440
 20
7.007000
  0
VERTEX
  8
0
  6
CONTINUOUS
 10
2.767600
 20
7.005680
  0
VERTEX
  8
0
  6
CONTINUOUS
 10
2.766720
 20
6.268240
  0
VERTEX
  8
0
  6
CONTINUOUS
 10
2.705560
 20
6.270000
  0
SEQEND
  8
0
  0
SOLID
  8
0
 62
    15
 10
2.510200
 20
6.317520
 11
2.511080
 21
7.054960
 12
2.552440
 22
6.299480
 13
2.553320
 23
7.036480
  0
POLYLINE
  8
0
  6
CONTINUOUS
 66
     1
 40
0.000000
 41
0.000000
  0
VERTEX
  8
0
  6
CONTINUOUS
 10
2.510200
 20
6.317520
  0
VERTEX
  8
0
  6
CONTINUOUS
 10
2.511080
 20
7.054960
  0
VERTEX
  8
0
  6
CONTINUOUS
 10
2.553320
 20
7.036480
  0
VERTEX
  8
0
  6
CONTINUOUS
 10
2.552440
 20
6.299480
  0
VERTEX
  8
0
  6
CONTINUOUS
 10
2.510200
 20
6.317520
  0
SEQEND
  8
0
  0
POLYLINE
  8
0
  6
CONTINUOUS
 66
     1
 40
0.000000
 41
0.000000
  0
VERTEX
  8
0
  6
CONTINUOUS
 10
1.483680
 20
5.396600
  0
VERTEX
  8
0
  6
CONTINUOUS
 10
1.483680
 20
6.572280
  0
VERTEX
  8
0
  6
CONTINUOUS
 10
1.979120
 20
6.572280
  0
VERTEX
  8
0
  6
CONTINUOUS
 10
1.996720
 20
6.496160
  0
VERTEX
  8
0
  6
CONTINUOUS
 10
2.063600
 20
6.520800
  0
VERTEX
  8
0
  6
CONTINUOUS
 10
2.127400
 20
6.530480
  0
VERTEX
  8
0
  6
CONTINUOUS
 10
2.186800
 20
6.527400
  0
VERTEX
  8
0
  6
CONTINUOUS
 10
2.241360
 20
6.513760
  0
VERTEX
  8
0
  6
CONTINUOUS
 10
2.291520
 20
6.491760
  0
VERTEX
  8
0
  6
CONTINUOUS
 10
2.335960
 20
6.463600
  0
VERTEX
  8
0
  6
CONTINUOUS
 10
2.374680
 20
6.431920
  0
VERTEX
  8
0
  6
CONTINUOUS
 10
2.407240
 20
6.398480
  0
VERTEX
  8
0
  6
CONTINUOUS
 10
2.438040
 20
6.366800
  0
VERTEX
  8
0
  6
CONTINUOUS
 10
2.472360
 20
6.339960
  0
VERTEX
  8
0
  6
CONTINUOUS
 10
2.510200
 20
6.317520
  0
VERTEX
  8
0
  6
CONTINUOUS
 10
2.552440
 20
6.299480
  0
VERTEX
  8
0
  6
CONTINUOUS
 10
2.598640
 20
6.285400
  0
VERTEX
  8
0
  6
CONTINUOUS
 10
2.649680
 20
6.275720
  0
VERTEX
  8
0
  6
CONTINUOUS
 10
2.705560
 20
6.270000
  0
VERTEX
  8
0
  6
CONTINUOUS
 10
2.766720
 20
6.268240
  0
VERTEX
  8
0
  6
CONTINUOUS
 10
2.766720
 20
6.148120
  0
VERTEX
  8
0
  6
CONTINUOUS
 10
2.517680
 20
6.148120
  0
VERTEX
  8
0
  6
CONTINUOUS
 10
2.517680
 20
5.396160
  0
VERTEX
  8
0
  6
CONTINUOUS
 10
1.483680
 20
5.396160
  0
VERTEX
  8
0
  6
CONTINUOUS
 10
1.483680
 20
5.396600
  0
SEQEND
  8
0
  0
TEXT
  8
0
 10
2.949760
 20
5.159440
 40
0.138356
  1
BA  1246  1-3/16" x 1-1/4"
 41
1.000000
  7
SN0
 71
     0
 72
     5
 11
4.862952
 21
5.159440
  0
TEXT
  8
0
 10
2.949760
 20
4.967600
 40
0.138356
  1
BA  1247  3/4" x 4-1/8"
 41
1.000000
  7
SN0
 71
     0
 72
     5
 11
4.623266
 21
4.967600
  0
ENDSEC
  0
EOF
