  0
SECTION
  2
HEADER
  9
$ACADVER
  1
AC1006
  9
$EXTMIN
 10
1.261040
 20
1.764840
  9
$EXTMAX
 10
7.155720
 20
9.585400
  9
$LTSCALE
 40
0.044000
  9
$PDMODE
 70
    35
  9
$PDSIZE
 40
0.035200
  0
ENDSEC
  0
SECTION
  2
TABLES
  0
TABLE
  2
LTYPE
 70
     9
  0
LTYPE
  2
CONTINUOUS
 70
    64
  3
Solid line
 72
    65
 73
     0
 40
0.000000
  0
LTYPE
  2
DASHED
 70
    64
  3
__ __ __ __ __ __ __ __ __ __ __ __ __ __ __
 72
    65
 73
     2
 40
0.000330
 49
0.000220
 49
-0.000110
  0
LTYPE
  2
HIDDEN
 70
    64
  3
 _ _ _ _ _ _ _ _ _ _ _ _ _ _ _ _ _ _ _ _ _ _
 72
    65
 73
     2
 40
0.000165
 49
0.000110
 49
-0.000055
  0
LTYPE
  2
CENTER
 70
    64
  3
____ _ ____ _ ____ _ ____ _ ____ _ ____ _ ____
 72
    65
 73
     4
 40
0.000880
 49
0.000550
 49
-0.000110
 49
0.000110
 49
-0.000110
  0
LTYPE
  2
PHANTOM
 70
    64
  3
_____ _ _ _____ _ _ _____ _ _ _____ _ _ ____
 72
    65
 73
     6
 40
0.001100
 49
0.000550
 49
-0.000110
 49
0.000110
 49
-0.000110
 49
0.000110
 49
-0.000110
  0
LTYPE
  2
DOT
 70
    64
  3
...............................................
 72
    65
 73
     2
 40
0.000110
 49
0.000000
 49
-0.000110
  0
LTYPE
  2
DASHDOT
 70
    64
  3
__ . __ . __ . __ . __ . __ . __ . __ . __ . __
 72
    65
 73
     4
 40
0.000440
 49
0.000220
 49
-0.000110
 49
0.000000
 49
-0.000110
  0
LTYPE
  2
BORDER
 70
    64
  3
__ __ . __ __ . __ __ . __ __ . __ __ . __ __
 72
    65
 73
     6
 40
0.000770
 49
0.000220
 49
-0.000110
 49
0.000220
 49
-0.000110
 49
0.000000
 49
-0.000110
  0
LTYPE
  2
DIVIDE
 70
    64
  3
__ . . __ . . __ . . __ . . __ . . __ . . __
 72
    65
 73
     6
 40
0.000550
 49
0.000220
 49
-0.000110
 49
0.000000
 49
-0.000110
 49
0.000000
 49
-0.000110
  0
LTYPE
  2
DOTDOT
 70
    64
  3
 . .  . .  . .  . .  . .  . . 
 72
    65
 73
     5
 40
0.000242
 49
-0.000110
 49
0.000000
 49
-0.000110
 49
0.000000
 49
-0.000110
  0
ENDTAB
  0
TABLE
  2
STYLE
 70
     2
  0
STYLE
 70
     0
  2
SN0
 40
0.000000
 41
0.000440
 50
0.000000
 71
     0
 42
0.000000
  3
ROMAND
  0
STYLE
 70
    68
  2
SV0
 40
0.000000
 41
0.000440
 50
0.000000
 71
     0
 42
0.000000
  3
ROMAND
  0
ENDTAB
  0
TABLE
  2
LAYER
 70
     3
  0
LAYER
  2
FOREGROUND
 70
    64
 62
     7
  6
CONTINUOUS
  0
LAYER
  2
BACKGROUND
 70
    65
 62
    -7
  6
CONTINUOUS
  0
LAYER
  2
0
 70
    64
 62
     7
  6
CONTINUOUS
  0
ENDTAB
  0
ENDSEC
  0
SECTION
  2
ENTITIES
  0
POLYLINE
  8
FOREGROUND
  6
CONTINUOUS
 66
     1
 40
0.000000
 41
0.000000
  0
VERTEX
  8
FOREGROUND
  6
CONTINUOUS
 10
0.000000
 20
11.350240
  0
VERTEX
  8
FOREGROUND
  6
CONTINUOUS
 10
8.499920
 20
11.350240
  0
VERTEX
  8
FOREGROUND
  6
CONTINUOUS
 10
8.499920
 20
0.350240
  0
VERTEX
  8
FOREGROUND
  6
CONTINUOUS
 10
0.000000
 20
0.350240
  0
VERTEX
  8
FOREGROUND
  6
CONTINUOUS
 10
0.000000
 20
11.350240
  0
SEQEND
  8
0
  0
POLYLINE
  8
FOREGROUND
  6
CONTINUOUS
 66
     1
 40
0.000000
 41
0.000000
  0
VERTEX
  8
FOREGROUND
  6
CONTINUOUS
 10
0.000000
 20
11.350240
  0
VERTEX
  8
FOREGROUND
  6
CONTINUOUS
 10
8.499920
 20
11.350240
  0
VERTEX
  8
FOREGROUND
  6
CONTINUOUS
 10
8.499920
 20
0.350240
  0
VERTEX
  8
FOREGROUND
  6
CONTINUOUS
 10
0.000000
 20
0.350240
  0
VERTEX
  8
FOREGROUND
  6
CONTINUOUS
 10
0.000000
 20
11.350240
  0
SEQEND
  8
0
  0
POLYLINE
  8
0
  6
CONTINUOUS
 66
     1
 40
0.014080
 41
0.014080
  0
VERTEX
  8
0
  6
CONTINUOUS
 10
3.010480
 20
8.403120
  0
VERTEX
  8
0
  6
CONTINUOUS
 10
3.010480
 20
9.154200
  0
VERTEX
  8
0
  6
CONTINUOUS
 10
6.100160
 20
9.154200
  0
VERTEX
  8
0
  6
CONTINUOUS
 10
6.109400
 20
9.042880
  0
VERTEX
  8
0
  6
CONTINUOUS
 10
6.292880
 20
9.042880
  0
VERTEX
  8
0
  6
CONTINUOUS
 10
6.304320
 20
8.957960
  0
VERTEX
  8
0
  6
CONTINUOUS
 10
6.384840
 20
8.957080
  0
VERTEX
  8
0
  6
CONTINUOUS
 10
6.451720
 20
8.953560
  0
VERTEX
  8
0
  6
CONTINUOUS
 10
6.507600
 20
8.946520
  0
VERTEX
  8
0
  6
CONTINUOUS
 10
6.555120
 20
8.935960
  0
VERTEX
  8
0
  6
CONTINUOUS
 10
6.576240
 20
8.928920
  0
VERTEX
  8
0
  6
CONTINUOUS
 10
6.614960
 20
8.911320
  0
VERTEX
  8
0
  6
CONTINUOUS
 10
6.651480
 20
8.888440
  0
VERTEX
  8
0
  6
CONTINUOUS
 10
6.688000
 20
8.859840
  0
VERTEX
  8
0
  6
CONTINUOUS
 10
6.777320
 20
8.779760
  0
VERTEX
  8
0
  6
CONTINUOUS
 10
6.813400
 20
8.753800
  0
VERTEX
  8
0
  6
CONTINUOUS
 10
6.833200
 20
8.741920
  0
VERTEX
  8
0
  6
CONTINUOUS
 10
6.866200
 20
8.726520
  0
VERTEX
  8
0
  6
CONTINUOUS
 10
6.904920
 20
8.713760
  0
VERTEX
  8
0
  6
CONTINUOUS
 10
6.951120
 20
8.703200
  0
VERTEX
  8
0
  6
CONTINUOUS
 10
7.006120
 20
8.695720
  0
VERTEX
  8
0
  6
CONTINUOUS
 10
7.071240
 20
8.690880
  0
VERTEX
  8
0
  6
CONTINUOUS
 10
7.148680
 20
8.689120
  0
VERTEX
  8
0
  6
CONTINUOUS
 10
7.148680
 20
8.402680
  0
VERTEX
  8
0
  6
CONTINUOUS
 10
3.010480
 20
8.403120
  0
SEQEND
  8
0
  0
POLYLINE
  8
0
  6
CONTINUOUS
 66
     1
 40
0.014080
 41
0.014080
  0
VERTEX
  8
0
  6
CONTINUOUS
 10
1.593240
 20
8.402240
  0
VERTEX
  8
0
  6
CONTINUOUS
 10
1.593240
 20
9.577920
  0
VERTEX
  8
0
  6
CONTINUOUS
 10
2.088680
 20
9.577920
  0
VERTEX
  8
0
  6
CONTINUOUS
 10
2.106280
 20
9.501800
  0
VERTEX
  8
0
  6
CONTINUOUS
 10
2.140160
 20
9.516320
  0
VERTEX
  8
0
  6
CONTINUOUS
 10
2.173600
 20
9.526440
  0
VERTEX
  8
0
  6
CONTINUOUS
 10
2.205720
 20
9.533040
  0
VERTEX
  8
0
  6
CONTINUOUS
 10
2.251920
 20
9.536560
  0
VERTEX
  8
0
  6
CONTINUOUS
 10
2.281840
 20
9.534800
  0
VERTEX
  8
0
  6
CONTINUOUS
 10
2.310440
 20
9.530400
  0
VERTEX
  8
0
  6
CONTINUOUS
 10
2.350920
 20
9.519400
  0
VERTEX
  8
0
  6
CONTINUOUS
 10
2.376440
 20
9.509280
  0
VERTEX
  8
0
  6
CONTINUOUS
 10
2.401080
 20
9.497400
  0
VERTEX
  8
0
  6
CONTINUOUS
 10
2.423960
 20
9.484200
  0
VERTEX
  8
0
  6
CONTINUOUS
 10
2.465760
 20
9.453840
  0
VERTEX
  8
0
  6
CONTINUOUS
 10
2.501400
 20
9.420840
  0
VERTEX
  8
0
  6
CONTINUOUS
 10
2.531760
 20
9.387840
  0
VERTEX
  8
0
  6
CONTINUOUS
 10
2.564320
 20
9.358800
  0
VERTEX
  8
0
  6
CONTINUOUS
 10
2.581920
 20
9.345600
  0
VERTEX
  8
0
  6
CONTINUOUS
 10
2.620200
 20
9.323160
  0
VERTEX
  8
0
  6
CONTINUOUS
 10
2.662000
 20
9.305120
  0
VERTEX
  8
0
  6
CONTINUOUS
 10
2.708200
 20
9.291040
  0
VERTEX
  8
0
  6
CONTINUOUS
 10
2.759240
 20
9.281360
  0
VERTEX
  8
0
  6
CONTINUOUS
 10
2.815120
 20
9.275640
  0
VERTEX
  8
0
  6
CONTINUOUS
 10
2.876280
 20
9.273880
  0
VERTEX
  8
0
  6
CONTINUOUS
 10
2.876280
 20
9.153760
  0
VERTEX
  8
0
  6
CONTINUOUS
 10
2.627240
 20
9.153760
  0
VERTEX
  8
0
  6
CONTINUOUS
 10
2.627240
 20
8.401800
  0
VERTEX
  8
0
  6
CONTINUOUS
 10
1.593240
 20
8.402240
  0
SEQEND
  8
0
  0
POLYLINE
  8
0
  6
CONTINUOUS
 66
     1
 40
0.000000
 41
0.000000
  0
VERTEX
  8
0
  6
CONTINUOUS
 10
2.770680
 20
3.340920
  0
VERTEX
  8
0
  6
CONTINUOUS
 10
2.770680
 20
4.092000
  0
VERTEX
  8
0
  6
CONTINUOUS
 10
5.860360
 20
4.092000
  0
VERTEX
  8
0
  6
CONTINUOUS
 10
5.869160
 20
3.980680
  0
VERTEX
  8
0
  6
CONTINUOUS
 10
6.052640
 20
3.980680
  0
VERTEX
  8
0
  6
CONTINUOUS
 10
6.064520
 20
3.895760
  0
VERTEX
  8
0
  6
CONTINUOUS
 10
6.145040
 20
3.894880
  0
VERTEX
  8
0
  6
CONTINUOUS
 10
6.211920
 20
3.891360
  0
VERTEX
  8
0
  6
CONTINUOUS
 10
6.267800
 20
3.884320
  0
VERTEX
  8
0
  6
CONTINUOUS
 10
6.315320
 20
3.873760
  0
VERTEX
  8
0
  6
CONTINUOUS
 10
6.336440
 20
3.866720
  0
VERTEX
  8
0
  6
CONTINUOUS
 10
6.375160
 20
3.849120
  0
VERTEX
  8
0
  6
CONTINUOUS
 10
6.411680
 20
3.826240
  0
VERTEX
  8
0
  6
CONTINUOUS
 10
6.466680
 20
3.780920
  0
VERTEX
  8
0
  6
CONTINUOUS
 10
6.537520
 20
3.717560
  0
VERTEX
  8
0
  6
CONTINUOUS
 10
6.573160
 20
3.691600
  0
VERTEX
  8
0
  6
CONTINUOUS
 10
6.592960
 20
3.679720
  0
VERTEX
  8
0
  6
CONTINUOUS
 10
6.626400
 20
3.664320
  0
VERTEX
  8
0
  6
CONTINUOUS
 10
6.665120
 20
3.651560
  0
VERTEX
  8
0
  6
CONTINUOUS
 10
6.710880
 20
3.641000
  0
VERTEX
  8
0
  6
CONTINUOUS
 10
6.765880
 20
3.633520
  0
VERTEX
  8
0
  6
CONTINUOUS
 10
6.831000
 20
3.628680
  0
VERTEX
  8
0
  6
CONTINUOUS
 10
6.908440
 20
3.626920
  0
VERTEX
  8
0
  6
CONTINUOUS
 10
6.908440
 20
3.340480
  0
VERTEX
  8
0
  6
CONTINUOUS
 10
2.770680
 20
3.340920
  0
SEQEND
  8
0
  0
POLYLINE
  8
0
  6
CONTINUOUS
 66
     1
 40
0.000000
 41
0.000000
  0
VERTEX
  8
0
  6
CONTINUOUS
 10
1.261920
 20
3.340040
  0
VERTEX
  8
0
  6
CONTINUOUS
 10
1.261920
 20
4.515720
  0
VERTEX
  8
0
  6
CONTINUOUS
 10
1.756920
 20
4.515720
  0
VERTEX
  8
0
  6
CONTINUOUS
 10
1.774520
 20
4.440040
  0
VERTEX
  8
0
  6
CONTINUOUS
 10
1.825120
 20
4.459840
  0
VERTEX
  8
0
  6
CONTINUOUS
 10
1.858120
 20
4.468200
  0
VERTEX
  8
0
  6
CONTINUOUS
 10
1.889800
 20
4.473040
  0
VERTEX
  8
0
  6
CONTINUOUS
 10
1.920600
 20
4.474360
  0
VERTEX
  8
0
  6
CONTINUOUS
 10
1.950080
 20
4.472600
  0
VERTEX
  8
0
  6
CONTINUOUS
 10
1.978680
 20
4.468200
  0
VERTEX
  8
0
  6
CONTINUOUS
 10
2.006400
 20
4.461600
  0
VERTEX
  8
0
  6
CONTINUOUS
 10
2.045120
 20
4.447080
  0
VERTEX
  8
0
  6
CONTINUOUS
 10
2.092640
 20
4.422000
  0
VERTEX
  8
0
  6
CONTINUOUS
 10
2.134440
 20
4.391640
  0
VERTEX
  8
0
  6
CONTINUOUS
 10
2.170080
 20
4.358640
  0
VERTEX
  8
0
  6
CONTINUOUS
 10
2.200440
 20
4.325640
  0
VERTEX
  8
0
  6
CONTINUOUS
 10
2.233000
 20
4.296600
  0
VERTEX
  8
0
  6
CONTINUOUS
 10
2.250600
 20
4.283400
  0
VERTEX
  8
0
  6
CONTINUOUS
 10
2.288440
 20
4.260960
  0
VERTEX
  8
0
  6
CONTINUOUS
 10
2.330240
 20
4.242920
  0
VERTEX
  8
0
  6
CONTINUOUS
 10
2.376440
 20
4.228840
  0
VERTEX
  8
0
  6
CONTINUOUS
 10
2.427480
 20
4.219160
  0
VERTEX
  8
0
  6
CONTINUOUS
 10
2.483360
 20
4.213440
  0
VERTEX
  8
0
  6
CONTINUOUS
 10
2.544520
 20
4.211680
  0
VERTEX
  8
0
  6
CONTINUOUS
 10
2.544520
 20
4.091560
  0
VERTEX
  8
0
  6
CONTINUOUS
 10
2.295920
 20
4.091560
  0
VERTEX
  8
0
  6
CONTINUOUS
 10
2.295920
 20
3.340040
  0
VERTEX
  8
0
  6
CONTINUOUS
 10
1.261920
 20
3.340040
  0
SEQEND
  8
0
  0
POLYLINE
  8
0
  6
CONTINUOUS
 66
     1
 40
0.000000
 41
0.000000
  0
VERTEX
  8
0
  6
CONTINUOUS
 10
5.454680
 20
1.766160
  0
VERTEX
  8
0
  6
CONTINUOUS
 10
5.454680
 20
2.517240
  0
VERTEX
  8
0
  6
CONTINUOUS
 10
2.365000
 20
2.517240
  0
VERTEX
  8
0
  6
CONTINUOUS
 10
2.356200
 20
2.405920
  0
VERTEX
  8
0
  6
CONTINUOUS
 10
2.172720
 20
2.405920
  0
VERTEX
  8
0
  6
CONTINUOUS
 10
2.160840
 20
2.321000
  0
VERTEX
  8
0
  6
CONTINUOUS
 10
2.080320
 20
2.320120
  0
VERTEX
  8
0
  6
CONTINUOUS
 10
2.013440
 20
2.316600
  0
VERTEX
  8
0
  6
CONTINUOUS
 10
1.957560
 20
2.309560
  0
VERTEX
  8
0
  6
CONTINUOUS
 10
1.910480
 20
2.299000
  0
VERTEX
  8
0
  6
CONTINUOUS
 10
1.869120
 20
2.284040
  0
VERTEX
  8
0
  6
CONTINUOUS
 10
1.831720
 20
2.263800
  0
VERTEX
  8
0
  6
CONTINUOUS
 10
1.796080
 20
2.238280
  0
VERTEX
  8
0
  6
CONTINUOUS
 10
1.739760
 20
2.189440
  0
VERTEX
  8
0
  6
CONTINUOUS
 10
1.687840
 20
2.143240
  0
VERTEX
  8
0
  6
CONTINUOUS
 10
1.652200
 20
2.116840
  0
VERTEX
  8
0
  6
CONTINUOUS
 10
1.610840
 20
2.094840
  0
VERTEX
  8
0
  6
CONTINUOUS
 10
1.587080
 20
2.085160
  0
VERTEX
  8
0
  6
CONTINUOUS
 10
1.545720
 20
2.073280
  0
VERTEX
  8
0
  6
CONTINUOUS
 10
1.496880
 20
2.064040
  0
VERTEX
  8
0
  6
CONTINUOUS
 10
1.438800
 20
2.057000
  0
VERTEX
  8
0
  6
CONTINUOUS
 10
1.369720
 20
2.053480
  0
VERTEX
  8
0
  6
CONTINUOUS
 10
1.316920
 20
2.052600
  0
VERTEX
  8
0
  6
CONTINUOUS
 10
1.316920
 20
1.765720
  0
VERTEX
  8
0
  6
CONTINUOUS
 10
5.454680
 20
1.766160
  0
SEQEND
  8
0
  0
POLYLINE
  8
0
  6
CONTINUOUS
 66
     1
 40
0.000000
 41
0.000000
  0
VERTEX
  8
0
  6
CONTINUOUS
 10
6.963440
 20
1.765280
  0
VERTEX
  8
0
  6
CONTINUOUS
 10
6.963440
 20
2.940960
  0
VERTEX
  8
0
  6
CONTINUOUS
 10
6.468440
 20
2.940960
  0
VERTEX
  8
0
  6
CONTINUOUS
 10
6.450840
 20
2.865280
  0
VERTEX
  8
0
  6
CONTINUOUS
 10
6.400240
 20
2.885080
  0
VERTEX
  8
0
  6
CONTINUOUS
 10
6.367240
 20
2.893440
  0
VERTEX
  8
0
  6
CONTINUOUS
 10
6.335560
 20
2.898280
  0
VERTEX
  8
0
  6
CONTINUOUS
 10
6.304760
 20
2.899600
  0
VERTEX
  8
0
  6
CONTINUOUS
 10
6.275280
 20
2.897840
  0
VERTEX
  8
0
  6
CONTINUOUS
 10
6.246680
 20
2.893440
  0
VERTEX
  8
0
  6
CONTINUOUS
 10
6.218960
 20
2.886840
  0
VERTEX
  8
0
  6
CONTINUOUS
 10
6.180240
 20
2.872320
  0
VERTEX
  8
0
  6
CONTINUOUS
 10
6.132720
 20
2.847240
  0
VERTEX
  8
0
  6
CONTINUOUS
 10
6.090920
 20
2.816880
  0
VERTEX
  8
0
  6
CONTINUOUS
 10
6.055280
 20
2.783880
  0
VERTEX
  8
0
  6
CONTINUOUS
 10
6.024920
 20
2.750880
  0
VERTEX
  8
0
  6
CONTINUOUS
 10
5.992360
 20
2.721840
  0
VERTEX
  8
0
  6
CONTINUOUS
 10
5.956280
 20
2.697200
  0
VERTEX
  8
0
  6
CONTINUOUS
 10
5.916680
 20
2.676960
  0
VERTEX
  8
0
  6
CONTINUOUS
 10
5.895120
 20
2.668160
  0
VERTEX
  8
0
  6
CONTINUOUS
 10
5.848920
 20
2.654080
  0
VERTEX
  8
0
  6
CONTINUOUS
 10
5.797880
 20
2.644400
  0
VERTEX
  8
0
  6
CONTINUOUS
 10
5.742000
 20
2.638680
  0
VERTEX
  8
0
  6
CONTINUOUS
 10
5.680840
 20
2.637360
  0
VERTEX
  8
0
  6
CONTINUOUS
 10
5.680840
 20
2.516800
  0
VERTEX
  8
0
  6
CONTINUOUS
 10
5.929440
 20
2.516800
  0
VERTEX
  8
0
  6
CONTINUOUS
 10
5.929440
 20
1.765280
  0
VERTEX
  8
0
  6
CONTINUOUS
 10
6.963440
 20
1.765280
  0
SEQEND
  8
0
  0
TEXT
  8
0
 10
1.851080
 20
8.198960
 40
0.138364
  1
BA  1246
 41
1.000000
  7
SN0
 71
     0
 72
     5
 11
2.533424
 21
8.198960
  0
TEXT
  8
0
 10
1.621400
 20
8.007120
 40
0.138364
  1
1-3/16" x 1-1/4"
 41
1.000000
  7
SN0
 71
     0
 72
     5
 11
2.761247
 21
8.007120
  0
TEXT
  8
0
 10
4.632760
 20
8.183560
 40
0.138364
  1
BA  1247
 41
1.000000
  7
SN0
 71
     0
 72
     5
 11
5.315104
 21
8.183560
  0
TEXT
  8
0
 10
4.523200
 20
7.992160
 40
0.138364
  1
3/4" x 4-1/8"
 41
1.000000
  7
SN0
 71
     0
 72
     5
 11
5.423346
 21
7.992160
  0
SOLID
  8
0
 62
    15
 10
6.131400
 20
6.048240
 11
6.126560
 21
6.803720
 12
6.168800
 22
6.016120
 13
6.163960
 23
6.771600
  0
POLYLINE
  8
0
  6
CONTINUOUS
 66
     1
 40
0.000000
 41
0.000000
  0
VERTEX
  8
0
  6
CONTINUOUS
 10
6.131400
 20
6.048240
  0
VERTEX
  8
0
  6
CONTINUOUS
 10
6.126560
 20
6.803720
  0
VERTEX
  8
0
  6
CONTINUOUS
 10
6.163960
 20
6.771600
  0
VERTEX
  8
0
  6
CONTINUOUS
 10
6.168800
 20
6.016120
  0
VERTEX
  8
0
  6
CONTINUOUS
 10
6.131400
 20
6.048240
  0
SEQEND
  8
0
  0
SOLID
  8
0
 62
    15
 10
5.766200
 20
6.130960
 11
5.761360
 21
6.886440
 12
5.808000
 22
6.130960
 13
5.803600
 23
6.886440
  0
POLYLINE
  8
0
  6
CONTINUOUS
 66
     1
 40
0.000000
 41
0.000000
  0
VERTEX
  8
0
  6
CONTINUOUS
 10
5.766200
 20
6.130960
  0
VERTEX
  8
0
  6
CONTINUOUS
 10
5.761360
 20
6.886440
  0
VERTEX
  8
0
  6
CONTINUOUS
 10
5.803600
 20
6.886440
  0
VERTEX
  8
0
  6
CONTINUOUS
 10
5.808000
 20
6.130960
  0
VERTEX
  8
0
  6
CONTINUOUS
 10
5.766200
 20
6.130960
  0
SEQEND
  8
0
  0
SOLID
  8
0
 62
    15
 10
5.754320
 20
6.215880
 11
5.749920
 21
6.971360
 12
5.766200
 22
6.130960
 13
5.761360
 23
6.886440
  0
POLYLINE
  8
0
  6
CONTINUOUS
 66
     1
 40
0.000000
 41
0.000000
  0
VERTEX
  8
0
  6
CONTINUOUS
 10
5.754320
 20
6.215880
  0
VERTEX
  8
0
  6
CONTINUOUS
 10
5.749920
 20
6.971360
  0
VERTEX
  8
0
  6
CONTINUOUS
 10
5.761360
 20
6.886440
  0
VERTEX
  8
0
  6
CONTINUOUS
 10
5.766200
 20
6.130960
  0
VERTEX
  8
0
  6
CONTINUOUS
 10
5.754320
 20
6.215880
  0
SEQEND
  8
0
  0
SOLID
  8
0
 62
    15
 10
5.571280
 20
6.215880
 11
5.566440
 21
6.971360
 12
5.754320
 22
6.215880
 13
5.749920
 23
6.971360
  0
POLYLINE
  8
0
  6
CONTINUOUS
 66
     1
 40
0.000000
 41
0.000000
  0
VERTEX
  8
0
  6
CONTINUOUS
 10
5.571280
 20
6.215880
  0
VERTEX
  8
0
  6
CONTINUOUS
 10
5.566440
 20
6.971360
  0
VERTEX
  8
0
  6
CONTINUOUS
 10
5.749920
 20
6.971360
  0
VERTEX
  8
0
  6
CONTINUOUS
 10
5.754320
 20
6.215880
  0
VERTEX
  8
0
  6
CONTINUOUS
 10
5.571280
 20
6.215880
  0
SEQEND
  8
0
  0
SOLID
  8
0
 62
    15
 10
5.562040
 20
6.327200
 11
5.557640
 21
7.082680
 12
5.571280
 22
6.215880
 13
5.566440
 23
6.971360
  0
POLYLINE
  8
0
  6
CONTINUOUS
 66
     1
 40
0.000000
 41
0.000000
  0
VERTEX
  8
0
  6
CONTINUOUS
 10
5.562040
 20
6.327200
  0
VERTEX
  8
0
  6
CONTINUOUS
 10
5.557640
 20
7.082680
  0
VERTEX
  8
0
  6
CONTINUOUS
 10
5.566440
 20
6.971360
  0
VERTEX
  8
0
  6
CONTINUOUS
 10
5.571280
 20
6.215880
  0
VERTEX
  8
0
  6
CONTINUOUS
 10
5.562040
 20
6.327200
  0
SEQEND
  8
0
  0
SOLID
  8
0
 62
    15
 10
2.472360
 20
5.576120
 11
2.467960
 21
6.331600
 12
2.472360
 22
6.327200
 13
2.467960
 23
7.082680
  0
POLYLINE
  8
0
  6
CONTINUOUS
 66
     1
 40
0.000000
 41
0.000000
  0
VERTEX
  8
0
  6
CONTINUOUS
 10
2.472360
 20
5.576120
  0
VERTEX
  8
0
  6
CONTINUOUS
 10
2.467960
 20
6.331600
  0
VERTEX
  8
0
  6
CONTINUOUS
 10
2.467960
 20
7.082680
  0
VERTEX
  8
0
  6
CONTINUOUS
 10
2.472360
 20
6.327200
  0
VERTEX
  8
0
  6
CONTINUOUS
 10
2.472360
 20
5.576120
  0
SEQEND
  8
0
  0
SOLID
  8
0
 62
    15
 10
5.808000
 20
6.130960
 11
5.803600
 21
6.886440
 12
5.846720
 22
6.130080
 13
5.841880
 23
6.885560
  0
POLYLINE
  8
0
  6
CONTINUOUS
 66
     1
 40
0.000000
 41
0.000000
  0
VERTEX
  8
0
  6
CONTINUOUS
 10
5.808000
 20
6.130960
  0
VERTEX
  8
0
  6
CONTINUOUS
 10
5.803600
 20
6.886440
  0
VERTEX
  8
0
  6
CONTINUOUS
 10
5.841880
 20
6.885560
  0
VERTEX
  8
0
  6
CONTINUOUS
 10
5.846720
 20
6.130080
  0
VERTEX
  8
0
  6
CONTINUOUS
 10
5.808000
 20
6.130960
  0
SEQEND
  8
0
  0
SOLID
  8
0
 62
    15
 10
5.846720
 20
6.130080
 11
5.841880
 21
6.885560
 12
5.913600
 22
6.126560
 13
5.909200
 23
6.882040
  0
POLYLINE
  8
0
  6
CONTINUOUS
 66
     1
 40
0.000000
 41
0.000000
  0
VERTEX
  8
0
  6
CONTINUOUS
 10
5.846720
 20
6.130080
  0
VERTEX
  8
0
  6
CONTINUOUS
 10
5.841880
 20
6.885560
  0
VERTEX
  8
0
  6
CONTINUOUS
 10
5.909200
 20
6.882040
  0
VERTEX
  8
0
  6
CONTINUOUS
 10
5.913600
 20
6.126560
  0
VERTEX
  8
0
  6
CONTINUOUS
 10
5.846720
 20
6.130080
  0
SEQEND
  8
0
  0
SOLID
  8
0
 62
    15
 10
5.913600
 20
6.126560
 11
5.909200
 21
6.882040
 12
5.969480
 22
6.119520
 13
5.965080
 23
6.875000
  0
POLYLINE
  8
0
  6
CONTINUOUS
 66
     1
 40
0.000000
 41
0.000000
  0
VERTEX
  8
0
  6
CONTINUOUS
 10
5.913600
 20
6.126560
  0
VERTEX
  8
0
  6
CONTINUOUS
 10
5.909200
 20
6.882040
  0
VERTEX
  8
0
  6
CONTINUOUS
 10
5.965080
 20
6.875000
  0
VERTEX
  8
0
  6
CONTINUOUS
 10
5.969480
 20
6.119520
  0
VERTEX
  8
0
  6
CONTINUOUS
 10
5.913600
 20
6.126560
  0
SEQEND
  8
0
  0
SOLID
  8
0
 62
    15
 10
5.969480
 20
6.119520
 11
5.965080
 21
6.875000
 12
6.017000
 22
6.108960
 13
6.012160
 23
6.864440
  0
POLYLINE
  8
0
  6
CONTINUOUS
 66
     1
 40
0.000000
 41
0.000000
  0
VERTEX
  8
0
  6
CONTINUOUS
 10
5.969480
 20
6.119520
  0
VERTEX
  8
0
  6
CONTINUOUS
 10
5.965080
 20
6.875000
  0
VERTEX
  8
0
  6
CONTINUOUS
 10
6.012160
 20
6.864440
  0
VERTEX
  8
0
  6
CONTINUOUS
 10
6.017000
 20
6.108960
  0
VERTEX
  8
0
  6
CONTINUOUS
 10
5.969480
 20
6.119520
  0
SEQEND
  8
0
  0
SOLID
  8
0
 62
    15
 10
6.017000
 20
6.108960
 11
6.012160
 21
6.864440
 12
6.057920
 22
6.094000
 13
6.053080
 23
6.849480
  0
POLYLINE
  8
0
  6
CONTINUOUS
 66
     1
 40
0.000000
 41
0.000000
  0
VERTEX
  8
0
  6
CONTINUOUS
 10
6.017000
 20
6.108960
  0
VERTEX
  8
0
  6
CONTINUOUS
 10
6.012160
 20
6.864440
  0
VERTEX
  8
0
  6
CONTINUOUS
 10
6.053080
 20
6.849480
  0
VERTEX
  8
0
  6
CONTINUOUS
 10
6.057920
 20
6.094000
  0
VERTEX
  8
0
  6
CONTINUOUS
 10
6.017000
 20
6.108960
  0
SEQEND
  8
0
  0
SOLID
  8
0
 62
    15
 10
6.057920
 20
6.094000
 11
6.053080
 21
6.849480
 12
6.095320
 22
6.073760
 13
6.090480
 23
6.829240
  0
POLYLINE
  8
0
  6
CONTINUOUS
 66
     1
 40
0.000000
 41
0.000000
  0
VERTEX
  8
0
  6
CONTINUOUS
 10
6.057920
 20
6.094000
  0
VERTEX
  8
0
  6
CONTINUOUS
 10
6.053080
 20
6.849480
  0
VERTEX
  8
0
  6
CONTINUOUS
 10
6.090480
 20
6.829240
  0
VERTEX
  8
0
  6
CONTINUOUS
 10
6.095320
 20
6.073760
  0
VERTEX
  8
0
  6
CONTINUOUS
 10
6.057920
 20
6.094000
  0
SEQEND
  8
0
  0
SOLID
  8
0
 62
    15
 10
6.095320
 20
6.073760
 11
6.090480
 21
6.829240
 12
6.131400
 22
6.048240
 13
6.126560
 23
6.803720
  0
POLYLINE
  8
0
  6
CONTINUOUS
 66
     1
 40
0.000000
 41
0.000000
  0
VERTEX
  8
0
  6
CONTINUOUS
 10
6.095320
 20
6.073760
  0
VERTEX
  8
0
  6
CONTINUOUS
 10
6.090480
 20
6.829240
  0
VERTEX
  8
0
  6
CONTINUOUS
 10
6.126560
 20
6.803720
  0
VERTEX
  8
0
  6
CONTINUOUS
 10
6.131400
 20
6.048240
  0
VERTEX
  8
0
  6
CONTINUOUS
 10
6.095320
 20
6.073760
  0
SEQEND
  8
0
  0
SOLID
  8
0
 62
    15
 10
2.472360
 20
6.327200
 11
2.467960
 21
7.082680
 12
5.562040
 22
6.327200
 13
5.557640
 23
7.082680
  0
POLYLINE
  8
0
  6
CONTINUOUS
 66
     1
 40
0.000000
 41
0.000000
  0
VERTEX
  8
0
  6
CONTINUOUS
 10
2.472360
 20
6.327200
  0
VERTEX
  8
0
  6
CONTINUOUS
 10
2.467960
 20
7.082680
  0
VERTEX
  8
0
  6
CONTINUOUS
 10
5.557640
 20
7.082680
  0
VERTEX
  8
0
  6
CONTINUOUS
 10
5.562040
 20
6.327200
  0
VERTEX
  8
0
  6
CONTINUOUS
 10
2.472360
 20
6.327200
  0
SEQEND
  8
0
  0
SOLID
  8
0
 62
    15
 10
6.168800
 20
6.016120
 11
6.163960
 21
6.771600
 12
6.204880
 22
5.982680
 13
6.200480
 23
6.738160
  0
POLYLINE
  8
0
  6
CONTINUOUS
 66
     1
 40
0.000000
 41
0.000000
  0
VERTEX
  8
0
  6
CONTINUOUS
 10
6.168800
 20
6.016120
  0
VERTEX
  8
0
  6
CONTINUOUS
 10
6.163960
 20
6.771600
  0
VERTEX
  8
0
  6
CONTINUOUS
 10
6.200480
 20
6.738160
  0
VERTEX
  8
0
  6
CONTINUOUS
 10
6.204880
 20
5.982680
  0
VERTEX
  8
0
  6
CONTINUOUS
 10
6.168800
 20
6.016120
  0
SEQEND
  8
0
  0
SOLID
  8
0
 62
    15
 10
6.204880
 20
5.982680
 11
6.200480
 21
6.738160
 12
6.239200
 22
5.952760
 13
6.234360
 23
6.708240
  0
POLYLINE
  8
0
  6
CONTINUOUS
 66
     1
 40
0.000000
 41
0.000000
  0
VERTEX
  8
0
  6
CONTINUOUS
 10
6.204880
 20
5.982680
  0
VERTEX
  8
0
  6
CONTINUOUS
 10
6.200480
 20
6.738160
  0
VERTEX
  8
0
  6
CONTINUOUS
 10
6.234360
 20
6.708240
  0
VERTEX
  8
0
  6
CONTINUOUS
 10
6.239200
 20
5.952760
  0
VERTEX
  8
0
  6
CONTINUOUS
 10
6.204880
 20
5.982680
  0
SEQEND
  8
0
  0
SOLID
  8
0
 62
    15
 10
6.239200
 20
5.952760
 11
6.234360
 21
6.708240
 12
6.274840
 22
5.926800
 13
6.270440
 23
6.682280
  0
POLYLINE
  8
0
  6
CONTINUOUS
 66
     1
 40
0.000000
 41
0.000000
  0
VERTEX
  8
0
  6
CONTINUOUS
 10
6.239200
 20
5.952760
  0
VERTEX
  8
0
  6
CONTINUOUS
 10
6.234360
 20
6.708240
  0
VERTEX
  8
0
  6
CONTINUOUS
 10
6.270440
 20
6.682280
  0
VERTEX
  8
0
  6
CONTINUOUS
 10
6.274840
 20
5.926800
  0
VERTEX
  8
0
  6
CONTINUOUS
 10
6.239200
 20
5.952760
  0
SEQEND
  8
0
  0
SOLID
  8
0
 62
    15
 10
6.274840
 20
5.926800
 11
6.270440
 21
6.682280
 12
6.316200
 22
5.904360
 13
6.311800
 23
6.659840
  0
POLYLINE
  8
0
  6
CONTINUOUS
 66
     1
 40
0.000000
 41
0.000000
  0
VERTEX
  8
0
  6
CONTINUOUS
 10
6.274840
 20
5.926800
  0
VERTEX
  8
0
  6
CONTINUOUS
 10
6.270440
 20
6.682280
  0
VERTEX
  8
0
  6
CONTINUOUS
 10
6.311800
 20
6.659840
  0
VERTEX
  8
0
  6
CONTINUOUS
 10
6.316200
 20
5.904360
  0
VERTEX
  8
0
  6
CONTINUOUS
 10
6.274840
 20
5.926800
  0
SEQEND
  8
0
  0
SOLID
  8
0
 62
    15
 10
6.316200
 20
5.904360
 11
6.311800
 21
6.659840
 12
6.366800
 22
5.886760
 13
6.361960
 23
6.642240
  0
POLYLINE
  8
0
  6
CONTINUOUS
 66
     1
 40
0.000000
 41
0.000000
  0
VERTEX
  8
0
  6
CONTINUOUS
 10
6.316200
 20
5.904360
  0
VERTEX
  8
0
  6
CONTINUOUS
 10
6.311800
 20
6.659840
  0
VERTEX
  8
0
  6
CONTINUOUS
 10
6.361960
 20
6.642240
  0
VERTEX
  8
0
  6
CONTINUOUS
 10
6.366800
 20
5.886760
  0
VERTEX
  8
0
  6
CONTINUOUS
 10
6.316200
 20
5.904360
  0
SEQEND
  8
0
  0
SOLID
  8
0
 62
    15
 10
6.366800
 20
5.886760
 11
6.361960
 21
6.642240
 12
6.396280
 22
5.879720
 13
6.391880
 23
6.635200
  0
POLYLINE
  8
0
  6
CONTINUOUS
 66
     1
 40
0.000000
 41
0.000000
  0
VERTEX
  8
0
  6
CONTINUOUS
 10
6.366800
 20
5.886760
  0
VERTEX
  8
0
  6
CONTINUOUS
 10
6.361960
 20
6.642240
  0
VERTEX
  8
0
  6
CONTINUOUS
 10
6.391880
 20
6.635200
  0
VERTEX
  8
0
  6
CONTINUOUS
 10
6.396280
 20
5.879720
  0
VERTEX
  8
0
  6
CONTINUOUS
 10
6.366800
 20
5.886760
  0
SEQEND
  8
0
  0
SOLID
  8
0
 62
    15
 10
6.396280
 20
5.879720
 11
6.391880
 21
6.635200
 12
6.430160
 22
5.873560
 13
6.425320
 23
6.629040
  0
POLYLINE
  8
0
  6
CONTINUOUS
 66
     1
 40
0.000000
 41
0.000000
  0
VERTEX
  8
0
  6
CONTINUOUS
 10
6.396280
 20
5.879720
  0
VERTEX
  8
0
  6
CONTINUOUS
 10
6.391880
 20
6.635200
  0
VERTEX
  8
0
  6
CONTINUOUS
 10
6.425320
 20
6.629040
  0
VERTEX
  8
0
  6
CONTINUOUS
 10
6.430160
 20
5.873560
  0
VERTEX
  8
0
  6
CONTINUOUS
 10
6.396280
 20
5.879720
  0
SEQEND
  8
0
  0
SOLID
  8
0
 62
    15
 10
6.430160
 20
5.873560
 11
6.425320
 21
6.629040
 12
6.467560
 22
5.868720
 13
6.463160
 23
6.624200
  0
POLYLINE
  8
0
  6
CONTINUOUS
 66
     1
 40
0.000000
 41
0.000000
  0
VERTEX
  8
0
  6
CONTINUOUS
 10
6.430160
 20
5.873560
  0
VERTEX
  8
0
  6
CONTINUOUS
 10
6.425320
 20
6.629040
  0
VERTEX
  8
0
  6
CONTINUOUS
 10
6.463160
 20
6.624200
  0
VERTEX
  8
0
  6
CONTINUOUS
 10
6.467560
 20
5.868720
  0
VERTEX
  8
0
  6
CONTINUOUS
 10
6.430160
 20
5.873560
  0
SEQEND
  8
0
  0
SOLID
  8
0
 62
    15
 10
6.467560
 20
5.868720
 11
6.463160
 21
6.624200
 12
6.509800
 22
5.865200
 13
6.505400
 23
6.620680
  0
POLYLINE
  8
0
  6
CONTINUOUS
 66
     1
 40
0.000000
 41
0.000000
  0
VERTEX
  8
0
  6
CONTINUOUS
 10
6.467560
 20
5.868720
  0
VERTEX
  8
0
  6
CONTINUOUS
 10
6.463160
 20
6.624200
  0
VERTEX
  8
0
  6
CONTINUOUS
 10
6.505400
 20
6.620680
  0
VERTEX
  8
0
  6
CONTINUOUS
 10
6.509800
 20
5.865200
  0
VERTEX
  8
0
  6
CONTINUOUS
 10
6.467560
 20
5.868720
  0
SEQEND
  8
0
  0
SOLID
  8
0
 62
    15
 10
6.509800
 20
5.865200
 11
6.505400
 21
6.620680
 12
6.557320
 22
5.863000
 13
6.552920
 23
6.618920
  0
POLYLINE
  8
0
  6
CONTINUOUS
 66
     1
 40
0.000000
 41
0.000000
  0
VERTEX
  8
0
  6
CONTINUOUS
 10
6.509800
 20
5.865200
  0
VERTEX
  8
0
  6
CONTINUOUS
 10
6.505400
 20
6.620680
  0
VERTEX
  8
0
  6
CONTINUOUS
 10
6.552920
 20
6.618920
  0
VERTEX
  8
0
  6
CONTINUOUS
 10
6.557320
 20
5.863000
  0
VERTEX
  8
0
  6
CONTINUOUS
 10
6.509800
 20
5.865200
  0
SEQEND
  8
0
  0
SOLID
  8
0
 62
    15
 10
6.557320
 20
5.863000
 11
6.552920
 21
6.618920
 12
6.610120
 22
5.862120
 13
6.605720
 23
6.618040
  0
POLYLINE
  8
0
  6
CONTINUOUS
 66
     1
 40
0.000000
 41
0.000000
  0
VERTEX
  8
0
  6
CONTINUOUS
 10
6.557320
 20
5.863000
  0
VERTEX
  8
0
  6
CONTINUOUS
 10
6.552920
 20
6.618920
  0
VERTEX
  8
0
  6
CONTINUOUS
 10
6.605720
 20
6.618040
  0
VERTEX
  8
0
  6
CONTINUOUS
 10
6.610120
 20
5.862120
  0
VERTEX
  8
0
  6
CONTINUOUS
 10
6.557320
 20
5.863000
  0
SEQEND
  8
0
  0
SOLID
  8
0
 62
    15
 10
2.472360
 20
5.575680
 11
2.467960
 21
6.331160
 12
2.472360
 22
5.576120
 13
2.467960
 23
6.331600
  0
POLYLINE
  8
0
  6
CONTINUOUS
 66
     1
 40
0.000000
 41
0.000000
  0
VERTEX
  8
0
  6
CONTINUOUS
 10
2.472360
 20
5.575680
  0
VERTEX
  8
0
  6
CONTINUOUS
 10
2.467960
 20
6.331160
  0
VERTEX
  8
0
  6
CONTINUOUS
 10
2.467960
 20
6.331600
  0
VERTEX
  8
0
  6
CONTINUOUS
 10
2.472360
 20
5.576120
  0
VERTEX
  8
0
  6
CONTINUOUS
 10
2.472360
 20
5.575680
  0
SEQEND
  8
0
  0
POLYLINE
  8
0
  6
CONTINUOUS
 66
     1
 40
0.000000
 41
0.000000
  0
VERTEX
  8
0
  6
CONTINUOUS
 10
2.472360
 20
5.576120
  0
VERTEX
  8
0
  6
CONTINUOUS
 10
2.472360
 20
6.327200
  0
VERTEX
  8
0
  6
CONTINUOUS
 10
5.562040
 20
6.327200
  0
VERTEX
  8
0
  6
CONTINUOUS
 10
5.571280
 20
6.215880
  0
VERTEX
  8
0
  6
CONTINUOUS
 10
5.754320
 20
6.215880
  0
VERTEX
  8
0
  6
CONTINUOUS
 10
5.766200
 20
6.130960
  0
VERTEX
  8
0
  6
CONTINUOUS
 10
5.808000
 20
6.130960
  0
VERTEX
  8
0
  6
CONTINUOUS
 10
5.846720
 20
6.130080
  0
VERTEX
  8
0
  6
CONTINUOUS
 10
5.913600
 20
6.126560
  0
VERTEX
  8
0
  6
CONTINUOUS
 10
5.969480
 20
6.119520
  0
VERTEX
  8
0
  6
CONTINUOUS
 10
6.017000
 20
6.108960
  0
VERTEX
  8
0
  6
CONTINUOUS
 10
6.057920
 20
6.094000
  0
VERTEX
  8
0
  6
CONTINUOUS
 10
6.095320
 20
6.073760
  0
VERTEX
  8
0
  6
CONTINUOUS
 10
6.131400
 20
6.048240
  0
VERTEX
  8
0
  6
CONTINUOUS
 10
6.168800
 20
6.016120
  0
VERTEX
  8
0
  6
CONTINUOUS
 10
6.204880
 20
5.982680
  0
VERTEX
  8
0
  6
CONTINUOUS
 10
6.239200
 20
5.952760
  0
VERTEX
  8
0
  6
CONTINUOUS
 10
6.274840
 20
5.926800
  0
VERTEX
  8
0
  6
CONTINUOUS
 10
6.316200
 20
5.904360
  0
VERTEX
  8
0
  6
CONTINUOUS
 10
6.366800
 20
5.886760
  0
VERTEX
  8
0
  6
CONTINUOUS
 10
6.396280
 20
5.879720
  0
VERTEX
  8
0
  6
CONTINUOUS
 10
6.430160
 20
5.873560
  0
VERTEX
  8
0
  6
CONTINUOUS
 10
6.467560
 20
5.868720
  0
VERTEX
  8
0
  6
CONTINUOUS
 10
6.509800
 20
5.865200
  0
VERTEX
  8
0
  6
CONTINUOUS
 10
6.557320
 20
5.863000
  0
VERTEX
  8
0
  6
CONTINUOUS
 10
6.610120
 20
5.862120
  0
VERTEX
  8
0
  6
CONTINUOUS
 10
6.610120
 20
5.575680
  0
VERTEX
  8
0
  6
CONTINUOUS
 10
2.472360
 20
5.575680
  0
VERTEX
  8
0
  6
CONTINUOUS
 10
2.472360
 20
5.576120
  0
SEQEND
  8
0
  0
SOLID
  8
0
 62
    15
 10
2.362360
 20
6.577560
 11
2.363240
 21
7.314560
 12
2.393160
 22
6.545880
 13
2.394040
 23
7.283320
  0
POLYLINE
  8
0
  6
CONTINUOUS
 66
     1
 40
0.000000
 41
0.000000
  0
VERTEX
  8
0
  6
CONTINUOUS
 10
2.362360
 20
6.577560
  0
VERTEX
  8
0
  6
CONTINUOUS
 10
2.363240
 20
7.314560
  0
VERTEX
  8
0
  6
CONTINUOUS
 10
2.394040
 20
7.283320
  0
VERTEX
  8
0
  6
CONTINUOUS
 10
2.393160
 20
6.545880
  0
VERTEX
  8
0
  6
CONTINUOUS
 10
2.362360
 20
6.577560
  0
SEQEND
  8
0
  0
SOLID
  8
0
 62
    15
 10
1.934240
 20
6.751360
 11
1.935120
 21
7.488360
 12
1.951840
 22
6.675240
 13
1.952720
 23
7.412680
  0
POLYLINE
  8
0
  6
CONTINUOUS
 66
     1
 40
0.000000
 41
0.000000
  0
VERTEX
  8
0
  6
CONTINUOUS
 10
1.934240
 20
6.751360
  0
VERTEX
  8
0
  6
CONTINUOUS
 10
1.935120
 20
7.488360
  0
VERTEX
  8
0
  6
CONTINUOUS
 10
1.952720
 20
7.412680
  0
VERTEX
  8
0
  6
CONTINUOUS
 10
1.951840
 20
6.675240
  0
VERTEX
  8
0
  6
CONTINUOUS
 10
1.934240
 20
6.751360
  0
SEQEND
  8
0
  0
SOLID
  8
0
 62
    15
 10
1.951840
 20
6.675240
 11
1.952720
 21
7.412680
 12
2.019160
 22
6.699880
 13
2.020040
 23
7.437320
  0
POLYLINE
  8
0
  6
CONTINUOUS
 66
     1
 40
0.000000
 41
0.000000
  0
VERTEX
  8
0
  6
CONTINUOUS
 10
1.951840
 20
6.675240
  0
VERTEX
  8
0
  6
CONTINUOUS
 10
1.952720
 20
7.412680
  0
VERTEX
  8
0
  6
CONTINUOUS
 10
2.020040
 20
7.437320
  0
VERTEX
  8
0
  6
CONTINUOUS
 10
2.019160
 20
6.699880
  0
VERTEX
  8
0
  6
CONTINUOUS
 10
1.951840
 20
6.675240
  0
SEQEND
  8
0
  0
SOLID
  8
0
 62
    15
 10
2.019160
 20
6.699880
 11
2.020040
 21
7.437320
 12
2.082520
 22
6.709560
 13
2.083400
 23
7.446560
  0
POLYLINE
  8
0
  6
CONTINUOUS
 66
     1
 40
0.000000
 41
0.000000
  0
VERTEX
  8
0
  6
CONTINUOUS
 10
2.019160
 20
6.699880
  0
VERTEX
  8
0
  6
CONTINUOUS
 10
2.020040
 20
7.437320
  0
VERTEX
  8
0
  6
CONTINUOUS
 10
2.083400
 20
7.446560
  0
VERTEX
  8
0
  6
CONTINUOUS
 10
2.082520
 20
6.709560
  0
VERTEX
  8
0
  6
CONTINUOUS
 10
2.019160
 20
6.699880
  0
SEQEND
  8
0
  0
SOLID
  8
0
 62
    15
 10
2.082520
 20
6.709560
 11
2.083400
 21
7.446560
 12
2.141920
 22
6.706480
 13
2.142800
 23
7.443480
  0
POLYLINE
  8
0
  6
CONTINUOUS
 66
     1
 40
0.000000
 41
0.000000
  0
VERTEX
  8
0
  6
CONTINUOUS
 10
2.082520
 20
6.709560
  0
VERTEX
  8
0
  6
CONTINUOUS
 10
2.083400
 20
7.446560
  0
VERTEX
  8
0
  6
CONTINUOUS
 10
2.142800
 20
7.443480
  0
VERTEX
  8
0
  6
CONTINUOUS
 10
2.141920
 20
6.706480
  0
VERTEX
  8
0
  6
CONTINUOUS
 10
2.082520
 20
6.709560
  0
SEQEND
  8
0
  0
SOLID
  8
0
 62
    15
 10
2.141920
 20
6.706480
 11
2.142800
 21
7.443480
 12
2.196480
 22
6.692840
 13
2.197800
 23
7.429840
  0
POLYLINE
  8
0
  6
CONTINUOUS
 66
     1
 40
0.000000
 41
0.000000
  0
VERTEX
  8
0
  6
CONTINUOUS
 10
2.141920
 20
6.706480
  0
VERTEX
  8
0
  6
CONTINUOUS
 10
2.142800
 20
7.443480
  0
VERTEX
  8
0
  6
CONTINUOUS
 10
2.197800
 20
7.429840
  0
VERTEX
  8
0
  6
CONTINUOUS
 10
2.196480
 20
6.692840
  0
VERTEX
  8
0
  6
CONTINUOUS
 10
2.141920
 20
6.706480
  0
SEQEND
  8
0
  0
SOLID
  8
0
 62
    15
 10
2.196480
 20
6.692840
 11
2.197800
 21
7.429840
 12
2.246640
 22
6.670840
 13
2.247520
 23
7.407840
  0
POLYLINE
  8
0
  6
CONTINUOUS
 66
     1
 40
0.000000
 41
0.000000
  0
VERTEX
  8
0
  6
CONTINUOUS
 10
2.196480
 20
6.692840
  0
VERTEX
  8
0
  6
CONTINUOUS
 10
2.197800
 20
7.429840
  0
VERTEX
  8
0
  6
CONTINUOUS
 10
2.247520
 20
7.407840
  0
VERTEX
  8
0
  6
CONTINUOUS
 10
2.246640
 20
6.670840
  0
VERTEX
  8
0
  6
CONTINUOUS
 10
2.196480
 20
6.692840
  0
SEQEND
  8
0
  0
SOLID
  8
0
 62
    15
 10
2.246640
 20
6.670840
 11
2.247520
 21
7.407840
 12
2.291080
 22
6.642680
 13
2.291960
 23
7.380120
  0
POLYLINE
  8
0
  6
CONTINUOUS
 66
     1
 40
0.000000
 41
0.000000
  0
VERTEX
  8
0
  6
CONTINUOUS
 10
2.246640
 20
6.670840
  0
VERTEX
  8
0
  6
CONTINUOUS
 10
2.247520
 20
7.407840
  0
VERTEX
  8
0
  6
CONTINUOUS
 10
2.291960
 20
7.380120
  0
VERTEX
  8
0
  6
CONTINUOUS
 10
2.291080
 20
6.642680
  0
VERTEX
  8
0
  6
CONTINUOUS
 10
2.246640
 20
6.670840
  0
SEQEND
  8
0
  0
SOLID
  8
0
 62
    15
 10
2.291080
 20
6.642680
 11
2.291960
 21
7.380120
 12
2.329800
 22
6.611000
 13
2.330680
 23
7.348000
  0
POLYLINE
  8
0
  6
CONTINUOUS
 66
     1
 40
0.000000
 41
0.000000
  0
VERTEX
  8
0
  6
CONTINUOUS
 10
2.291080
 20
6.642680
  0
VERTEX
  8
0
  6
CONTINUOUS
 10
2.291960
 20
7.380120
  0
VERTEX
  8
0
  6
CONTINUOUS
 10
2.330680
 20
7.348000
  0
VERTEX
  8
0
  6
CONTINUOUS
 10
2.329800
 20
6.611000
  0
VERTEX
  8
0
  6
CONTINUOUS
 10
2.291080
 20
6.642680
  0
SEQEND
  8
0
  0
SOLID
  8
0
 62
    15
 10
2.329800
 20
6.611000
 11
2.330680
 21
7.348000
 12
2.362360
 22
6.577560
 13
2.363240
 23
7.314560
  0
POLYLINE
  8
0
  6
CONTINUOUS
 66
     1
 40
0.000000
 41
0.000000
  0
VERTEX
  8
0
  6
CONTINUOUS
 10
2.329800
 20
6.611000
  0
VERTEX
  8
0
  6
CONTINUOUS
 10
2.330680
 20
7.348000
  0
VERTEX
  8
0
  6
CONTINUOUS
 10
2.363240
 20
7.314560
  0
VERTEX
  8
0
  6
CONTINUOUS
 10
2.362360
 20
6.577560
  0
VERTEX
  8
0
  6
CONTINUOUS
 10
2.329800
 20
6.611000
  0
SEQEND
  8
0
  0
SOLID
  8
0
 62
    15
 10
1.438800
 20
6.751360
 11
1.439680
 21
7.488360
 12
1.934240
 22
6.751360
 13
1.935120
 23
7.488360
  0
POLYLINE
  8
0
  6
CONTINUOUS
 66
     1
 40
0.000000
 41
0.000000
  0
VERTEX
  8
0
  6
CONTINUOUS
 10
1.438800
 20
6.751360
  0
VERTEX
  8
0
  6
CONTINUOUS
 10
1.439680
 20
7.488360
  0
VERTEX
  8
0
  6
CONTINUOUS
 10
1.935120
 20
7.488360
  0
VERTEX
  8
0
  6
CONTINUOUS
 10
1.934240
 20
6.751360
  0
VERTEX
  8
0
  6
CONTINUOUS
 10
1.438800
 20
6.751360
  0
SEQEND
  8
0
  0
SOLID
  8
0
 62
    15
 10
2.393160
 20
6.545880
 11
2.394040
 21
7.283320
 12
2.427480
 22
6.519040
 13
2.428360
 23
7.256480
  0
POLYLINE
  8
0
  6
CONTINUOUS
 66
     1
 40
0.000000
 41
0.000000
  0
VERTEX
  8
0
  6
CONTINUOUS
 10
2.393160
 20
6.545880
  0
VERTEX
  8
0
  6
CONTINUOUS
 10
2.394040
 20
7.283320
  0
VERTEX
  8
0
  6
CONTINUOUS
 10
2.428360
 20
7.256480
  0
VERTEX
  8
0
  6
CONTINUOUS
 10
2.427480
 20
6.519040
  0
VERTEX
  8
0
  6
CONTINUOUS
 10
2.393160
 20
6.545880
  0
SEQEND
  8
0
  0
SOLID
  8
0
 62
    15
 10
2.427480
 20
6.519040
 11
2.428360
 21
7.256480
 12
2.465760
 22
6.496600
 13
2.466640
 23
7.234040
  0
POLYLINE
  8
0
  6
CONTINUOUS
 66
     1
 40
0.000000
 41
0.000000
  0
VERTEX
  8
0
  6
CONTINUOUS
 10
2.427480
 20
6.519040
  0
VERTEX
  8
0
  6
CONTINUOUS
 10
2.428360
 20
7.256480
  0
VERTEX
  8
0
  6
CONTINUOUS
 10
2.466640
 20
7.234040
  0
VERTEX
  8
0
  6
CONTINUOUS
 10
2.465760
 20
6.496600
  0
VERTEX
  8
0
  6
CONTINUOUS
 10
2.427480
 20
6.519040
  0
SEQEND
  8
0
  0
SOLID
  8
0
 62
    15
 10
2.472800
 20
6.327200
 11
2.473680
 21
7.064200
 12
2.472800
 22
5.575240
 13
2.473680
 23
6.312680
  0
POLYLINE
  8
0
  6
CONTINUOUS
 66
     1
 40
0.000000
 41
0.000000
  0
VERTEX
  8
0
  6
CONTINUOUS
 10
2.472800
 20
6.327200
  0
VERTEX
  8
0
  6
CONTINUOUS
 10
2.473680
 20
7.064200
  0
VERTEX
  8
0
  6
CONTINUOUS
 10
2.473680
 20
6.312680
  0
VERTEX
  8
0
  6
CONTINUOUS
 10
2.472800
 20
5.575240
  0
VERTEX
  8
0
  6
CONTINUOUS
 10
2.472800
 20
6.327200
  0
SEQEND
  8
0
  0
SOLID
  8
0
 62
    15
 10
2.507560
 20
6.478560
 11
2.508440
 21
7.215560
 12
2.553760
 22
6.464480
 13
2.554640
 23
7.201480
  0
POLYLINE
  8
0
  6
CONTINUOUS
 66
     1
 40
0.000000
 41
0.000000
  0
VERTEX
  8
0
  6
CONTINUOUS
 10
2.507560
 20
6.478560
  0
VERTEX
  8
0
  6
CONTINUOUS
 10
2.508440
 20
7.215560
  0
VERTEX
  8
0
  6
CONTINUOUS
 10
2.554640
 20
7.201480
  0
VERTEX
  8
0
  6
CONTINUOUS
 10
2.553760
 20
6.464480
  0
VERTEX
  8
0
  6
CONTINUOUS
 10
2.507560
 20
6.478560
  0
SEQEND
  8
0
  0
SOLID
  8
0
 62
    15
 10
2.553760
 20
6.464480
 11
2.554640
 21
7.201480
 12
2.604800
 22
6.454800
 13
2.605680
 23
7.191800
  0
POLYLINE
  8
0
  6
CONTINUOUS
 66
     1
 40
0.000000
 41
0.000000
  0
VERTEX
  8
0
  6
CONTINUOUS
 10
2.553760
 20
6.464480
  0
VERTEX
  8
0
  6
CONTINUOUS
 10
2.554640
 20
7.201480
  0
VERTEX
  8
0
  6
CONTINUOUS
 10
2.605680
 20
7.191800
  0
VERTEX
  8
0
  6
CONTINUOUS
 10
2.604800
 20
6.454800
  0
VERTEX
  8
0
  6
CONTINUOUS
 10
2.553760
 20
6.464480
  0
SEQEND
  8
0
  0
SOLID
  8
0
 62
    15
 10
2.604800
 20
6.454800
 11
2.605680
 21
7.191800
 12
2.660680
 22
6.449080
 13
2.661560
 23
7.186080
  0
POLYLINE
  8
0
  6
CONTINUOUS
 66
     1
 40
0.000000
 41
0.000000
  0
VERTEX
  8
0
  6
CONTINUOUS
 10
2.604800
 20
6.454800
  0
VERTEX
  8
0
  6
CONTINUOUS
 10
2.605680
 20
7.191800
  0
VERTEX
  8
0
  6
CONTINUOUS
 10
2.661560
 20
7.186080
  0
VERTEX
  8
0
  6
CONTINUOUS
 10
2.660680
 20
6.449080
  0
VERTEX
  8
0
  6
CONTINUOUS
 10
2.604800
 20
6.454800
  0
SEQEND
  8
0
  0
SOLID
  8
0
 62
    15
 10
2.721840
 20
6.447320
 11
2.722720
 21
7.184760
 12
2.721840
 22
6.327200
 13
2.722720
 23
7.064200
  0
POLYLINE
  8
0
  6
CONTINUOUS
 66
     1
 40
0.000000
 41
0.000000
  0
VERTEX
  8
0
  6
CONTINUOUS
 10
2.721840
 20
6.447320
  0
VERTEX
  8
0
  6
CONTINUOUS
 10
2.722720
 20
7.184760
  0
VERTEX
  8
0
  6
CONTINUOUS
 10
2.722720
 20
7.064200
  0
VERTEX
  8
0
  6
CONTINUOUS
 10
2.721840
 20
6.327200
  0
VERTEX
  8
0
  6
CONTINUOUS
 10
2.721840
 20
6.447320
  0
SEQEND
  8
0
  0
SOLID
  8
0
 62
    15
 10
2.660680
 20
6.449080
 11
2.661560
 21
7.186080
 12
2.721840
 22
6.447320
 13
2.722720
 23
7.184760
  0
POLYLINE
  8
0
  6
CONTINUOUS
 66
     1
 40
0.000000
 41
0.000000
  0
VERTEX
  8
0
  6
CONTINUOUS
 10
2.660680
 20
6.449080
  0
VERTEX
  8
0
  6
CONTINUOUS
 10
2.661560
 20
7.186080
  0
VERTEX
  8
0
  6
CONTINUOUS
 10
2.722720
 20
7.184760
  0
VERTEX
  8
0
  6
CONTINUOUS
 10
2.721840
 20
6.447320
  0
VERTEX
  8
0
  6
CONTINUOUS
 10
2.660680
 20
6.449080
  0
SEQEND
  8
0
  0
SOLID
  8
0
 62
    15
 10
2.465760
 20
6.496600
 11
2.466640
 21
7.234040
 12
2.507560
 22
6.478560
 13
2.508440
 23
7.215560
  0
POLYLINE
  8
0
  6
CONTINUOUS
 66
     1
 40
0.000000
 41
0.000000
  0
VERTEX
  8
0
  6
CONTINUOUS
 10
2.465760
 20
6.496600
  0
VERTEX
  8
0
  6
CONTINUOUS
 10
2.466640
 20
7.234040
  0
VERTEX
  8
0
  6
CONTINUOUS
 10
2.508440
 20
7.215560
  0
VERTEX
  8
0
  6
CONTINUOUS
 10
2.507560
 20
6.478560
  0
VERTEX
  8
0
  6
CONTINUOUS
 10
2.465760
 20
6.496600
  0
SEQEND
  8
0
  0
POLYLINE
  8
0
  6
CONTINUOUS
 66
     1
 40
0.000000
 41
0.000000
  0
VERTEX
  8
0
  6
CONTINUOUS
 10
1.438800
 20
5.575680
  0
VERTEX
  8
0
  6
CONTINUOUS
 10
1.438800
 20
6.751360
  0
VERTEX
  8
0
  6
CONTINUOUS
 10
1.934240
 20
6.751360
  0
VERTEX
  8
0
  6
CONTINUOUS
 10
1.951840
 20
6.675240
  0
VERTEX
  8
0
  6
CONTINUOUS
 10
2.019160
 20
6.699880
  0
VERTEX
  8
0
  6
CONTINUOUS
 10
2.082520
 20
6.709560
  0
VERTEX
  8
0
  6
CONTINUOUS
 10
2.141920
 20
6.706480
  0
VERTEX
  8
0
  6
CONTINUOUS
 10
2.196480
 20
6.692840
  0
VERTEX
  8
0
  6
CONTINUOUS
 10
2.246640
 20
6.670840
  0
VERTEX
  8
0
  6
CONTINUOUS
 10
2.291080
 20
6.642680
  0
VERTEX
  8
0
  6
CONTINUOUS
 10
2.329800
 20
6.611000
  0
VERTEX
  8
0
  6
CONTINUOUS
 10
2.362360
 20
6.577560
  0
VERTEX
  8
0
  6
CONTINUOUS
 10
2.393160
 20
6.545880
  0
VERTEX
  8
0
  6
CONTINUOUS
 10
2.427480
 20
6.519040
  0
VERTEX
  8
0
  6
CONTINUOUS
 10
2.465760
 20
6.496600
  0
VERTEX
  8
0
  6
CONTINUOUS
 10
2.507560
 20
6.478560
  0
VERTEX
  8
0
  6
CONTINUOUS
 10
2.553760
 20
6.464480
  0
VERTEX
  8
0
  6
CONTINUOUS
 10
2.604800
 20
6.454800
  0
VERTEX
  8
0
  6
CONTINUOUS
 10
2.660680
 20
6.449080
  0
VERTEX
  8
0
  6
CONTINUOUS
 10
2.721840
 20
6.447320
  0
VERTEX
  8
0
  6
CONTINUOUS
 10
2.721840
 20
6.327200
  0
VERTEX
  8
0
  6
CONTINUOUS
 10
2.472800
 20
6.327200
  0
VERTEX
  8
0
  6
CONTINUOUS
 10
2.472800
 20
5.575240
  0
VERTEX
  8
0
  6
CONTINUOUS
 10
1.438800
 20
5.575240
  0
VERTEX
  8
0
  6
CONTINUOUS
 10
1.438800
 20
5.575680
  0
SEQEND
  8
0
  0
TEXT
  8
0
 10
2.904880
 20
5.338520
 40
0.138364
  1
BA  1246  1-3/16" x 1-1/4"
 41
1.000000
  7
SN0
 71
     0
 72
     5
 11
4.818180
 21
5.338520
  0
TEXT
  8
0
 10
2.904880
 20
5.146680
 40
0.138364
  1
BA  1247  3/4" x 4-1/8"
 41
1.000000
  7
SN0
 71
     0
 72
     5
 11
4.578480
 21
5.146680
  0
ENDSEC
  0
EOF
