  0
SECTION
  2
HEADER
  9
$ACADVER
  1
AC1006
  9
$EXTMIN
 10
1.378520
 20
2.793560
  9
$EXTMAX
 10
7.067280
 20
9.853800
  9
$LTSCALE
 40
0.044000
  9
$PDMODE
 70
    35
  9
$PDSIZE
 40
0.035200
  0
ENDSEC
  0
SECTION
  2
TABLES
  0
TABLE
  2
LTYPE
 70
     9
  0
LTYPE
  2
CONTINUOUS
 70
    64
  3
Solid line
 72
    65
 73
     0
 40
0.000000
  0
LTYPE
  2
DASHED
 70
    64
  3
__ __ __ __ __ __ __ __ __ __ __ __ __ __ __
 72
    65
 73
     2
 40
0.000330
 49
0.000220
 49
-0.000110
  0
LTYPE
  2
HIDDEN
 70
    64
  3
 _ _ _ _ _ _ _ _ _ _ _ _ _ _ _ _ _ _ _ _ _ _
 72
    65
 73
     2
 40
0.000165
 49
0.000110
 49
-0.000055
  0
LTYPE
  2
CENTER
 70
    64
  3
____ _ ____ _ ____ _ ____ _ ____ _ ____ _ ____
 72
    65
 73
     4
 40
0.000880
 49
0.000550
 49
-0.000110
 49
0.000110
 49
-0.000110
  0
LTYPE
  2
PHANTOM
 70
    64
  3
_____ _ _ _____ _ _ _____ _ _ _____ _ _ ____
 72
    65
 73
     6
 40
0.001100
 49
0.000550
 49
-0.000110
 49
0.000110
 49
-0.000110
 49
0.000110
 49
-0.000110
  0
LTYPE
  2
DOT
 70
    64
  3
...............................................
 72
    65
 73
     2
 40
0.000110
 49
0.000000
 49
-0.000110
  0
LTYPE
  2
DASHDOT
 70
    64
  3
__ . __ . __ . __ . __ . __ . __ . __ . __ . __
 72
    65
 73
     4
 40
0.000440
 49
0.000220
 49
-0.000110
 49
0.000000
 49
-0.000110
  0
LTYPE
  2
BORDER
 70
    64
  3
__ __ . __ __ . __ __ . __ __ . __ __ . __ __
 72
    65
 73
     6
 40
0.000770
 49
0.000220
 49
-0.000110
 49
0.000220
 49
-0.000110
 49
0.000000
 49
-0.000110
  0
LTYPE
  2
DIVIDE
 70
    64
  3
__ . . __ . . __ . . __ . . __ . . __ . . __
 72
    65
 73
     6
 40
0.000550
 49
0.000220
 49
-0.000110
 49
0.000000
 49
-0.000110
 49
0.000000
 49
-0.000110
  0
LTYPE
  2
DOTDOT
 70
    64
  3
 . .  . .  . .  . .  . .  . . 
 72
    65
 73
     5
 40
0.000242
 49
-0.000110
 49
0.000000
 49
-0.000110
 49
0.000000
 49
-0.000110
  0
ENDTAB
  0
TABLE
  2
STYLE
 70
     2
  0
STYLE
 70
     0
  2
SN0
 40
0.000000
 41
0.000440
 50
0.000000
 71
     0
 42
0.000000
  3
ROMAND
  0
STYLE
 70
    68
  2
SV0
 40
0.000000
 41
0.000440
 50
0.000000
 71
     0
 42
0.000000
  3
ROMAND
  0
ENDTAB
  0
TABLE
  2
LAYER
 70
     3
  0
LAYER
  2
FOREGROUND
 70
    64
 62
     7
  6
CONTINUOUS
  0
LAYER
  2
BACKGROUND
 70
    65
 62
    -7
  6
CONTINUOUS
  0
LAYER
  2
0
 70
    64
 62
     7
  6
CONTINUOUS
  0
ENDTAB
  0
ENDSEC
  0
SECTION
  2
ENTITIES
  0
POLYLINE
  8
FOREGROUND
  6
CONTINUOUS
 66
     1
 40
0.000000
 41
0.000000
  0
VERTEX
  8
FOREGROUND
  6
CONTINUOUS
 10
0.000000
 20
12.647360
  0
VERTEX
  8
FOREGROUND
  6
CONTINUOUS
 10
8.499920
 20
12.647360
  0
VERTEX
  8
FOREGROUND
  6
CONTINUOUS
 10
8.499920
 20
1.647360
  0
VERTEX
  8
FOREGROUND
  6
CONTINUOUS
 10
0.000000
 20
1.647360
  0
VERTEX
  8
FOREGROUND
  6
CONTINUOUS
 10
0.000000
 20
12.647360
  0
SEQEND
  8
0
  0
POLYLINE
  8
FOREGROUND
  6
CONTINUOUS
 66
     1
 40
0.000000
 41
0.000000
  0
VERTEX
  8
FOREGROUND
  6
CONTINUOUS
 10
0.000000
 20
12.647360
  0
VERTEX
  8
FOREGROUND
  6
CONTINUOUS
 10
8.499920
 20
12.647360
  0
VERTEX
  8
FOREGROUND
  6
CONTINUOUS
 10
8.499920
 20
1.647360
  0
VERTEX
  8
FOREGROUND
  6
CONTINUOUS
 10
0.000000
 20
1.647360
  0
VERTEX
  8
FOREGROUND
  6
CONTINUOUS
 10
0.000000
 20
12.647360
  0
SEQEND
  8
0
  0
POLYLINE
  8
0
  6
CONTINUOUS
 66
     1
 40
0.014080
 41
0.014080
  0
VERTEX
  8
0
  6
CONTINUOUS
 10
5.179240
 20
9.098760
  0
VERTEX
  8
0
  6
CONTINUOUS
 10
3.213320
 20
9.098760
  0
VERTEX
  8
0
  6
CONTINUOUS
 10
3.213320
 20
9.846320
  0
VERTEX
  8
0
  6
CONTINUOUS
 10
5.613080
 20
9.845880
  0
VERTEX
  8
0
  6
CONTINUOUS
 10
5.665440
 20
9.841480
  0
VERTEX
  8
0
  6
CONTINUOUS
 10
5.689200
 20
9.837960
  0
VERTEX
  8
0
  6
CONTINUOUS
 10
5.732320
 20
9.827840
  0
VERTEX
  8
0
  6
CONTINUOUS
 10
5.768840
 20
9.814200
  0
VERTEX
  8
0
  6
CONTINUOUS
 10
5.799200
 20
9.797040
  0
VERTEX
  8
0
  6
CONTINUOUS
 10
5.823840
 20
9.777240
  0
VERTEX
  8
0
  6
CONTINUOUS
 10
5.842760
 20
9.754360
  0
VERTEX
  8
0
  6
CONTINUOUS
 10
5.856840
 20
9.729280
  0
VERTEX
  8
0
  6
CONTINUOUS
 10
5.865200
 20
9.702000
  0
VERTEX
  8
0
  6
CONTINUOUS
 10
5.869160
 20
9.672520
  0
VERTEX
  8
0
  6
CONTINUOUS
 10
5.868280
 20
9.641720
  0
VERTEX
  8
0
  6
CONTINUOUS
 10
5.863000
 20
9.609160
  0
VERTEX
  8
0
  6
CONTINUOUS
 10
5.847160
 20
9.559000
  0
VERTEX
  8
0
  6
CONTINUOUS
 10
5.831760
 20
9.524240
  0
VERTEX
  8
0
  6
CONTINUOUS
 10
5.801840
 20
9.471880
  0
VERTEX
  8
0
  6
CONTINUOUS
 10
5.764440
 20
9.419520
  0
VERTEX
  8
0
  6
CONTINUOUS
 10
5.720880
 20
9.367600
  0
VERTEX
  8
0
  6
CONTINUOUS
 10
5.671160
 20
9.317880
  0
VERTEX
  8
0
  6
CONTINUOUS
 10
5.616160
 20
9.271240
  0
VERTEX
  8
0
  6
CONTINUOUS
 10
5.557200
 20
9.227680
  0
VERTEX
  8
0
  6
CONTINUOUS
 10
5.494720
 20
9.189400
  0
VERTEX
  8
0
  6
CONTINUOUS
 10
5.451600
 20
9.166520
  0
VERTEX
  8
0
  6
CONTINUOUS
 10
5.384720
 20
9.137920
  0
VERTEX
  8
0
  6
CONTINUOUS
 10
5.339400
 20
9.122520
  0
VERTEX
  8
0
  6
CONTINUOUS
 10
5.293640
 20
9.110640
  0
VERTEX
  8
0
  6
CONTINUOUS
 10
5.247880
 20
9.102280
  0
VERTEX
  8
0
  6
CONTINUOUS
 10
5.202120
 20
9.097880
  0
VERTEX
  8
0
  6
CONTINUOUS
 10
5.179240
 20
9.097440
  0
SEQEND
  8
0
  0
SOLID
  8
0
 62
    15
 10
5.544440
 20
7.812640
 11
6.185960
 21
8.186200
 12
5.548400
 22
7.783160
 13
6.189480
 23
8.156720
  0
POLYLINE
  8
0
  6
CONTINUOUS
 66
     1
 40
0.000000
 41
0.000000
  0
VERTEX
  8
0
  6
CONTINUOUS
 10
5.544440
 20
7.812640
  0
VERTEX
  8
0
  6
CONTINUOUS
 10
6.185960
 20
8.186200
  0
VERTEX
  8
0
  6
CONTINUOUS
 10
6.189480
 20
8.156720
  0
VERTEX
  8
0
  6
CONTINUOUS
 10
5.548400
 20
7.783160
  0
VERTEX
  8
0
  6
CONTINUOUS
 10
5.544440
 20
7.812640
  0
SEQEND
  8
0
  0
SOLID
  8
0
 62
    15
 10
5.263280
 20
7.956520
 11
5.904800
 21
8.330520
 12
5.319160
 22
7.954760
 13
5.960680
 23
8.328320
  0
POLYLINE
  8
0
  6
CONTINUOUS
 66
     1
 40
0.000000
 41
0.000000
  0
VERTEX
  8
0
  6
CONTINUOUS
 10
5.263280
 20
7.956520
  0
VERTEX
  8
0
  6
CONTINUOUS
 10
5.904800
 20
8.330520
  0
VERTEX
  8
0
  6
CONTINUOUS
 10
5.960680
 20
8.328320
  0
VERTEX
  8
0
  6
CONTINUOUS
 10
5.319160
 20
7.954760
  0
VERTEX
  8
0
  6
CONTINUOUS
 10
5.263280
 20
7.956520
  0
SEQEND
  8
0
  0
SOLID
  8
0
 62
    15
 10
5.319160
 20
7.954760
 11
5.960680
 21
8.328320
 12
5.368440
 22
7.948160
 13
6.009960
 23
8.322160
  0
POLYLINE
  8
0
  6
CONTINUOUS
 66
     1
 40
0.000000
 41
0.000000
  0
VERTEX
  8
0
  6
CONTINUOUS
 10
5.319160
 20
7.954760
  0
VERTEX
  8
0
  6
CONTINUOUS
 10
5.960680
 20
8.328320
  0
VERTEX
  8
0
  6
CONTINUOUS
 10
6.009960
 20
8.322160
  0
VERTEX
  8
0
  6
CONTINUOUS
 10
5.368440
 20
7.948160
  0
VERTEX
  8
0
  6
CONTINUOUS
 10
5.319160
 20
7.954760
  0
SEQEND
  8
0
  0
SOLID
  8
0
 62
    15
 10
5.368440
 20
7.948160
 11
6.009960
 21
8.322160
 12
5.411560
 22
7.938480
 13
6.052640
 23
8.312040
  0
POLYLINE
  8
0
  6
CONTINUOUS
 66
     1
 40
0.000000
 41
0.000000
  0
VERTEX
  8
0
  6
CONTINUOUS
 10
5.368440
 20
7.948160
  0
VERTEX
  8
0
  6
CONTINUOUS
 10
6.009960
 20
8.322160
  0
VERTEX
  8
0
  6
CONTINUOUS
 10
6.052640
 20
8.312040
  0
VERTEX
  8
0
  6
CONTINUOUS
 10
5.411560
 20
7.938480
  0
VERTEX
  8
0
  6
CONTINUOUS
 10
5.368440
 20
7.948160
  0
SEQEND
  8
0
  0
SOLID
  8
0
 62
    15
 10
5.411560
 20
7.938480
 11
6.052640
 21
8.312040
 12
5.448080
 22
7.924400
 13
6.089160
 23
8.298400
  0
POLYLINE
  8
0
  6
CONTINUOUS
 66
     1
 40
0.000000
 41
0.000000
  0
VERTEX
  8
0
  6
CONTINUOUS
 10
5.411560
 20
7.938480
  0
VERTEX
  8
0
  6
CONTINUOUS
 10
6.052640
 20
8.312040
  0
VERTEX
  8
0
  6
CONTINUOUS
 10
6.089160
 20
8.298400
  0
VERTEX
  8
0
  6
CONTINUOUS
 10
5.448080
 20
7.924400
  0
VERTEX
  8
0
  6
CONTINUOUS
 10
5.411560
 20
7.938480
  0
SEQEND
  8
0
  0
SOLID
  8
0
 62
    15
 10
5.448080
 20
7.924400
 11
6.089160
 21
8.298400
 12
5.478440
 22
7.907680
 13
6.119520
 23
8.281240
  0
POLYLINE
  8
0
  6
CONTINUOUS
 66
     1
 40
0.000000
 41
0.000000
  0
VERTEX
  8
0
  6
CONTINUOUS
 10
5.448080
 20
7.924400
  0
VERTEX
  8
0
  6
CONTINUOUS
 10
6.089160
 20
8.298400
  0
VERTEX
  8
0
  6
CONTINUOUS
 10
6.119520
 20
8.281240
  0
VERTEX
  8
0
  6
CONTINUOUS
 10
5.478440
 20
7.907680
  0
VERTEX
  8
0
  6
CONTINUOUS
 10
5.448080
 20
7.924400
  0
SEQEND
  8
0
  0
SOLID
  8
0
 62
    15
 10
5.478440
 20
7.907680
 11
6.119520
 21
8.281240
 12
5.503080
 22
7.887880
 13
6.144160
 23
8.261440
  0
POLYLINE
  8
0
  6
CONTINUOUS
 66
     1
 40
0.000000
 41
0.000000
  0
VERTEX
  8
0
  6
CONTINUOUS
 10
5.478440
 20
7.907680
  0
VERTEX
  8
0
  6
CONTINUOUS
 10
6.119520
 20
8.281240
  0
VERTEX
  8
0
  6
CONTINUOUS
 10
6.144160
 20
8.261440
  0
VERTEX
  8
0
  6
CONTINUOUS
 10
5.503080
 20
7.887880
  0
VERTEX
  8
0
  6
CONTINUOUS
 10
5.478440
 20
7.907680
  0
SEQEND
  8
0
  0
SOLID
  8
0
 62
    15
 10
5.503080
 20
7.887880
 11
6.144160
 21
8.261440
 12
5.522000
 22
7.865000
 13
6.163520
 23
8.238560
  0
POLYLINE
  8
0
  6
CONTINUOUS
 66
     1
 40
0.000000
 41
0.000000
  0
VERTEX
  8
0
  6
CONTINUOUS
 10
5.503080
 20
7.887880
  0
VERTEX
  8
0
  6
CONTINUOUS
 10
6.144160
 20
8.261440
  0
VERTEX
  8
0
  6
CONTINUOUS
 10
6.163520
 20
8.238560
  0
VERTEX
  8
0
  6
CONTINUOUS
 10
5.522000
 20
7.865000
  0
VERTEX
  8
0
  6
CONTINUOUS
 10
5.503080
 20
7.887880
  0
SEQEND
  8
0
  0
SOLID
  8
0
 62
    15
 10
5.522000
 20
7.865000
 11
6.163520
 21
8.238560
 12
5.536080
 22
7.839920
 13
6.177160
 23
8.213480
  0
POLYLINE
  8
0
  6
CONTINUOUS
 66
     1
 40
0.000000
 41
0.000000
  0
VERTEX
  8
0
  6
CONTINUOUS
 10
5.522000
 20
7.865000
  0
VERTEX
  8
0
  6
CONTINUOUS
 10
6.163520
 20
8.238560
  0
VERTEX
  8
0
  6
CONTINUOUS
 10
6.177160
 20
8.213480
  0
VERTEX
  8
0
  6
CONTINUOUS
 10
5.536080
 20
7.839920
  0
VERTEX
  8
0
  6
CONTINUOUS
 10
5.522000
 20
7.865000
  0
SEQEND
  8
0
  0
SOLID
  8
0
 62
    15
 10
5.536080
 20
7.839920
 11
6.177160
 21
8.213480
 12
5.544440
 22
7.812640
 13
6.185960
 23
8.186200
  0
POLYLINE
  8
0
  6
CONTINUOUS
 66
     1
 40
0.000000
 41
0.000000
  0
VERTEX
  8
0
  6
CONTINUOUS
 10
5.536080
 20
7.839920
  0
VERTEX
  8
0
  6
CONTINUOUS
 10
6.177160
 20
8.213480
  0
VERTEX
  8
0
  6
CONTINUOUS
 10
6.185960
 20
8.186200
  0
VERTEX
  8
0
  6
CONTINUOUS
 10
5.544440
 20
7.812640
  0
VERTEX
  8
0
  6
CONTINUOUS
 10
5.536080
 20
7.839920
  0
SEQEND
  8
0
  0
SOLID
  8
0
 62
    15
 10
2.892560
 20
7.956520
 11
3.534080
 21
8.330520
 12
5.263280
 22
7.956520
 13
5.904800
 23
8.330520
  0
POLYLINE
  8
0
  6
CONTINUOUS
 66
     1
 40
0.000000
 41
0.000000
  0
VERTEX
  8
0
  6
CONTINUOUS
 10
2.892560
 20
7.956520
  0
VERTEX
  8
0
  6
CONTINUOUS
 10
3.534080
 20
8.330520
  0
VERTEX
  8
0
  6
CONTINUOUS
 10
5.904800
 20
8.330520
  0
VERTEX
  8
0
  6
CONTINUOUS
 10
5.263280
 20
7.956520
  0
VERTEX
  8
0
  6
CONTINUOUS
 10
2.892560
 20
7.956520
  0
SEQEND
  8
0
  0
SOLID
  8
0
 62
    15
 10
5.548400
 20
7.783160
 11
6.189480
 21
8.156720
 12
5.547520
 22
7.752360
 13
6.188600
 23
8.125920
  0
POLYLINE
  8
0
  6
CONTINUOUS
 66
     1
 40
0.000000
 41
0.000000
  0
VERTEX
  8
0
  6
CONTINUOUS
 10
5.548400
 20
7.783160
  0
VERTEX
  8
0
  6
CONTINUOUS
 10
6.189480
 20
8.156720
  0
VERTEX
  8
0
  6
CONTINUOUS
 10
6.188600
 20
8.125920
  0
VERTEX
  8
0
  6
CONTINUOUS
 10
5.547520
 20
7.752360
  0
VERTEX
  8
0
  6
CONTINUOUS
 10
5.548400
 20
7.783160
  0
SEQEND
  8
0
  0
SOLID
  8
0
 62
    15
 10
5.547520
 20
7.752360
 11
6.188600
 21
8.125920
 12
5.542240
 22
7.719800
 13
6.183320
 23
8.093800
  0
POLYLINE
  8
0
  6
CONTINUOUS
 66
     1
 40
0.000000
 41
0.000000
  0
VERTEX
  8
0
  6
CONTINUOUS
 10
5.547520
 20
7.752360
  0
VERTEX
  8
0
  6
CONTINUOUS
 10
6.188600
 20
8.125920
  0
VERTEX
  8
0
  6
CONTINUOUS
 10
6.183320
 20
8.093800
  0
VERTEX
  8
0
  6
CONTINUOUS
 10
5.542240
 20
7.719800
  0
VERTEX
  8
0
  6
CONTINUOUS
 10
5.547520
 20
7.752360
  0
SEQEND
  8
0
  0
SOLID
  8
0
 62
    15
 10
5.542240
 20
7.719800
 11
6.183320
 21
8.093800
 12
5.532560
 22
7.686360
 13
6.173640
 23
8.060360
  0
POLYLINE
  8
0
  6
CONTINUOUS
 66
     1
 40
0.000000
 41
0.000000
  0
VERTEX
  8
0
  6
CONTINUOUS
 10
5.542240
 20
7.719800
  0
VERTEX
  8
0
  6
CONTINUOUS
 10
6.183320
 20
8.093800
  0
VERTEX
  8
0
  6
CONTINUOUS
 10
6.173640
 20
8.060360
  0
VERTEX
  8
0
  6
CONTINUOUS
 10
5.532560
 20
7.686360
  0
VERTEX
  8
0
  6
CONTINUOUS
 10
5.542240
 20
7.719800
  0
SEQEND
  8
0
  0
SOLID
  8
0
 62
    15
 10
5.532560
 20
7.686360
 11
6.173640
 21
8.060360
 12
5.518920
 22
7.652480
 13
6.160440
 23
8.026040
  0
POLYLINE
  8
0
  6
CONTINUOUS
 66
     1
 40
0.000000
 41
0.000000
  0
VERTEX
  8
0
  6
CONTINUOUS
 10
5.532560
 20
7.686360
  0
VERTEX
  8
0
  6
CONTINUOUS
 10
6.173640
 20
8.060360
  0
VERTEX
  8
0
  6
CONTINUOUS
 10
6.160440
 20
8.026040
  0
VERTEX
  8
0
  6
CONTINUOUS
 10
5.518920
 20
7.652480
  0
VERTEX
  8
0
  6
CONTINUOUS
 10
5.532560
 20
7.686360
  0
SEQEND
  8
0
  0
SOLID
  8
0
 62
    15
 10
5.518920
 20
7.652480
 11
6.160440
 21
8.026040
 12
5.481080
 22
7.582520
 13
6.122160
 23
7.956080
  0
POLYLINE
  8
0
  6
CONTINUOUS
 66
     1
 40
0.000000
 41
0.000000
  0
VERTEX
  8
0
  6
CONTINUOUS
 10
5.518920
 20
7.652480
  0
VERTEX
  8
0
  6
CONTINUOUS
 10
6.160440
 20
8.026040
  0
VERTEX
  8
0
  6
CONTINUOUS
 10
6.122160
 20
7.956080
  0
VERTEX
  8
0
  6
CONTINUOUS
 10
5.481080
 20
7.582520
  0
VERTEX
  8
0
  6
CONTINUOUS
 10
5.518920
 20
7.652480
  0
SEQEND
  8
0
  0
SOLID
  8
0
 62
    15
 10
5.481080
 20
7.582520
 11
6.122160
 21
7.956080
 12
5.430040
 22
7.512560
 13
6.071120
 23
7.886120
  0
POLYLINE
  8
0
  6
CONTINUOUS
 66
     1
 40
0.000000
 41
0.000000
  0
VERTEX
  8
0
  6
CONTINUOUS
 10
5.481080
 20
7.582520
  0
VERTEX
  8
0
  6
CONTINUOUS
 10
6.122160
 20
7.956080
  0
VERTEX
  8
0
  6
CONTINUOUS
 10
6.071120
 20
7.886120
  0
VERTEX
  8
0
  6
CONTINUOUS
 10
5.430040
 20
7.512560
  0
VERTEX
  8
0
  6
CONTINUOUS
 10
5.481080
 20
7.582520
  0
SEQEND
  8
0
  0
SOLID
  8
0
 62
    15
 10
5.430040
 20
7.512560
 11
6.071120
 21
7.886120
 12
5.367560
 22
7.445240
 13
6.008640
 23
7.818800
  0
POLYLINE
  8
0
  6
CONTINUOUS
 66
     1
 40
0.000000
 41
0.000000
  0
VERTEX
  8
0
  6
CONTINUOUS
 10
5.430040
 20
7.512560
  0
VERTEX
  8
0
  6
CONTINUOUS
 10
6.071120
 20
7.886120
  0
VERTEX
  8
0
  6
CONTINUOUS
 10
6.008640
 20
7.818800
  0
VERTEX
  8
0
  6
CONTINUOUS
 10
5.367560
 20
7.445240
  0
VERTEX
  8
0
  6
CONTINUOUS
 10
5.430040
 20
7.512560
  0
SEQEND
  8
0
  0
SOLID
  8
0
 62
    15
 10
5.367560
 20
7.445240
 11
6.008640
 21
7.818800
 12
5.295400
 22
7.381880
 13
5.936920
 23
7.755440
  0
POLYLINE
  8
0
  6
CONTINUOUS
 66
     1
 40
0.000000
 41
0.000000
  0
VERTEX
  8
0
  6
CONTINUOUS
 10
5.367560
 20
7.445240
  0
VERTEX
  8
0
  6
CONTINUOUS
 10
6.008640
 20
7.818800
  0
VERTEX
  8
0
  6
CONTINUOUS
 10
5.936920
 20
7.755440
  0
VERTEX
  8
0
  6
CONTINUOUS
 10
5.295400
 20
7.381880
  0
VERTEX
  8
0
  6
CONTINUOUS
 10
5.367560
 20
7.445240
  0
SEQEND
  8
0
  0
SOLID
  8
0
 62
    15
 10
5.295400
 20
7.381880
 11
5.936920
 21
7.755440
 12
5.216200
 22
7.325120
 13
5.857280
 23
7.698680
  0
POLYLINE
  8
0
  6
CONTINUOUS
 66
     1
 40
0.000000
 41
0.000000
  0
VERTEX
  8
0
  6
CONTINUOUS
 10
5.295400
 20
7.381880
  0
VERTEX
  8
0
  6
CONTINUOUS
 10
5.936920
 20
7.755440
  0
VERTEX
  8
0
  6
CONTINUOUS
 10
5.857280
 20
7.698680
  0
VERTEX
  8
0
  6
CONTINUOUS
 10
5.216200
 20
7.325120
  0
VERTEX
  8
0
  6
CONTINUOUS
 10
5.295400
 20
7.381880
  0
SEQEND
  8
0
  0
POLYLINE
  8
0
  6
CONTINUOUS
 66
     1
 40
0.000000
 41
0.000000
  0
VERTEX
  8
0
  6
CONTINUOUS
 10
4.858480
 20
7.209400
  0
VERTEX
  8
0
  6
CONTINUOUS
 10
2.892560
 20
7.209400
  0
VERTEX
  8
0
  6
CONTINUOUS
 10
2.892560
 20
7.956520
  0
VERTEX
  8
0
  6
CONTINUOUS
 10
5.263280
 20
7.956520
  0
VERTEX
  8
0
  6
CONTINUOUS
 10
5.319160
 20
7.954760
  0
VERTEX
  8
0
  6
CONTINUOUS
 10
5.368440
 20
7.948160
  0
VERTEX
  8
0
  6
CONTINUOUS
 10
5.411560
 20
7.938480
  0
VERTEX
  8
0
  6
CONTINUOUS
 10
5.448080
 20
7.924400
  0
VERTEX
  8
0
  6
CONTINUOUS
 10
5.478440
 20
7.907680
  0
VERTEX
  8
0
  6
CONTINUOUS
 10
5.503080
 20
7.887880
  0
VERTEX
  8
0
  6
CONTINUOUS
 10
5.522000
 20
7.865000
  0
VERTEX
  8
0
  6
CONTINUOUS
 10
5.536080
 20
7.839920
  0
VERTEX
  8
0
  6
CONTINUOUS
 10
5.544440
 20
7.812640
  0
VERTEX
  8
0
  6
CONTINUOUS
 10
5.548400
 20
7.783160
  0
VERTEX
  8
0
  6
CONTINUOUS
 10
5.547520
 20
7.752360
  0
VERTEX
  8
0
  6
CONTINUOUS
 10
5.542240
 20
7.719800
  0
VERTEX
  8
0
  6
CONTINUOUS
 10
5.532560
 20
7.686360
  0
VERTEX
  8
0
  6
CONTINUOUS
 10
5.518920
 20
7.652480
  0
VERTEX
  8
0
  6
CONTINUOUS
 10
5.481080
 20
7.582520
  0
VERTEX
  8
0
  6
CONTINUOUS
 10
5.430040
 20
7.512560
  0
VERTEX
  8
0
  6
CONTINUOUS
 10
5.367560
 20
7.445240
  0
VERTEX
  8
0
  6
CONTINUOUS
 10
5.295400
 20
7.381880
  0
VERTEX
  8
0
  6
CONTINUOUS
 10
5.216200
 20
7.325120
  0
VERTEX
  8
0
  6
CONTINUOUS
 10
5.130840
 20
7.277160
  0
VERTEX
  8
0
  6
CONTINUOUS
 10
5.041520
 20
7.240200
  0
VERTEX
  8
0
  6
CONTINUOUS
 10
4.995760
 20
7.226560
  0
VERTEX
  8
0
  6
CONTINUOUS
 10
4.950000
 20
7.216440
  0
VERTEX
  8
0
  6
CONTINUOUS
 10
4.904240
 20
7.210280
  0
VERTEX
  8
0
  6
CONTINUOUS
 10
4.858480
 20
7.208080
  0
VERTEX
  8
0
  6
CONTINUOUS
 10
4.858480
 20
7.209400
  0
SEQEND
  8
0
  0
TEXT
  8
0
 10
4.199800
 20
6.923840
 40
0.137856
  1
BA  1245
 41
1.000000
  7
SN0
 71
     0
 72
     5
 11
4.881466
 21
6.923840
  0
TEXT
  8
0
 10
4.396480
 20
6.732000
 40
0.137856
  1
3/4"
 41
1.000000
  7
SN0
 71
     0
 72
     5
 11
4.685597
 21
6.732000
  0
TEXT
  8
0
 10
4.199800
 20
9.427880
 40
0.137856
  1
BA  1245
 41
1.000000
  7
SN0
 71
     0
 72
     5
 11
4.881466
 21
9.427880
  0
TEXT
  8
0
 10
4.396480
 20
9.236480
 40
0.137856
  1
3/4"
 41
1.000000
  7
SN0
 71
     0
 72
     5
 11
4.685597
 21
9.236480
  0
POLYLINE
  8
0
  6
CONTINUOUS
 66
     1
 40
0.000000
 41
0.000000
  0
VERTEX
  8
0
  6
CONTINUOUS
 10
2.553320
 20
5.272520
  0
VERTEX
  8
0
  6
CONTINUOUS
 10
2.552172
 20
5.231099
  0
VERTEX
  8
0
  6
CONTINUOUS
 10
2.548798
 20
5.193237
  0
VERTEX
  8
0
  6
CONTINUOUS
 10
2.543299
 20
5.158850
  0
VERTEX
  8
0
  6
CONTINUOUS
 10
2.535777
 20
5.127849
  0
VERTEX
  8
0
  6
CONTINUOUS
 10
2.526334
 20
5.100148
  0
VERTEX
  8
0
  6
CONTINUOUS
 10
2.515074
 20
5.075662
  0
VERTEX
  8
0
  6
CONTINUOUS
 10
2.502097
 20
5.054303
  0
VERTEX
  8
0
  6
CONTINUOUS
 10
2.487506
 20
5.035985
  0
VERTEX
  8
0
  6
CONTINUOUS
 10
2.471403
 20
5.020622
  0
VERTEX
  8
0
  6
CONTINUOUS
 10
2.453890
 20
5.008127
  0
VERTEX
  8
0
  6
CONTINUOUS
 10
2.435070
 20
4.998414
  0
VERTEX
  8
0
  6
CONTINUOUS
 10
2.415044
 20
4.991396
  0
VERTEX
  8
0
  6
CONTINUOUS
 10
2.393915
 20
4.986986
  0
VERTEX
  8
0
  6
CONTINUOUS
 10
2.371785
 20
4.985099
  0
VERTEX
  8
0
  6
CONTINUOUS
 10
2.348756
 20
4.985648
  0
VERTEX
  8
0
  6
CONTINUOUS
 10
2.324930
 20
4.988546
  0
VERTEX
  8
0
  6
CONTINUOUS
 10
2.300409
 20
4.993708
  0
VERTEX
  8
0
  6
CONTINUOUS
 10
2.275296
 20
5.001045
  0
VERTEX
  8
0
  6
CONTINUOUS
 10
2.249692
 20
5.010473
  0
VERTEX
  8
0
  6
CONTINUOUS
 10
2.223700
 20
5.021903
  0
VERTEX
  8
0
  6
CONTINUOUS
 10
2.197422
 20
5.035251
  0
VERTEX
  8
0
  6
CONTINUOUS
 10
2.170960
 20
5.050430
  0
VERTEX
  8
0
  6
CONTINUOUS
 10
2.144416
 20
5.067353
  0
VERTEX
  8
0
  6
CONTINUOUS
 10
2.117893
 20
5.085933
  0
VERTEX
  8
0
  6
CONTINUOUS
 10
2.091491
 20
5.106084
  0
VERTEX
  8
0
  6
CONTINUOUS
 10
2.065315
 20
5.127720
  0
VERTEX
  8
0
  6
CONTINUOUS
 10
2.039465
 20
5.150755
  0
VERTEX
  8
0
  6
CONTINUOUS
 10
2.014045
 20
5.175101
  0
VERTEX
  8
0
  6
CONTINUOUS
 10
1.989155
 20
5.200672
  0
VERTEX
  8
0
  6
CONTINUOUS
 10
1.964899
 20
5.227382
  0
VERTEX
  8
0
  6
CONTINUOUS
 10
1.941377
 20
5.255145
  0
VERTEX
  8
0
  6
CONTINUOUS
 10
1.918694
 20
5.283873
  0
VERTEX
  8
0
  6
CONTINUOUS
 10
1.896950
 20
5.313481
  0
VERTEX
  8
0
  6
CONTINUOUS
 10
1.876248
 20
5.343882
  0
VERTEX
  8
0
  6
CONTINUOUS
 10
1.856690
 20
5.374989
  0
VERTEX
  8
0
  6
CONTINUOUS
 10
1.838378
 20
5.406717
  0
VERTEX
  8
0
  6
CONTINUOUS
 10
1.821414
 20
5.438978
  0
VERTEX
  8
0
  6
CONTINUOUS
 10
1.805901
 20
5.471686
  0
VERTEX
  8
0
  6
CONTINUOUS
 10
1.791940
 20
5.504754
  0
VERTEX
  8
0
  6
CONTINUOUS
 10
1.779634
 20
5.538097
  0
VERTEX
  8
0
  6
CONTINUOUS
 10
1.769085
 20
5.571627
  0
VERTEX
  8
0
  6
CONTINUOUS
 10
1.760395
 20
5.605259
  0
VERTEX
  8
0
  6
CONTINUOUS
 10
1.753666
 20
5.638905
  0
VERTEX
  8
0
  6
CONTINUOUS
 10
1.749000
 20
5.672480
  0
SEQEND
  8
0
  0
POLYLINE
  8
0
  6
CONTINUOUS
 66
     1
 40
0.000000
 41
0.000000
  0
VERTEX
  8
0
  6
CONTINUOUS
 10
2.563440
 20
5.272520
  0
VERTEX
  8
0
  6
CONTINUOUS
 10
2.813360
 20
5.272520
  0
VERTEX
  8
0
  6
CONTINUOUS
 10
2.924240
 20
5.272520
  0
SEQEND
  8
0
  0
POLYLINE
  8
0
  6
CONTINUOUS
 66
     1
 40
0.000000
 41
0.000000
  0
VERTEX
  8
0
  6
CONTINUOUS
 10
2.526480
 20
5.260640
  0
VERTEX
  8
0
  6
CONTINUOUS
 10
2.526480
 20
5.259793
  0
VERTEX
  8
0
  6
CONTINUOUS
 10
2.526480
 20
5.258554
  0
VERTEX
  8
0
  6
CONTINUOUS
 10
2.526480
 20
5.258880
  0
SEQEND
  8
0
  0
POLYLINE
  8
0
  6
CONTINUOUS
 66
     1
 40
0.000000
 41
0.000000
  0
VERTEX
  8
0
  6
CONTINUOUS
 10
1.727880
 20
5.671600
  0
VERTEX
  8
0
  6
CONTINUOUS
 10
1.587520
 20
5.671600
  0
VERTEX
  8
0
  6
CONTINUOUS
 10
1.378960
 20
5.671600
  0
SEQEND
  8
0
  0
POLYLINE
  8
0
  6
CONTINUOUS
 66
     1
 40
0.000000
 41
0.000000
  0
VERTEX
  8
0
  6
CONTINUOUS
 10
2.553320
 20
4.752000
  0
VERTEX
  8
0
  6
CONTINUOUS
 10
2.553320
 20
5.272960
  0
VERTEX
  8
0
  6
CONTINUOUS
 10
2.553320
 20
5.462160
  0
VERTEX
  8
0
  6
CONTINUOUS
 10
2.553320
 20
5.879280
  0
SEQEND
  8
0
  0
POLYLINE
  8
0
  6
CONTINUOUS
 66
     1
 40
0.000000
 41
0.000000
  0
VERTEX
  8
0
  6
CONTINUOUS
 10
1.440560
 20
4.985200
  0
VERTEX
  8
0
  6
CONTINUOUS
 10
2.372040
 20
4.985200
  0
VERTEX
  8
0
  6
CONTINUOUS
 10
2.720520
 20
4.985200
  0
VERTEX
  8
0
  6
CONTINUOUS
 10
3.317600
 20
4.985200
  0
SEQEND
  8
0
  0
POLYLINE
  8
0
  6
CONTINUOUS
 66
     1
 40
0.000000
 41
0.000000
  0
VERTEX
  8
0
  6
CONTINUOUS
 10
2.287560
 20
3.314080
  0
VERTEX
  8
0
  6
CONTINUOUS
 10
2.288708
 20
3.272659
  0
VERTEX
  8
0
  6
CONTINUOUS
 10
2.292082
 20
3.234797
  0
VERTEX
  8
0
  6
CONTINUOUS
 10
2.297581
 20
3.200410
  0
VERTEX
  8
0
  6
CONTINUOUS
 10
2.305103
 20
3.169409
  0
VERTEX
  8
0
  6
CONTINUOUS
 10
2.314546
 20
3.141708
  0
VERTEX
  8
0
  6
CONTINUOUS
 10
2.325806
 20
3.117222
  0
VERTEX
  8
0
  6
CONTINUOUS
 10
2.338783
 20
3.095863
  0
VERTEX
  8
0
  6
CONTINUOUS
 10
2.353374
 20
3.077545
  0
VERTEX
  8
0
  6
CONTINUOUS
 10
2.369477
 20
3.062182
  0
VERTEX
  8
0
  6
CONTINUOUS
 10
2.386990
 20
3.049687
  0
VERTEX
  8
0
  6
CONTINUOUS
 10
2.405810
 20
3.039974
  0
VERTEX
  8
0
  6
CONTINUOUS
 10
2.425836
 20
3.032956
  0
VERTEX
  8
0
  6
CONTINUOUS
 10
2.446965
 20
3.028546
  0
VERTEX
  8
0
  6
CONTINUOUS
 10
2.469095
 20
3.026659
  0
VERTEX
  8
0
  6
CONTINUOUS
 10
2.492124
 20
3.027208
  0
VERTEX
  8
0
  6
CONTINUOUS
 10
2.515950
 20
3.030106
  0
VERTEX
  8
0
  6
CONTINUOUS
 10
2.540471
 20
3.035268
  0
VERTEX
  8
0
  6
CONTINUOUS
 10
2.565584
 20
3.042605
  0
VERTEX
  8
0
  6
CONTINUOUS
 10
2.591188
 20
3.052033
  0
VERTEX
  8
0
  6
CONTINUOUS
 10
2.617180
 20
3.063463
  0
VERTEX
  8
0
  6
CONTINUOUS
 10
2.643458
 20
3.076811
  0
VERTEX
  8
0
  6
CONTINUOUS
 10
2.669920
 20
3.091990
  0
VERTEX
  8
0
  6
CONTINUOUS
 10
2.696464
 20
3.108913
  0
VERTEX
  8
0
  6
CONTINUOUS
 10
2.722987
 20
3.127493
  0
VERTEX
  8
0
  6
CONTINUOUS
 10
2.749389
 20
3.147644
  0
VERTEX
  8
0
  6
CONTINUOUS
 10
2.775565
 20
3.169280
  0
VERTEX
  8
0
  6
CONTINUOUS
 10
2.801415
 20
3.192315
  0
VERTEX
  8
0
  6
CONTINUOUS
 10
2.826835
 20
3.216661
  0
VERTEX
  8
0
  6
CONTINUOUS
 10
2.851725
 20
3.242232
  0
VERTEX
  8
0
  6
CONTINUOUS
 10
2.875981
 20
3.268942
  0
VERTEX
  8
0
  6
CONTINUOUS
 10
2.899503
 20
3.296705
  0
VERTEX
  8
0
  6
CONTINUOUS
 10
2.922186
 20
3.325433
  0
VERTEX
  8
0
  6
CONTINUOUS
 10
2.943930
 20
3.355041
  0
VERTEX
  8
0
  6
CONTINUOUS
 10
2.964632
 20
3.385442
  0
VERTEX
  8
0
  6
CONTINUOUS
 10
2.984190
 20
3.416549
  0
VERTEX
  8
0
  6
CONTINUOUS
 10
3.002502
 20
3.448277
  0
VERTEX
  8
0
  6
CONTINUOUS
 10
3.019466
 20
3.480538
  0
VERTEX
  8
0
  6
CONTINUOUS
 10
3.034979
 20
3.513246
  0
VERTEX
  8
0
  6
CONTINUOUS
 10
3.048940
 20
3.546314
  0
VERTEX
  8
0
  6
CONTINUOUS
 10
3.061246
 20
3.579657
  0
VERTEX
  8
0
  6
CONTINUOUS
 10
3.071795
 20
3.613187
  0
VERTEX
  8
0
  6
CONTINUOUS
 10
3.080485
 20
3.646819
  0
VERTEX
  8
0
  6
CONTINUOUS
 10
3.087214
 20
3.680465
  0
VERTEX
  8
0
  6
CONTINUOUS
 10
3.091880
 20
3.714040
  0
SEQEND
  8
0
  0
POLYLINE
  8
0
  6
CONTINUOUS
 66
     1
 40
0.000000
 41
0.000000
  0
VERTEX
  8
0
  6
CONTINUOUS
 10
2.277000
 20
3.314080
  0
VERTEX
  8
0
  6
CONTINUOUS
 10
2.027080
 20
3.314080
  0
VERTEX
  8
0
  6
CONTINUOUS
 10
1.916640
 20
3.314080
  0
SEQEND
  8
0
  0
POLYLINE
  8
0
  6
CONTINUOUS
 66
     1
 40
0.000000
 41
0.000000
  0
VERTEX
  8
0
  6
CONTINUOUS
 10
2.313960
 20
3.302200
  0
VERTEX
  8
0
  6
CONTINUOUS
 10
2.313960
 20
3.301353
  0
VERTEX
  8
0
  6
CONTINUOUS
 10
2.313960
 20
3.300114
  0
VERTEX
  8
0
  6
CONTINUOUS
 10
2.313960
 20
3.300440
  0
SEQEND
  8
0
  0
POLYLINE
  8
0
  6
CONTINUOUS
 66
     1
 40
0.000000
 41
0.000000
  0
VERTEX
  8
0
  6
CONTINUOUS
 10
3.112560
 20
3.713600
  0
VERTEX
  8
0
  6
CONTINUOUS
 10
3.253360
 20
3.713600
  0
VERTEX
  8
0
  6
CONTINUOUS
 10
3.461480
 20
3.713600
  0
SEQEND
  8
0
  0
POLYLINE
  8
0
  6
CONTINUOUS
 66
     1
 40
0.000000
 41
0.000000
  0
VERTEX
  8
0
  6
CONTINUOUS
 10
2.287560
 20
2.793560
  0
VERTEX
  8
0
  6
CONTINUOUS
 10
2.287560
 20
3.314520
  0
VERTEX
  8
0
  6
CONTINUOUS
 10
2.287560
 20
3.504160
  0
VERTEX
  8
0
  6
CONTINUOUS
 10
2.287560
 20
3.921280
  0
SEQEND
  8
0
  0
POLYLINE
  8
0
  6
CONTINUOUS
 66
     1
 40
0.000000
 41
0.000000
  0
VERTEX
  8
0
  6
CONTINUOUS
 10
3.400320
 20
3.026760
  0
VERTEX
  8
0
  6
CONTINUOUS
 10
2.468840
 20
3.026760
  0
VERTEX
  8
0
  6
CONTINUOUS
 10
2.120360
 20
3.026760
  0
VERTEX
  8
0
  6
CONTINUOUS
 10
1.523280
 20
3.026760
  0
SEQEND
  8
0
  0
POLYLINE
  8
0
  6
CONTINUOUS
 66
     1
 40
0.000000
 41
0.000000
  0
VERTEX
  8
0
  6
CONTINUOUS
 10
6.158680
 20
5.391760
  0
VERTEX
  8
0
  6
CONTINUOUS
 10
6.157532
 20
5.350339
  0
VERTEX
  8
0
  6
CONTINUOUS
 10
6.154158
 20
5.312477
  0
VERTEX
  8
0
  6
CONTINUOUS
 10
6.148659
 20
5.278090
  0
VERTEX
  8
0
  6
CONTINUOUS
 10
6.141137
 20
5.247089
  0
VERTEX
  8
0
  6
CONTINUOUS
 10
6.131695
 20
5.219388
  0
VERTEX
  8
0
  6
CONTINUOUS
 10
6.120435
 20
5.194902
  0
VERTEX
  8
0
  6
CONTINUOUS
 10
6.107459
 20
5.173543
  0
VERTEX
  8
0
  6
CONTINUOUS
 10
6.092868
 20
5.155225
  0
VERTEX
  8
0
  6
CONTINUOUS
 10
6.076767
 20
5.139862
  0
VERTEX
  8
0
  6
CONTINUOUS
 10
6.059255
 20
5.127367
  0
VERTEX
  8
0
  6
CONTINUOUS
 10
6.040437
 20
5.117654
  0
VERTEX
  8
0
  6
CONTINUOUS
 10
6.020413
 20
5.110636
  0
VERTEX
  8
0
  6
CONTINUOUS
 10
5.999287
 20
5.106226
  0
VERTEX
  8
0
  6
CONTINUOUS
 10
5.977159
 20
5.104339
  0
VERTEX
  8
0
  6
CONTINUOUS
 10
5.954133
 20
5.104888
  0
VERTEX
  8
0
  6
CONTINUOUS
 10
5.930311
 20
5.107786
  0
VERTEX
  8
0
  6
CONTINUOUS
 10
5.905795
 20
5.112948
  0
VERTEX
  8
0
  6
CONTINUOUS
 10
5.880686
 20
5.120285
  0
VERTEX
  8
0
  6
CONTINUOUS
 10
5.855088
 20
5.129713
  0
VERTEX
  8
0
  6
CONTINUOUS
 10
5.829101
 20
5.141143
  0
VERTEX
  8
0
  6
CONTINUOUS
 10
5.802830
 20
5.154491
  0
VERTEX
  8
0
  6
CONTINUOUS
 10
5.776375
 20
5.169670
  0
VERTEX
  8
0
  6
CONTINUOUS
 10
5.749839
 20
5.186593
  0
VERTEX
  8
0
  6
CONTINUOUS
 10
5.723324
 20
5.205173
  0
VERTEX
  8
0
  6
CONTINUOUS
 10
5.696932
 20
5.225324
  0
VERTEX
  8
0
  6
CONTINUOUS
 10
5.670766
 20
5.246960
  0
VERTEX
  8
0
  6
CONTINUOUS
 10
5.644927
 20
5.269995
  0
VERTEX
  8
0
  6
CONTINUOUS
 10
5.619518
 20
5.294341
  0
VERTEX
  8
0
  6
CONTINUOUS
 10
5.594641
 20
5.319912
  0
VERTEX
  8
0
  6
CONTINUOUS
 10
5.570398
 20
5.346622
  0
VERTEX
  8
0
  6
CONTINUOUS
 10
5.546891
 20
5.374385
  0
VERTEX
  8
0
  6
CONTINUOUS
 10
5.524223
 20
5.403113
  0
VERTEX
  8
0
  6
CONTINUOUS
 10
5.502496
 20
5.432721
  0
VERTEX
  8
0
  6
CONTINUOUS
 10
5.481811
 20
5.463122
  0
VERTEX
  8
0
  6
CONTINUOUS
 10
5.462271
 20
5.494229
  0
VERTEX
  8
0
  6
CONTINUOUS
 10
5.443979
 20
5.525957
  0
VERTEX
  8
0
  6
CONTINUOUS
 10
5.427036
 20
5.558218
  0
VERTEX
  8
0
  6
CONTINUOUS
 10
5.411544
 20
5.590926
  0
VERTEX
  8
0
  6
CONTINUOUS
 10
5.397606
 20
5.623994
  0
VERTEX
  8
0
  6
CONTINUOUS
 10
5.385325
 20
5.657337
  0
VERTEX
  8
0
  6
CONTINUOUS
 10
5.374801
 20
5.690867
  0
VERTEX
  8
0
  6
CONTINUOUS
 10
5.366137
 20
5.724499
  0
VERTEX
  8
0
  6
CONTINUOUS
 10
5.359436
 20
5.758145
  0
VERTEX
  8
0
  6
CONTINUOUS
 10
5.354800
 20
5.791720
  0
SEQEND
  8
0
  0
POLYLINE
  8
0
  6
CONTINUOUS
 66
     1
 40
0.000000
 41
0.000000
  0
VERTEX
  8
0
  6
CONTINUOUS
 10
6.169240
 20
5.391760
  0
VERTEX
  8
0
  6
CONTINUOUS
 10
6.419160
 20
5.391760
  0
VERTEX
  8
0
  6
CONTINUOUS
 10
6.529600
 20
5.391760
  0
SEQEND
  8
0
  0
POLYLINE
  8
0
  6
CONTINUOUS
 66
     1
 40
0.000000
 41
0.000000
  0
VERTEX
  8
0
  6
CONTINUOUS
 10
6.132280
 20
5.379880
  0
VERTEX
  8
0
  6
CONTINUOUS
 10
6.132280
 20
5.379033
  0
VERTEX
  8
0
  6
CONTINUOUS
 10
6.132280
 20
5.377794
  0
VERTEX
  8
0
  6
CONTINUOUS
 10
6.132280
 20
5.378120
  0
SEQEND
  8
0
  0
POLYLINE
  8
0
  6
CONTINUOUS
 66
     1
 40
0.000000
 41
0.000000
  0
VERTEX
  8
0
  6
CONTINUOUS
 10
5.333680
 20
5.791280
  0
VERTEX
  8
0
  6
CONTINUOUS
 10
5.193320
 20
5.791280
  0
VERTEX
  8
0
  6
CONTINUOUS
 10
4.984760
 20
5.791280
  0
SEQEND
  8
0
  0
POLYLINE
  8
0
  6
CONTINUOUS
 66
     1
 40
0.000000
 41
0.000000
  0
VERTEX
  8
0
  6
CONTINUOUS
 10
6.158680
 20
4.871240
  0
VERTEX
  8
0
  6
CONTINUOUS
 10
6.158680
 20
5.392200
  0
VERTEX
  8
0
  6
CONTINUOUS
 10
6.158680
 20
5.581840
  0
VERTEX
  8
0
  6
CONTINUOUS
 10
6.158680
 20
5.998520
  0
SEQEND
  8
0
  0
POLYLINE
  8
0
  6
CONTINUOUS
 66
     1
 40
0.000000
 41
0.000000
  0
VERTEX
  8
0
  6
CONTINUOUS
 10
5.046360
 20
5.104440
  0
VERTEX
  8
0
  6
CONTINUOUS
 10
5.977840
 20
5.104440
  0
VERTEX
  8
0
  6
CONTINUOUS
 10
6.326320
 20
5.104440
  0
VERTEX
  8
0
  6
CONTINUOUS
 10
6.923400
 20
5.104440
  0
SEQEND
  8
0
  0
POLYLINE
  8
0
  6
CONTINUOUS
 66
     1
 40
0.000000
 41
0.000000
  0
VERTEX
  8
0
  6
CONTINUOUS
 10
5.893360
 20
3.433760
  0
VERTEX
  8
0
  6
CONTINUOUS
 10
5.894508
 20
3.392339
  0
VERTEX
  8
0
  6
CONTINUOUS
 10
5.897882
 20
3.354477
  0
VERTEX
  8
0
  6
CONTINUOUS
 10
5.903381
 20
3.320089
  0
VERTEX
  8
0
  6
CONTINUOUS
 10
5.910903
 20
3.289088
  0
VERTEX
  8
0
  6
CONTINUOUS
 10
5.920345
 20
3.261388
  0
VERTEX
  8
0
  6
CONTINUOUS
 10
5.931605
 20
3.236901
  0
VERTEX
  8
0
  6
CONTINUOUS
 10
5.944581
 20
3.215541
  0
VERTEX
  8
0
  6
CONTINUOUS
 10
5.959172
 20
3.197222
  0
VERTEX
  8
0
  6
CONTINUOUS
 10
5.975273
 20
3.181858
  0
VERTEX
  8
0
  6
CONTINUOUS
 10
5.992785
 20
3.169362
  0
VERTEX
  8
0
  6
CONTINUOUS
 10
6.011603
 20
3.159647
  0
VERTEX
  8
0
  6
CONTINUOUS
 10
6.031627
 20
3.152627
  0
VERTEX
  8
0
  6
CONTINUOUS
 10
6.052753
 20
3.148215
  0
VERTEX
  8
0
  6
CONTINUOUS
 10
6.074881
 20
3.146325
  0
VERTEX
  8
0
  6
CONTINUOUS
 10
6.097907
 20
3.146871
  0
VERTEX
  8
0
  6
CONTINUOUS
 10
6.121729
 20
3.149765
  0
VERTEX
  8
0
  6
CONTINUOUS
 10
6.146245
 20
3.154922
  0
VERTEX
  8
0
  6
CONTINUOUS
 10
6.171354
 20
3.162255
  0
VERTEX
  8
0
  6
CONTINUOUS
 10
6.196952
 20
3.171677
  0
VERTEX
  8
0
  6
CONTINUOUS
 10
6.222939
 20
3.183102
  0
VERTEX
  8
0
  6
CONTINUOUS
 10
6.249210
 20
3.196444
  0
VERTEX
  8
0
  6
CONTINUOUS
 10
6.275665
 20
3.211615
  0
VERTEX
  8
0
  6
CONTINUOUS
 10
6.302201
 20
3.228530
  0
VERTEX
  8
0
  6
CONTINUOUS
 10
6.328716
 20
3.247101
  0
VERTEX
  8
0
  6
CONTINUOUS
 10
6.355108
 20
3.267244
  0
VERTEX
  8
0
  6
CONTINUOUS
 10
6.381274
 20
3.288870
  0
VERTEX
  8
0
  6
CONTINUOUS
 10
6.407113
 20
3.311893
  0
VERTEX
  8
0
  6
CONTINUOUS
 10
6.432522
 20
3.336227
  0
VERTEX
  8
0
  6
CONTINUOUS
 10
6.457399
 20
3.361786
  0
VERTEX
  8
0
  6
CONTINUOUS
 10
6.481642
 20
3.388483
  0
VERTEX
  8
0
  6
CONTINUOUS
 10
6.505149
 20
3.416231
  0
VERTEX
  8
0
  6
CONTINUOUS
 10
6.527817
 20
3.444944
  0
VERTEX
  8
0
  6
CONTINUOUS
 10
6.549544
 20
3.474536
  0
VERTEX
  8
0
  6
CONTINUOUS
 10
6.570229
 20
3.504919
  0
VERTEX
  8
0
  6
CONTINUOUS
 10
6.589769
 20
3.536008
  0
VERTEX
  8
0
  6
CONTINUOUS
 10
6.608061
 20
3.567716
  0
VERTEX
  8
0
  6
CONTINUOUS
 10
6.625004
 20
3.599956
  0
VERTEX
  8
0
  6
CONTINUOUS
 10
6.640496
 20
3.632642
  0
VERTEX
  8
0
  6
CONTINUOUS
 10
6.654434
 20
3.665688
  0
VERTEX
  8
0
  6
CONTINUOUS
 10
6.666715
 20
3.699006
  0
VERTEX
  8
0
  6
CONTINUOUS
 10
6.677239
 20
3.732511
  0
VERTEX
  8
0
  6
CONTINUOUS
 10
6.685903
 20
3.766116
  0
VERTEX
  8
0
  6
CONTINUOUS
 10
6.692604
 20
3.799735
  0
VERTEX
  8
0
  6
CONTINUOUS
 10
6.697240
 20
3.833280
  0
SEQEND
  8
0
  0
POLYLINE
  8
0
  6
CONTINUOUS
 66
     1
 40
0.000000
 41
0.000000
  0
VERTEX
  8
0
  6
CONTINUOUS
 10
5.882800
 20
3.433760
  0
VERTEX
  8
0
  6
CONTINUOUS
 10
5.632880
 20
3.433760
  0
VERTEX
  8
0
  6
CONTINUOUS
 10
5.522000
 20
3.433760
  0
SEQEND
  8
0
  0
POLYLINE
  8
0
  6
CONTINUOUS
 66
     1
 40
0.000000
 41
0.000000
  0
VERTEX
  8
0
  6
CONTINUOUS
 10
5.919760
 20
3.421440
  0
VERTEX
  8
0
  6
CONTINUOUS
 10
5.919760
 20
3.420707
  0
VERTEX
  8
0
  6
CONTINUOUS
 10
5.919760
 20
3.419680
  0
VERTEX
  8
0
  6
CONTINUOUS
 10
5.919760
 20
3.420120
  0
SEQEND
  8
0
  0
POLYLINE
  8
0
  6
CONTINUOUS
 66
     1
 40
0.000000
 41
0.000000
  0
VERTEX
  8
0
  6
CONTINUOUS
 10
6.718360
 20
3.832840
  0
VERTEX
  8
0
  6
CONTINUOUS
 10
6.858720
 20
3.832840
  0
VERTEX
  8
0
  6
CONTINUOUS
 10
7.067280
 20
3.832840
  0
SEQEND
  8
0
  0
POLYLINE
  8
0
  6
CONTINUOUS
 66
     1
 40
0.000000
 41
0.000000
  0
VERTEX
  8
0
  6
CONTINUOUS
 10
5.892920
 20
2.913240
  0
VERTEX
  8
0
  6
CONTINUOUS
 10
5.892920
 20
3.433760
  0
VERTEX
  8
0
  6
CONTINUOUS
 10
5.892920
 20
3.623400
  0
VERTEX
  8
0
  6
CONTINUOUS
 10
5.892920
 20
4.040520
  0
SEQEND
  8
0
  0
POLYLINE
  8
0
  6
CONTINUOUS
 66
     1
 40
0.000000
 41
0.000000
  0
VERTEX
  8
0
  6
CONTINUOUS
 10
7.005680
 20
3.146440
  0
VERTEX
  8
0
  6
CONTINUOUS
 10
6.074200
 20
3.146440
  0
VERTEX
  8
0
  6
CONTINUOUS
 10
5.725720
 20
3.146440
  0
VERTEX
  8
0
  6
CONTINUOUS
 10
5.128640
 20
3.146440
  0
SEQEND
  8
0
  0
ENDSEC
  0
EOF
