  0
SECTION
  2
HEADER
  9
$ACADVER
  1
AC1006
  9
$EXTMIN
 10
0.336160
 20
0.248160
  9
$EXTMAX
 10
8.291800
 20
10.181160
  9
$LTSCALE
 40
0.044000
  9
$PDMODE
 70
    35
  9
$PDSIZE
 40
0.035200
  0
ENDSEC
  0
SECTION
  2
TABLES
  0
TABLE
  2
LTYPE
 70
     9
  0
LTYPE
  2
CONTINUOUS
 70
    64
  3
Solid line
 72
    65
 73
     0
 40
0.000000
  0
LTYPE
  2
DASHED
 70
    64
  3
__ __ __ __ __ __ __ __ __ __ __ __ __ __ __
 72
    65
 73
     2
 40
0.000330
 49
0.000220
 49
-0.000110
  0
LTYPE
  2
HIDDEN
 70
    64
  3
 _ _ _ _ _ _ _ _ _ _ _ _ _ _ _ _ _ _ _ _ _ _
 72
    65
 73
     2
 40
0.000165
 49
0.000110
 49
-0.000055
  0
LTYPE
  2
CENTER
 70
    64
  3
____ _ ____ _ ____ _ ____ _ ____ _ ____ _ ____
 72
    65
 73
     4
 40
0.000880
 49
0.000550
 49
-0.000110
 49
0.000110
 49
-0.000110
  0
LTYPE
  2
PHANTOM
 70
    64
  3
_____ _ _ _____ _ _ _____ _ _ _____ _ _ ____
 72
    65
 73
     6
 40
0.001100
 49
0.000550
 49
-0.000110
 49
0.000110
 49
-0.000110
 49
0.000110
 49
-0.000110
  0
LTYPE
  2
DOT
 70
    64
  3
...............................................
 72
    65
 73
     2
 40
0.000110
 49
0.000000
 49
-0.000110
  0
LTYPE
  2
DASHDOT
 70
    64
  3
__ . __ . __ . __ . __ . __ . __ . __ . __ . __
 72
    65
 73
     4
 40
0.000440
 49
0.000220
 49
-0.000110
 49
0.000000
 49
-0.000110
  0
LTYPE
  2
BORDER
 70
    64
  3
__ __ . __ __ . __ __ . __ __ . __ __ . __ __
 72
    65
 73
     6
 40
0.000770
 49
0.000220
 49
-0.000110
 49
0.000220
 49
-0.000110
 49
0.000000
 49
-0.000110
  0
LTYPE
  2
DIVIDE
 70
    64
  3
__ . . __ . . __ . . __ . . __ . . __ . . __
 72
    65
 73
     6
 40
0.000550
 49
0.000220
 49
-0.000110
 49
0.000000
 49
-0.000110
 49
0.000000
 49
-0.000110
  0
LTYPE
  2
DOTDOT
 70
    64
  3
 . .  . .  . .  . .  . .  . . 
 72
    65
 73
     5
 40
0.000242
 49
-0.000110
 49
0.000000
 49
-0.000110
 49
0.000000
 49
-0.000110
  0
ENDTAB
  0
TABLE
  2
STYLE
 70
     2
  0
STYLE
 70
     0
  2
SN0
 40
0.000000
 41
0.000440
 50
0.000000
 71
     0
 42
0.000000
  3
ROMAND
  0
STYLE
 70
    68
  2
SV0
 40
0.000000
 41
0.000440
 50
0.000000
 71
     0
 42
0.000000
  3
ROMAND
  0
ENDTAB
  0
TABLE
  2
LAYER
 70
     3
  0
LAYER
  2
FOREGROUND
 70
    64
 62
     7
  6
CONTINUOUS
  0
LAYER
  2
BACKGROUND
 70
    65
 62
    -7
  6
CONTINUOUS
  0
LAYER
  2
0
 70
    64
 62
     7
  6
CONTINUOUS
  0
ENDTAB
  0
ENDSEC
  0
SECTION
  2
ENTITIES
  0
POLYLINE
  8
FOREGROUND
  6
CONTINUOUS
 66
     1
 40
0.000000
 41
0.000000
  0
VERTEX
  8
FOREGROUND
  6
CONTINUOUS
 10
0.000000
 20
10.429320
  0
VERTEX
  8
FOREGROUND
  6
CONTINUOUS
 10
8.499920
 20
10.429320
  0
VERTEX
  8
FOREGROUND
  6
CONTINUOUS
 10
8.499920
 20
-0.570680
  0
VERTEX
  8
FOREGROUND
  6
CONTINUOUS
 10
0.000000
 20
-0.570680
  0
VERTEX
  8
FOREGROUND
  6
CONTINUOUS
 10
0.000000
 20
10.429320
  0
SEQEND
  8
0
  0
POLYLINE
  8
FOREGROUND
  6
CONTINUOUS
 66
     1
 40
0.000000
 41
0.000000
  0
VERTEX
  8
FOREGROUND
  6
CONTINUOUS
 10
0.000000
 20
10.429320
  0
VERTEX
  8
FOREGROUND
  6
CONTINUOUS
 10
8.499920
 20
10.429320
  0
VERTEX
  8
FOREGROUND
  6
CONTINUOUS
 10
8.499920
 20
-0.570680
  0
VERTEX
  8
FOREGROUND
  6
CONTINUOUS
 10
0.000000
 20
-0.570680
  0
VERTEX
  8
FOREGROUND
  6
CONTINUOUS
 10
0.000000
 20
10.429320
  0
SEQEND
  8
0
  0
POLYLINE
  8
0
  6
CONTINUOUS
 66
     1
 40
0.014080
 41
0.014080
  0
VERTEX
  8
0
  6
CONTINUOUS
 10
2.604800
 20
10.173680
  0
VERTEX
  8
0
  6
CONTINUOUS
 10
2.516800
 20
10.171040
  0
VERTEX
  8
0
  6
CONTINUOUS
 10
2.420000
 20
10.163120
  0
VERTEX
  8
0
  6
CONTINUOUS
 10
2.315720
 20
10.149480
  0
VERTEX
  8
0
  6
CONTINUOUS
 10
2.204840
 20
10.131000
  0
VERTEX
  8
0
  6
CONTINUOUS
 10
2.089120
 20
10.107240
  0
VERTEX
  8
0
  6
CONTINUOUS
 10
1.969880
 20
10.078200
  0
VERTEX
  8
0
  6
CONTINUOUS
 10
1.888920
 20
10.056200
  0
VERTEX
  8
0
  6
CONTINUOUS
 10
1.725680
 20
10.005160
  0
VERTEX
  8
0
  6
CONTINUOUS
 10
1.643840
 20
9.976120
  0
VERTEX
  8
0
  6
CONTINUOUS
 10
1.562880
 20
9.945320
  0
VERTEX
  8
0
  6
CONTINUOUS
 10
1.443640
 20
9.894280
  0
VERTEX
  8
0
  6
CONTINUOUS
 10
1.327480
 20
9.838840
  0
VERTEX
  8
0
  6
CONTINUOUS
 10
1.216600
 20
9.778560
  0
VERTEX
  8
0
  6
CONTINUOUS
 10
1.111880
 20
9.713440
  0
VERTEX
  8
0
  6
CONTINUOUS
 10
1.046320
 20
9.667240
  0
VERTEX
  8
0
  6
CONTINUOUS
 10
0.984280
 20
9.619280
  0
VERTEX
  8
0
  6
CONTINUOUS
 10
0.926640
 20
9.568680
  0
VERTEX
  8
0
  6
CONTINUOUS
 10
0.873400
 20
9.516760
  0
VERTEX
  8
0
  6
CONTINUOUS
 10
0.825440
 20
9.462200
  0
VERTEX
  8
0
  6
CONTINUOUS
 10
0.803000
 20
9.434480
  0
VERTEX
  8
0
  6
CONTINUOUS
 10
0.762960
 20
9.376840
  0
VERTEX
  8
0
  6
CONTINUOUS
 10
0.729080
 20
9.317440
  0
VERTEX
  8
0
  6
CONTINUOUS
 10
0.701360
 20
9.256280
  0
VERTEX
  8
0
  6
CONTINUOUS
 10
0.680680
 20
9.192920
  0
VERTEX
  8
0
  6
CONTINUOUS
 10
0.672760
 20
9.160360
  0
VERTEX
  8
0
  6
CONTINUOUS
 10
0.667040
 20
9.127800
  0
VERTEX
  8
0
  6
CONTINUOUS
 10
0.663080
 20
9.094360
  0
VERTEX
  8
0
  6
CONTINUOUS
 10
0.660880
 20
9.060480
  0
VERTEX
  8
0
  6
CONTINUOUS
 10
0.660880
 20
9.026160
  0
VERTEX
  8
0
  6
CONTINUOUS
 10
0.662200
 20
9.004160
  0
VERTEX
  8
0
  6
CONTINUOUS
 10
0.670560
 20
8.958840
  0
VERTEX
  8
0
  6
CONTINUOUS
 10
0.685080
 20
8.912200
  0
VERTEX
  8
0
  6
CONTINUOUS
 10
0.705320
 20
8.864240
  0
VERTEX
  8
0
  6
CONTINUOUS
 10
0.745360
 20
8.789880
  0
VERTEX
  8
0
  6
CONTINUOUS
 10
0.794640
 20
8.713760
  0
VERTEX
  8
0
  6
CONTINUOUS
 10
0.850960
 20
8.635880
  0
VERTEX
  8
0
  6
CONTINUOUS
 10
0.934120
 20
8.530720
  0
VERTEX
  8
0
  6
CONTINUOUS
 10
1.148400
 20
8.268040
  0
VERTEX
  8
0
  6
CONTINUOUS
 10
1.202960
 20
8.195880
  0
VERTEX
  8
0
  6
CONTINUOUS
 10
1.244760
 20
8.128560
  0
VERTEX
  8
0
  6
CONTINUOUS
 10
1.269400
 20
8.081040
  0
VERTEX
  8
0
  6
CONTINUOUS
 10
1.301520
 20
8.005800
  0
VERTEX
  8
0
  6
CONTINUOUS
 10
1.329240
 20
7.927040
  0
VERTEX
  8
0
  6
CONTINUOUS
 10
1.344640
 20
7.873360
  0
VERTEX
  8
0
  6
CONTINUOUS
 10
1.358280
 20
7.818360
  0
VERTEX
  8
0
  6
CONTINUOUS
 10
1.370160
 20
7.762920
  0
VERTEX
  8
0
  6
CONTINUOUS
 10
1.380280
 20
7.707040
  0
VERTEX
  8
0
  6
CONTINUOUS
 10
1.388640
 20
7.650720
  0
VERTEX
  8
0
  6
CONTINUOUS
 10
1.400520
 20
7.538960
  0
VERTEX
  8
0
  6
CONTINUOUS
 10
1.404920
 20
7.483520
  0
VERTEX
  8
0
  6
CONTINUOUS
 10
1.409760
 20
7.375720
  0
VERTEX
  8
0
  6
CONTINUOUS
 10
1.409760
 20
7.224800
  0
VERTEX
  8
0
  6
CONTINUOUS
 10
1.404040
 20
7.091920
  0
VERTEX
  8
0
  6
CONTINUOUS
 10
1.395680
 20
6.984120
  0
VERTEX
  8
0
  6
CONTINUOUS
 10
1.382040
 20
6.868840
  0
VERTEX
  8
0
  6
CONTINUOUS
 10
1.382040
 20
6.848160
  0
VERTEX
  8
0
  6
CONTINUOUS
 10
1.384680
 20
6.832760
  0
VERTEX
  8
0
  6
CONTINUOUS
 10
1.390840
 20
6.821760
  0
VERTEX
  8
0
  6
CONTINUOUS
 10
1.401400
 20
6.814720
  0
VERTEX
  8
0
  6
CONTINUOUS
 10
1.415480
 20
6.809880
  0
VERTEX
  8
0
  6
CONTINUOUS
 10
1.445400
 20
6.807240
  0
VERTEX
  8
0
  6
CONTINUOUS
 10
3.755840
 20
6.807240
  0
VERTEX
  8
0
  6
CONTINUOUS
 10
3.788400
 20
6.809000
  0
VERTEX
  8
0
  6
CONTINUOUS
 10
3.804240
 20
6.812080
  0
VERTEX
  8
0
  6
CONTINUOUS
 10
3.815680
 20
6.817800
  0
VERTEX
  8
0
  6
CONTINUOUS
 10
3.823160
 20
6.827040
  0
VERTEX
  8
0
  6
CONTINUOUS
 10
3.827120
 20
6.839800
  0
VERTEX
  8
0
  6
CONTINUOUS
 10
3.828000
 20
6.857400
  0
VERTEX
  8
0
  6
CONTINUOUS
 10
3.825360
 20
6.884240
  0
VERTEX
  8
0
  6
CONTINUOUS
 10
3.812600
 20
6.999520
  0
VERTEX
  8
0
  6
CONTINUOUS
 10
3.804240
 20
7.112160
  0
VERTEX
  8
0
  6
CONTINUOUS
 10
3.799840
 20
7.224360
  0
VERTEX
  8
0
  6
CONTINUOUS
 10
3.798960
 20
7.323800
  0
VERTEX
  8
0
  6
CONTINUOUS
 10
3.801600
 20
7.428960
  0
VERTEX
  8
0
  6
CONTINUOUS
 10
3.808640
 20
7.538520
  0
VERTEX
  8
0
  6
CONTINUOUS
 10
3.820960
 20
7.650720
  0
VERTEX
  8
0
  6
CONTINUOUS
 10
3.829320
 20
7.706600
  0
VERTEX
  8
0
  6
CONTINUOUS
 10
3.839440
 20
7.762920
  0
VERTEX
  8
0
  6
CONTINUOUS
 10
3.851320
 20
7.818360
  0
VERTEX
  8
0
  6
CONTINUOUS
 10
3.864960
 20
7.872920
  0
VERTEX
  8
0
  6
CONTINUOUS
 10
3.888720
 20
7.953440
  0
VERTEX
  8
0
  6
CONTINUOUS
 10
3.917760
 20
8.030880
  0
VERTEX
  8
0
  6
CONTINUOUS
 10
3.952080
 20
8.104360
  0
VERTEX
  8
0
  6
CONTINUOUS
 10
3.991680
 20
8.173440
  0
VERTEX
  8
0
  6
CONTINUOUS
 10
4.021600
 20
8.216560
  0
VERTEX
  8
0
  6
CONTINUOUS
 10
4.102120
 20
8.319520
  0
VERTEX
  8
0
  6
CONTINUOUS
 10
4.275480
 20
8.530720
  0
VERTEX
  8
0
  6
CONTINUOUS
 10
4.378000
 20
8.661840
  0
VERTEX
  8
0
  6
CONTINUOUS
 10
4.432560
 20
8.739280
  0
VERTEX
  8
0
  6
CONTINUOUS
 10
4.478760
 20
8.814960
  0
VERTEX
  8
0
  6
CONTINUOUS
 10
4.504280
 20
8.864240
  0
VERTEX
  8
0
  6
CONTINUOUS
 10
4.524520
 20
8.912200
  0
VERTEX
  8
0
  6
CONTINUOUS
 10
4.539040
 20
8.958840
  0
VERTEX
  8
0
  6
CONTINUOUS
 10
4.547400
 20
9.003720
  0
VERTEX
  8
0
  6
CONTINUOUS
 10
4.548720
 20
9.025720
  0
VERTEX
  8
0
  6
CONTINUOUS
 10
4.548720
 20
9.060040
  0
VERTEX
  8
0
  6
CONTINUOUS
 10
4.546520
 20
9.093920
  0
VERTEX
  8
0
  6
CONTINUOUS
 10
4.542560
 20
9.127360
  0
VERTEX
  8
0
  6
CONTINUOUS
 10
4.536840
 20
9.159920
  0
VERTEX
  8
0
  6
CONTINUOUS
 10
4.528920
 20
9.192480
  0
VERTEX
  8
0
  6
CONTINUOUS
 10
4.508240
 20
9.255840
  0
VERTEX
  8
0
  6
CONTINUOUS
 10
4.480520
 20
9.317000
  0
VERTEX
  8
0
  6
CONTINUOUS
 10
4.446640
 20
9.376400
  0
VERTEX
  8
0
  6
CONTINUOUS
 10
4.406600
 20
9.434040
  0
VERTEX
  8
0
  6
CONTINUOUS
 10
4.360840
 20
9.489040
  0
VERTEX
  8
0
  6
CONTINUOUS
 10
4.310240
 20
9.542720
  0
VERTEX
  8
0
  6
CONTINUOUS
 10
4.254800
 20
9.593760
  0
VERTEX
  8
0
  6
CONTINUOUS
 10
4.194960
 20
9.643040
  0
VERTEX
  8
0
  6
CONTINUOUS
 10
4.131160
 20
9.690120
  0
VERTEX
  8
0
  6
CONTINUOUS
 10
4.063840
 20
9.735000
  0
VERTEX
  8
0
  6
CONTINUOUS
 10
3.993440
 20
9.778120
  0
VERTEX
  8
0
  6
CONTINUOUS
 10
3.919960
 20
9.819040
  0
VERTEX
  8
0
  6
CONTINUOUS
 10
3.805560
 20
9.875800
  0
VERTEX
  8
0
  6
CONTINUOUS
 10
3.687200
 20
9.928160
  0
VERTEX
  8
0
  6
CONTINUOUS
 10
3.647160
 20
9.944880
  0
VERTEX
  8
0
  6
CONTINUOUS
 10
3.566200
 20
9.975680
  0
VERTEX
  8
0
  6
CONTINUOUS
 10
3.484360
 20
10.004720
  0
VERTEX
  8
0
  6
CONTINUOUS
 10
3.402960
 20
10.031120
  0
VERTEX
  8
0
  6
CONTINUOUS
 10
3.321120
 20
10.055760
  0
VERTEX
  8
0
  6
CONTINUOUS
 10
3.200120
 20
10.087880
  0
VERTEX
  8
0
  6
CONTINUOUS
 10
3.081760
 20
10.115160
  0
VERTEX
  8
0
  6
CONTINUOUS
 10
2.967800
 20
10.137160
  0
VERTEX
  8
0
  6
CONTINUOUS
 10
2.858680
 20
10.154320
  0
VERTEX
  8
0
  6
CONTINUOUS
 10
2.756600
 20
10.165760
  0
VERTEX
  8
0
  6
CONTINUOUS
 10
2.662880
 20
10.171920
  0
VERTEX
  8
0
  6
CONTINUOUS
 10
2.604800
 20
10.173680
  0
SEQEND
  8
0
  0
POLYLINE
  8
0
  6
CONTINUOUS
 66
     1
 40
0.000000
 41
0.000000
  0
VERTEX
  8
0
  6
CONTINUOUS
 10
2.694120
 20
4.598440
  0
VERTEX
  8
0
  6
CONTINUOUS
 10
2.606120
 20
4.595800
  0
VERTEX
  8
0
  6
CONTINUOUS
 10
2.509320
 20
4.587880
  0
VERTEX
  8
0
  6
CONTINUOUS
 10
2.405040
 20
4.574240
  0
VERTEX
  8
0
  6
CONTINUOUS
 10
2.331560
 20
4.562360
  0
VERTEX
  8
0
  6
CONTINUOUS
 10
2.217160
 20
4.540360
  0
VERTEX
  8
0
  6
CONTINUOUS
 10
2.099240
 20
4.513080
  0
VERTEX
  8
0
  6
CONTINUOUS
 10
1.977800
 20
4.480960
  0
VERTEX
  8
0
  6
CONTINUOUS
 10
1.814560
 20
4.429920
  0
VERTEX
  8
0
  6
CONTINUOUS
 10
1.733160
 20
4.400880
  0
VERTEX
  8
0
  6
CONTINUOUS
 10
1.612160
 20
4.353800
  0
VERTEX
  8
0
  6
CONTINUOUS
 10
1.493800
 20
4.301440
  0
VERTEX
  8
0
  6
CONTINUOUS
 10
1.379400
 20
4.244240
  0
VERTEX
  8
0
  6
CONTINUOUS
 10
1.270280
 20
4.182200
  0
VERTEX
  8
0
  6
CONTINUOUS
 10
1.201200
 20
4.138200
  0
VERTEX
  8
0
  6
CONTINUOUS
 10
1.135640
 20
4.092000
  0
VERTEX
  8
0
  6
CONTINUOUS
 10
1.073600
 20
4.044040
  0
VERTEX
  8
0
  6
CONTINUOUS
 10
1.015960
 20
3.993880
  0
VERTEX
  8
0
  6
CONTINUOUS
 10
0.962720
 20
3.941520
  0
VERTEX
  8
0
  6
CONTINUOUS
 10
0.914320
 20
3.887400
  0
VERTEX
  8
0
  6
CONTINUOUS
 10
0.871640
 20
3.830640
  0
VERTEX
  8
0
  6
CONTINUOUS
 10
0.852280
 20
3.802040
  0
VERTEX
  8
0
  6
CONTINUOUS
 10
0.818400
 20
3.742640
  0
VERTEX
  8
0
  6
CONTINUOUS
 10
0.790680
 20
3.681040
  0
VERTEX
  8
0
  6
CONTINUOUS
 10
0.770000
 20
3.617680
  0
VERTEX
  8
0
  6
CONTINUOUS
 10
0.762080
 20
3.585560
  0
VERTEX
  8
0
  6
CONTINUOUS
 10
0.756360
 20
3.552560
  0
VERTEX
  8
0
  6
CONTINUOUS
 10
0.752400
 20
3.519120
  0
VERTEX
  8
0
  6
CONTINUOUS
 10
0.750200
 20
3.485240
  0
VERTEX
  8
0
  6
CONTINUOUS
 10
0.750200
 20
3.450920
  0
VERTEX
  8
0
  6
CONTINUOUS
 10
0.751520
 20
3.428920
  0
VERTEX
  8
0
  6
CONTINUOUS
 10
0.759880
 20
3.384040
  0
VERTEX
  8
0
  6
CONTINUOUS
 10
0.774400
 20
3.337400
  0
VERTEX
  8
0
  6
CONTINUOUS
 10
0.783640
 20
3.313200
  0
VERTEX
  8
0
  6
CONTINUOUS
 10
0.806520
 20
3.264800
  0
VERTEX
  8
0
  6
CONTINUOUS
 10
0.834240
 20
3.215080
  0
VERTEX
  8
0
  6
CONTINUOUS
 10
0.883520
 20
3.138960
  0
VERTEX
  8
0
  6
CONTINUOUS
 10
0.940280
 20
3.061080
  0
VERTEX
  8
0
  6
CONTINUOUS
 10
1.023000
 20
2.955920
  0
VERTEX
  8
0
  6
CONTINUOUS
 10
1.196360
 20
2.745160
  0
VERTEX
  8
0
  6
CONTINUOUS
 10
1.276880
 20
2.642200
  0
VERTEX
  8
0
  6
CONTINUOUS
 10
1.306800
 20
2.599080
  0
VERTEX
  8
0
  6
CONTINUOUS
 10
1.346400
 20
2.530000
  0
VERTEX
  8
0
  6
CONTINUOUS
 10
1.380720
 20
2.456520
  0
VERTEX
  8
0
  6
CONTINUOUS
 10
1.409760
 20
2.379080
  0
VERTEX
  8
0
  6
CONTINUOUS
 10
1.433960
 20
2.298560
  0
VERTEX
  8
0
  6
CONTINUOUS
 10
1.447600
 20
2.243560
  0
VERTEX
  8
0
  6
CONTINUOUS
 10
1.469160
 20
2.132240
  0
VERTEX
  8
0
  6
CONTINUOUS
 10
1.484560
 20
2.020040
  0
VERTEX
  8
0
  6
CONTINUOUS
 10
1.493800
 20
1.908720
  0
VERTEX
  8
0
  6
CONTINUOUS
 10
1.498640
 20
1.800920
  0
VERTEX
  8
0
  6
CONTINUOUS
 10
1.499520
 20
1.698400
  0
VERTEX
  8
0
  6
CONTINUOUS
 10
1.495560
 20
1.558920
  0
VERTEX
  8
0
  6
CONTINUOUS
 10
1.487640
 20
1.441880
  0
VERTEX
  8
0
  6
CONTINUOUS
 10
1.476640
 20
1.333640
  0
VERTEX
  8
0
  6
CONTINUOUS
 10
1.471360
 20
1.294040
  0
VERTEX
  8
0
  6
CONTINUOUS
 10
1.470920
 20
1.273360
  0
VERTEX
  8
0
  6
CONTINUOUS
 10
1.474000
 20
1.257960
  0
VERTEX
  8
0
  6
CONTINUOUS
 10
1.480160
 20
1.246960
  0
VERTEX
  8
0
  6
CONTINUOUS
 10
1.490280
 20
1.239920
  0
VERTEX
  8
0
  6
CONTINUOUS
 10
1.504800
 20
1.235080
  0
VERTEX
  8
0
  6
CONTINUOUS
 10
1.534720
 20
1.232440
  0
VERTEX
  8
0
  6
CONTINUOUS
 10
3.844720
 20
1.232440
  0
VERTEX
  8
0
  6
CONTINUOUS
 10
3.877720
 20
1.234200
  0
VERTEX
  8
0
  6
CONTINUOUS
 10
3.893120
 20
1.237280
  0
VERTEX
  8
0
  6
CONTINUOUS
 10
3.904560
 20
1.243000
  0
VERTEX
  8
0
  6
CONTINUOUS
 10
3.912040
 20
1.251800
  0
VERTEX
  8
0
  6
CONTINUOUS
 10
3.916000
 20
1.265000
  0
VERTEX
  8
0
  6
CONTINUOUS
 10
3.916880
 20
1.282600
  0
VERTEX
  8
0
  6
CONTINUOUS
 10
3.914240
 20
1.309440
  0
VERTEX
  8
0
  6
CONTINUOUS
 10
3.904560
 20
1.393920
  0
VERTEX
  8
0
  6
CONTINUOUS
 10
3.894440
 20
1.516680
  0
VERTEX
  8
0
  6
CONTINUOUS
 10
3.889160
 20
1.649560
  0
VERTEX
  8
0
  6
CONTINUOUS
 10
3.888280
 20
1.748560
  0
VERTEX
  8
0
  6
CONTINUOUS
 10
3.890920
 20
1.854160
  0
VERTEX
  8
0
  6
CONTINUOUS
 10
3.897960
 20
1.963720
  0
VERTEX
  8
0
  6
CONTINUOUS
 10
3.903240
 20
2.019600
  0
VERTEX
  8
0
  6
CONTINUOUS
 10
3.918640
 20
2.131800
  0
VERTEX
  8
0
  6
CONTINUOUS
 10
3.940200
 20
2.243120
  0
VERTEX
  8
0
  6
CONTINUOUS
 10
3.953840
 20
2.298120
  0
VERTEX
  8
0
  6
CONTINUOUS
 10
3.978040
 20
2.378640
  0
VERTEX
  8
0
  6
CONTINUOUS
 10
4.007080
 20
2.456080
  0
VERTEX
  8
0
  6
CONTINUOUS
 10
4.041400
 20
2.529560
  0
VERTEX
  8
0
  6
CONTINUOUS
 10
4.081000
 20
2.598640
  0
VERTEX
  8
0
  6
CONTINUOUS
 10
4.110920
 20
2.641760
  0
VERTEX
  8
0
  6
CONTINUOUS
 10
4.191440
 20
2.744720
  0
VERTEX
  8
0
  6
CONTINUOUS
 10
4.407040
 20
3.008280
  0
VERTEX
  8
0
  6
CONTINUOUS
 10
4.486240
 20
3.112560
  0
VERTEX
  8
0
  6
CONTINUOUS
 10
4.537720
 20
3.189560
  0
VERTEX
  8
0
  6
CONTINUOUS
 10
4.567640
 20
3.239720
  0
VERTEX
  8
0
  6
CONTINUOUS
 10
4.593160
 20
3.289000
  0
VERTEX
  8
0
  6
CONTINUOUS
 10
4.604160
 20
3.312760
  0
VERTEX
  8
0
  6
CONTINUOUS
 10
4.621320
 20
3.360280
  0
VERTEX
  8
0
  6
CONTINUOUS
 10
4.632760
 20
3.406040
  0
VERTEX
  8
0
  6
CONTINUOUS
 10
4.636280
 20
3.428480
  0
VERTEX
  8
0
  6
CONTINUOUS
 10
4.637600
 20
3.450480
  0
VERTEX
  8
0
  6
CONTINUOUS
 10
4.637600
 20
3.484800
  0
VERTEX
  8
0
  6
CONTINUOUS
 10
4.635400
 20
3.518680
  0
VERTEX
  8
0
  6
CONTINUOUS
 10
4.631440
 20
3.552120
  0
VERTEX
  8
0
  6
CONTINUOUS
 10
4.625720
 20
3.585120
  0
VERTEX
  8
0
  6
CONTINUOUS
 10
4.617800
 20
3.617240
  0
VERTEX
  8
0
  6
CONTINUOUS
 10
4.597120
 20
3.680600
  0
VERTEX
  8
0
  6
CONTINUOUS
 10
4.569400
 20
3.742200
  0
VERTEX
  8
0
  6
CONTINUOUS
 10
4.535520
 20
3.801600
  0
VERTEX
  8
0
  6
CONTINUOUS
 10
4.495480
 20
3.858800
  0
VERTEX
  8
0
  6
CONTINUOUS
 10
4.473480
 20
3.886960
  0
VERTEX
  8
0
  6
CONTINUOUS
 10
4.425080
 20
3.941080
  0
VERTEX
  8
0
  6
CONTINUOUS
 10
4.372280
 20
3.993440
  0
VERTEX
  8
0
  6
CONTINUOUS
 10
4.314200
 20
4.043600
  0
VERTEX
  8
0
  6
CONTINUOUS
 10
4.252600
 20
4.092000
  0
VERTEX
  8
0
  6
CONTINUOUS
 10
4.152720
 20
4.160200
  0
VERTEX
  8
0
  6
CONTINUOUS
 10
4.082320
 20
4.203320
  0
VERTEX
  8
0
  6
CONTINUOUS
 10
3.971000
 20
4.263600
  0
VERTEX
  8
0
  6
CONTINUOUS
 10
3.855280
 20
4.319040
  0
VERTEX
  8
0
  6
CONTINUOUS
 10
3.736040
 20
4.369640
  0
VERTEX
  8
0
  6
CONTINUOUS
 10
3.655080
 20
4.400880
  0
VERTEX
  8
0
  6
CONTINUOUS
 10
3.573680
 20
4.429920
  0
VERTEX
  8
0
  6
CONTINUOUS
 10
3.410440
 20
4.480960
  0
VERTEX
  8
0
  6
CONTINUOUS
 10
3.289440
 20
4.513080
  0
VERTEX
  8
0
  6
CONTINUOUS
 10
3.171080
 20
4.540360
  0
VERTEX
  8
0
  6
CONTINUOUS
 10
3.056680
 20
4.562360
  0
VERTEX
  8
0
  6
CONTINUOUS
 10
2.948000
 20
4.579520
  0
VERTEX
  8
0
  6
CONTINUOUS
 10
2.845920
 20
4.590960
  0
VERTEX
  8
0
  6
CONTINUOUS
 10
2.752200
 20
4.597120
  0
VERTEX
  8
0
  6
CONTINUOUS
 10
2.694120
 20
4.598440
  0
SEQEND
  8
0
  0
POLYLINE
  8
0
  6
CONTINUOUS
 66
     1
 40
0.000000
 41
0.000000
  0
VERTEX
  8
0
  6
CONTINUOUS
 10
2.694120
 20
5.116320
  0
VERTEX
  8
0
  6
CONTINUOUS
 10
2.694120
 20
4.598440
  0
VERTEX
  8
0
  6
CONTINUOUS
 10
2.694120
 20
1.070080
  0
VERTEX
  8
0
  6
CONTINUOUS
 10
2.694120
 20
0.551760
  0
SEQEND
  8
0
  0
TEXT
  8
0
 10
2.626360
 20
0.364760
 40
0.137950
  1
C
 41
1.000000
  7
SN0
 71
     0
 72
     5
 11
2.746549
 21
0.364760
  0
TEXT
  8
0
 10
2.659800
 20
0.295680
 40
0.137950
  1
L
 41
1.000000
  7
SN0
 71
     0
 72
     5
 11
2.752177
 21
0.295680
  0
SOLID
  8
0
 62
    15
 10
7.009640
 20
6.886880
 11
7.661280
 21
7.263960
 12
6.942760
 22
6.674360
 13
7.594400
 23
7.051000
  0
POLYLINE
  8
0
  6
CONTINUOUS
 66
     1
 40
0.000000
 41
0.000000
  0
VERTEX
  8
0
  6
CONTINUOUS
 10
7.009640
 20
6.886880
  0
VERTEX
  8
0
  6
CONTINUOUS
 10
7.661280
 20
7.263960
  0
VERTEX
  8
0
  6
CONTINUOUS
 10
7.594400
 20
7.051000
  0
VERTEX
  8
0
  6
CONTINUOUS
 10
6.942760
 20
6.674360
  0
VERTEX
  8
0
  6
CONTINUOUS
 10
7.009640
 20
6.886880
  0
SEQEND
  8
0
  0
SOLID
  8
0
 62
    15
 10
5.815920
 20
9.024400
 11
6.467560
 21
9.401480
 12
5.950560
 22
9.010320
 13
6.601760
 23
9.387400
  0
POLYLINE
  8
0
  6
CONTINUOUS
 66
     1
 40
0.000000
 41
0.000000
  0
VERTEX
  8
0
  6
CONTINUOUS
 10
5.815920
 20
9.024400
  0
VERTEX
  8
0
  6
CONTINUOUS
 10
6.467560
 20
9.401480
  0
VERTEX
  8
0
  6
CONTINUOUS
 10
6.601760
 20
9.387400
  0
VERTEX
  8
0
  6
CONTINUOUS
 10
5.950560
 20
9.010320
  0
VERTEX
  8
0
  6
CONTINUOUS
 10
5.815920
 20
9.024400
  0
SEQEND
  8
0
  0
SOLID
  8
0
 62
    15
 10
5.950560
 20
9.010320
 11
6.601760
 21
9.387400
 12
6.251960
 22
8.953560
 13
6.903600
 23
9.330640
  0
POLYLINE
  8
0
  6
CONTINUOUS
 66
     1
 40
0.000000
 41
0.000000
  0
VERTEX
  8
0
  6
CONTINUOUS
 10
5.950560
 20
9.010320
  0
VERTEX
  8
0
  6
CONTINUOUS
 10
6.601760
 20
9.387400
  0
VERTEX
  8
0
  6
CONTINUOUS
 10
6.903600
 20
9.330640
  0
VERTEX
  8
0
  6
CONTINUOUS
 10
6.251960
 20
8.953560
  0
VERTEX
  8
0
  6
CONTINUOUS
 10
5.950560
 20
9.010320
  0
SEQEND
  8
0
  0
SOLID
  8
0
 62
    15
 10
6.251960
 20
8.953560
 11
6.903600
 21
9.330640
 12
6.576240
 22
8.860720
 13
7.227440
 23
9.237800
  0
POLYLINE
  8
0
  6
CONTINUOUS
 66
     1
 40
0.000000
 41
0.000000
  0
VERTEX
  8
0
  6
CONTINUOUS
 10
6.251960
 20
8.953560
  0
VERTEX
  8
0
  6
CONTINUOUS
 10
6.903600
 20
9.330640
  0
VERTEX
  8
0
  6
CONTINUOUS
 10
7.227440
 20
9.237800
  0
VERTEX
  8
0
  6
CONTINUOUS
 10
6.576240
 20
8.860720
  0
VERTEX
  8
0
  6
CONTINUOUS
 10
6.251960
 20
8.953560
  0
SEQEND
  8
0
  0
SOLID
  8
0
 62
    15
 10
6.576240
 20
8.860720
 11
7.227440
 21
9.237800
 12
6.897000
 22
8.731800
 13
7.548640
 23
9.108880
  0
POLYLINE
  8
0
  6
CONTINUOUS
 66
     1
 40
0.000000
 41
0.000000
  0
VERTEX
  8
0
  6
CONTINUOUS
 10
6.576240
 20
8.860720
  0
VERTEX
  8
0
  6
CONTINUOUS
 10
7.227440
 20
9.237800
  0
VERTEX
  8
0
  6
CONTINUOUS
 10
7.548640
 20
9.108880
  0
VERTEX
  8
0
  6
CONTINUOUS
 10
6.897000
 20
8.731800
  0
VERTEX
  8
0
  6
CONTINUOUS
 10
6.576240
 20
8.860720
  0
SEQEND
  8
0
  0
SOLID
  8
0
 62
    15
 10
6.897000
 20
8.731800
 11
7.548640
 21
9.108880
 12
7.189600
 22
8.569000
 13
7.840800
 23
8.946080
  0
POLYLINE
  8
0
  6
CONTINUOUS
 66
     1
 40
0.000000
 41
0.000000
  0
VERTEX
  8
0
  6
CONTINUOUS
 10
6.897000
 20
8.731800
  0
VERTEX
  8
0
  6
CONTINUOUS
 10
7.548640
 20
9.108880
  0
VERTEX
  8
0
  6
CONTINUOUS
 10
7.840800
 20
8.946080
  0
VERTEX
  8
0
  6
CONTINUOUS
 10
7.189600
 20
8.569000
  0
VERTEX
  8
0
  6
CONTINUOUS
 10
6.897000
 20
8.731800
  0
SEQEND
  8
0
  0
SOLID
  8
0
 62
    15
 10
7.189600
 20
8.569000
 11
7.840800
 21
8.946080
 12
7.317200
 22
8.474840
 13
7.968400
 23
8.851480
  0
POLYLINE
  8
0
  6
CONTINUOUS
 66
     1
 40
0.000000
 41
0.000000
  0
VERTEX
  8
0
  6
CONTINUOUS
 10
7.189600
 20
8.569000
  0
VERTEX
  8
0
  6
CONTINUOUS
 10
7.840800
 20
8.946080
  0
VERTEX
  8
0
  6
CONTINUOUS
 10
7.968400
 20
8.851480
  0
VERTEX
  8
0
  6
CONTINUOUS
 10
7.317200
 20
8.474840
  0
VERTEX
  8
0
  6
CONTINUOUS
 10
7.189600
 20
8.569000
  0
SEQEND
  8
0
  0
SOLID
  8
0
 62
    15
 10
7.317200
 20
8.474840
 11
7.968400
 21
8.851480
 12
7.428080
 22
8.371880
 13
8.079280
 23
8.748960
  0
POLYLINE
  8
0
  6
CONTINUOUS
 66
     1
 40
0.000000
 41
0.000000
  0
VERTEX
  8
0
  6
CONTINUOUS
 10
7.317200
 20
8.474840
  0
VERTEX
  8
0
  6
CONTINUOUS
 10
7.968400
 20
8.851480
  0
VERTEX
  8
0
  6
CONTINUOUS
 10
8.079280
 20
8.748960
  0
VERTEX
  8
0
  6
CONTINUOUS
 10
7.428080
 20
8.371880
  0
VERTEX
  8
0
  6
CONTINUOUS
 10
7.317200
 20
8.474840
  0
SEQEND
  8
0
  0
SOLID
  8
0
 62
    15
 10
7.428080
 20
8.371880
 11
8.079280
 21
8.748960
 12
7.518720
 22
8.261440
 13
8.170360
 23
8.638520
  0
POLYLINE
  8
0
  6
CONTINUOUS
 66
     1
 40
0.000000
 41
0.000000
  0
VERTEX
  8
0
  6
CONTINUOUS
 10
7.428080
 20
8.371880
  0
VERTEX
  8
0
  6
CONTINUOUS
 10
8.079280
 20
8.748960
  0
VERTEX
  8
0
  6
CONTINUOUS
 10
8.170360
 20
8.638520
  0
VERTEX
  8
0
  6
CONTINUOUS
 10
7.518720
 20
8.261440
  0
VERTEX
  8
0
  6
CONTINUOUS
 10
7.428080
 20
8.371880
  0
SEQEND
  8
0
  0
SOLID
  8
0
 62
    15
 10
7.518720
 20
8.261440
 11
8.170360
 21
8.638520
 12
7.586480
 22
8.142640
 13
8.238120
 23
8.519720
  0
POLYLINE
  8
0
  6
CONTINUOUS
 66
     1
 40
0.000000
 41
0.000000
  0
VERTEX
  8
0
  6
CONTINUOUS
 10
7.518720
 20
8.261440
  0
VERTEX
  8
0
  6
CONTINUOUS
 10
8.170360
 20
8.638520
  0
VERTEX
  8
0
  6
CONTINUOUS
 10
8.238120
 20
8.519720
  0
VERTEX
  8
0
  6
CONTINUOUS
 10
7.586480
 20
8.142640
  0
VERTEX
  8
0
  6
CONTINUOUS
 10
7.518720
 20
8.261440
  0
SEQEND
  8
0
  0
SOLID
  8
0
 62
    15
 10
7.586480
 20
8.142640
 11
8.238120
 21
8.519720
 12
7.628280
 22
8.015920
 13
8.279480
 23
8.393000
  0
POLYLINE
  8
0
  6
CONTINUOUS
 66
     1
 40
0.000000
 41
0.000000
  0
VERTEX
  8
0
  6
CONTINUOUS
 10
7.586480
 20
8.142640
  0
VERTEX
  8
0
  6
CONTINUOUS
 10
8.238120
 20
8.519720
  0
VERTEX
  8
0
  6
CONTINUOUS
 10
8.279480
 20
8.393000
  0
VERTEX
  8
0
  6
CONTINUOUS
 10
7.628280
 20
8.015920
  0
VERTEX
  8
0
  6
CONTINUOUS
 10
7.586480
 20
8.142640
  0
SEQEND
  8
0
  0
SOLID
  8
0
 62
    15
 10
7.628280
 20
8.015920
 11
8.279480
 21
8.393000
 12
7.640160
 22
7.881280
 13
8.291800
 23
8.258360
  0
POLYLINE
  8
0
  6
CONTINUOUS
 66
     1
 40
0.000000
 41
0.000000
  0
VERTEX
  8
0
  6
CONTINUOUS
 10
7.628280
 20
8.015920
  0
VERTEX
  8
0
  6
CONTINUOUS
 10
8.279480
 20
8.393000
  0
VERTEX
  8
0
  6
CONTINUOUS
 10
8.291800
 20
8.258360
  0
VERTEX
  8
0
  6
CONTINUOUS
 10
7.640160
 20
7.881280
  0
VERTEX
  8
0
  6
CONTINUOUS
 10
7.628280
 20
8.015920
  0
SEQEND
  8
0
  0
SOLID
  8
0
 62
    15
 10
7.640160
 20
7.881280
 11
8.291800
 21
8.258360
 12
7.623880
 22
7.791080
 13
8.275520
 23
8.168160
  0
POLYLINE
  8
0
  6
CONTINUOUS
 66
     1
 40
0.000000
 41
0.000000
  0
VERTEX
  8
0
  6
CONTINUOUS
 10
7.640160
 20
7.881280
  0
VERTEX
  8
0
  6
CONTINUOUS
 10
8.291800
 20
8.258360
  0
VERTEX
  8
0
  6
CONTINUOUS
 10
8.275520
 20
8.168160
  0
VERTEX
  8
0
  6
CONTINUOUS
 10
7.623880
 20
7.791080
  0
VERTEX
  8
0
  6
CONTINUOUS
 10
7.640160
 20
7.881280
  0
SEQEND
  8
0
  0
SOLID
  8
0
 62
    15
 10
7.623880
 20
7.791080
 11
8.275520
 21
8.168160
 12
7.583840
 22
7.695160
 13
8.235040
 23
8.072240
  0
POLYLINE
  8
0
  6
CONTINUOUS
 66
     1
 40
0.000000
 41
0.000000
  0
VERTEX
  8
0
  6
CONTINUOUS
 10
7.623880
 20
7.791080
  0
VERTEX
  8
0
  6
CONTINUOUS
 10
8.275520
 20
8.168160
  0
VERTEX
  8
0
  6
CONTINUOUS
 10
8.235040
 20
8.072240
  0
VERTEX
  8
0
  6
CONTINUOUS
 10
7.583840
 20
7.695160
  0
VERTEX
  8
0
  6
CONTINUOUS
 10
7.623880
 20
7.791080
  0
SEQEND
  8
0
  0
SOLID
  8
0
 62
    15
 10
7.583840
 20
7.695160
 11
8.235040
 21
8.072240
 12
7.450080
 22
7.491440
 13
8.101720
 23
7.868520
  0
POLYLINE
  8
0
  6
CONTINUOUS
 66
     1
 40
0.000000
 41
0.000000
  0
VERTEX
  8
0
  6
CONTINUOUS
 10
7.583840
 20
7.695160
  0
VERTEX
  8
0
  6
CONTINUOUS
 10
8.235040
 20
8.072240
  0
VERTEX
  8
0
  6
CONTINUOUS
 10
8.101720
 20
7.868520
  0
VERTEX
  8
0
  6
CONTINUOUS
 10
7.450080
 20
7.491440
  0
VERTEX
  8
0
  6
CONTINUOUS
 10
7.583840
 20
7.695160
  0
SEQEND
  8
0
  0
SOLID
  8
0
 62
    15
 10
7.450080
 20
7.491440
 11
8.101720
 21
7.868520
 12
7.113480
 22
7.072560
 13
7.765120
 23
7.449640
  0
POLYLINE
  8
0
  6
CONTINUOUS
 66
     1
 40
0.000000
 41
0.000000
  0
VERTEX
  8
0
  6
CONTINUOUS
 10
7.450080
 20
7.491440
  0
VERTEX
  8
0
  6
CONTINUOUS
 10
8.101720
 20
7.868520
  0
VERTEX
  8
0
  6
CONTINUOUS
 10
7.765120
 20
7.449640
  0
VERTEX
  8
0
  6
CONTINUOUS
 10
7.113480
 20
7.072560
  0
VERTEX
  8
0
  6
CONTINUOUS
 10
7.450080
 20
7.491440
  0
SEQEND
  8
0
  0
SOLID
  8
0
 62
    15
 10
7.113480
 20
7.072560
 11
7.765120
 21
7.449640
 12
7.009640
 22
6.886880
 13
7.661280
 23
7.263960
  0
POLYLINE
  8
0
  6
CONTINUOUS
 66
     1
 40
0.000000
 41
0.000000
  0
VERTEX
  8
0
  6
CONTINUOUS
 10
7.113480
 20
7.072560
  0
VERTEX
  8
0
  6
CONTINUOUS
 10
7.765120
 20
7.449640
  0
VERTEX
  8
0
  6
CONTINUOUS
 10
7.661280
 20
7.263960
  0
VERTEX
  8
0
  6
CONTINUOUS
 10
7.009640
 20
6.886880
  0
VERTEX
  8
0
  6
CONTINUOUS
 10
7.113480
 20
7.072560
  0
SEQEND
  8
0
  0
SOLID
  8
0
 62
    15
 10
5.697120
 20
9.029240
 11
6.348320
 21
9.406320
 12
5.815920
 22
9.024400
 13
6.467560
 23
9.401480
  0
POLYLINE
  8
0
  6
CONTINUOUS
 66
     1
 40
0.000000
 41
0.000000
  0
VERTEX
  8
0
  6
CONTINUOUS
 10
5.697120
 20
9.029240
  0
VERTEX
  8
0
  6
CONTINUOUS
 10
6.348320
 20
9.406320
  0
VERTEX
  8
0
  6
CONTINUOUS
 10
6.467560
 20
9.401480
  0
VERTEX
  8
0
  6
CONTINUOUS
 10
5.815920
 20
9.024400
  0
VERTEX
  8
0
  6
CONTINUOUS
 10
5.697120
 20
9.029240
  0
SEQEND
  8
0
  0
SOLID
  8
0
 62
    15
 10
6.942760
 20
6.674360
 11
7.594400
 21
7.051000
 12
6.905800
 22
6.450400
 13
7.557440
 23
6.827480
  0
POLYLINE
  8
0
  6
CONTINUOUS
 66
     1
 40
0.000000
 41
0.000000
  0
VERTEX
  8
0
  6
CONTINUOUS
 10
6.942760
 20
6.674360
  0
VERTEX
  8
0
  6
CONTINUOUS
 10
7.594400
 20
7.051000
  0
VERTEX
  8
0
  6
CONTINUOUS
 10
7.557440
 20
6.827480
  0
VERTEX
  8
0
  6
CONTINUOUS
 10
6.905800
 20
6.450400
  0
VERTEX
  8
0
  6
CONTINUOUS
 10
6.942760
 20
6.674360
  0
SEQEND
  8
0
  0
SOLID
  8
0
 62
    15
 10
6.905800
 20
6.450400
 11
7.557440
 21
6.827480
 12
6.891720
 22
6.231720
 13
7.542920
 23
6.608800
  0
POLYLINE
  8
0
  6
CONTINUOUS
 66
     1
 40
0.000000
 41
0.000000
  0
VERTEX
  8
0
  6
CONTINUOUS
 10
6.905800
 20
6.450400
  0
VERTEX
  8
0
  6
CONTINUOUS
 10
7.557440
 20
6.827480
  0
VERTEX
  8
0
  6
CONTINUOUS
 10
7.542920
 20
6.608800
  0
VERTEX
  8
0
  6
CONTINUOUS
 10
6.891720
 20
6.231720
  0
VERTEX
  8
0
  6
CONTINUOUS
 10
6.905800
 20
6.450400
  0
SEQEND
  8
0
  0
SOLID
  8
0
 62
    15
 10
6.891720
 20
6.231720
 11
7.542920
 21
6.608800
 12
6.893040
 22
6.033720
 13
7.544240
 23
6.410800
  0
POLYLINE
  8
0
  6
CONTINUOUS
 66
     1
 40
0.000000
 41
0.000000
  0
VERTEX
  8
0
  6
CONTINUOUS
 10
6.891720
 20
6.231720
  0
VERTEX
  8
0
  6
CONTINUOUS
 10
7.542920
 20
6.608800
  0
VERTEX
  8
0
  6
CONTINUOUS
 10
7.544240
 20
6.410800
  0
VERTEX
  8
0
  6
CONTINUOUS
 10
6.893040
 20
6.033720
  0
VERTEX
  8
0
  6
CONTINUOUS
 10
6.891720
 20
6.231720
  0
SEQEND
  8
0
  0
SOLID
  8
0
 62
    15
 10
6.893040
 20
6.033720
 11
7.544240
 21
6.410800
 12
6.902720
 22
5.872680
 13
7.554360
 23
6.249320
  0
POLYLINE
  8
0
  6
CONTINUOUS
 66
     1
 40
0.000000
 41
0.000000
  0
VERTEX
  8
0
  6
CONTINUOUS
 10
6.893040
 20
6.033720
  0
VERTEX
  8
0
  6
CONTINUOUS
 10
7.544240
 20
6.410800
  0
VERTEX
  8
0
  6
CONTINUOUS
 10
7.554360
 20
6.249320
  0
VERTEX
  8
0
  6
CONTINUOUS
 10
6.902720
 20
5.872680
  0
VERTEX
  8
0
  6
CONTINUOUS
 10
6.893040
 20
6.033720
  0
SEQEND
  8
0
  0
SOLID
  8
0
 62
    15
 10
6.902720
 20
5.872680
 11
7.554360
 21
6.249320
 12
6.913720
 22
5.764000
 13
7.565360
 23
6.141080
  0
POLYLINE
  8
0
  6
CONTINUOUS
 66
     1
 40
0.000000
 41
0.000000
  0
VERTEX
  8
0
  6
CONTINUOUS
 10
6.902720
 20
5.872680
  0
VERTEX
  8
0
  6
CONTINUOUS
 10
7.554360
 20
6.249320
  0
VERTEX
  8
0
  6
CONTINUOUS
 10
7.565360
 20
6.141080
  0
VERTEX
  8
0
  6
CONTINUOUS
 10
6.913720
 20
5.764000
  0
VERTEX
  8
0
  6
CONTINUOUS
 10
6.902720
 20
5.872680
  0
SEQEND
  8
0
  0
SOLID
  8
0
 62
    15
 10
6.913720
 20
5.764000
 11
7.565360
 21
6.141080
 12
6.917680
 22
5.734520
 13
7.568880
 23
6.111600
  0
POLYLINE
  8
0
  6
CONTINUOUS
 66
     1
 40
0.000000
 41
0.000000
  0
VERTEX
  8
0
  6
CONTINUOUS
 10
6.913720
 20
5.764000
  0
VERTEX
  8
0
  6
CONTINUOUS
 10
7.565360
 20
6.141080
  0
VERTEX
  8
0
  6
CONTINUOUS
 10
7.568880
 20
6.111600
  0
VERTEX
  8
0
  6
CONTINUOUS
 10
6.917680
 20
5.734520
  0
VERTEX
  8
0
  6
CONTINUOUS
 10
6.913720
 20
5.764000
  0
SEQEND
  8
0
  0
SOLID
  8
0
 62
    15
 10
6.917680
 20
5.734520
 11
7.568880
 21
6.111600
 12
6.919000
 22
5.724400
 13
7.570640
 23
6.101480
  0
POLYLINE
  8
0
  6
CONTINUOUS
 66
     1
 40
0.000000
 41
0.000000
  0
VERTEX
  8
0
  6
CONTINUOUS
 10
6.917680
 20
5.734520
  0
VERTEX
  8
0
  6
CONTINUOUS
 10
7.568880
 20
6.111600
  0
VERTEX
  8
0
  6
CONTINUOUS
 10
7.570640
 20
6.101480
  0
VERTEX
  8
0
  6
CONTINUOUS
 10
6.919000
 20
5.724400
  0
VERTEX
  8
0
  6
CONTINUOUS
 10
6.917680
 20
5.734520
  0
SEQEND
  8
0
  0
SOLID
  8
0
 62
    15
 10
6.819120
 20
5.663240
 11
7.470760
 21
6.040320
 12
6.819120
 22
5.662800
 13
7.470320
 23
6.039880
  0
POLYLINE
  8
0
  6
CONTINUOUS
 66
     1
 40
0.000000
 41
0.000000
  0
VERTEX
  8
0
  6
CONTINUOUS
 10
6.819120
 20
5.663240
  0
VERTEX
  8
0
  6
CONTINUOUS
 10
7.470760
 20
6.040320
  0
VERTEX
  8
0
  6
CONTINUOUS
 10
7.470320
 20
6.039880
  0
VERTEX
  8
0
  6
CONTINUOUS
 10
6.819120
 20
5.662800
  0
VERTEX
  8
0
  6
CONTINUOUS
 10
6.819120
 20
5.663240
  0
SEQEND
  8
0
  0
SOLID
  8
0
 62
    15
 10
6.917240
 20
5.688760
 11
7.568440
 21
6.065840
 12
6.902280
 22
5.670720
 13
7.553480
 23
6.047800
  0
POLYLINE
  8
0
  6
CONTINUOUS
 66
     1
 40
0.000000
 41
0.000000
  0
VERTEX
  8
0
  6
CONTINUOUS
 10
6.917240
 20
5.688760
  0
VERTEX
  8
0
  6
CONTINUOUS
 10
7.568440
 20
6.065840
  0
VERTEX
  8
0
  6
CONTINUOUS
 10
7.553480
 20
6.047800
  0
VERTEX
  8
0
  6
CONTINUOUS
 10
6.902280
 20
5.670720
  0
VERTEX
  8
0
  6
CONTINUOUS
 10
6.917240
 20
5.688760
  0
SEQEND
  8
0
  0
SOLID
  8
0
 62
    15
 10
6.919000
 20
5.724400
 11
7.570640
 21
6.101480
 12
6.917240
 22
5.688760
 13
7.568440
 23
6.065840
  0
POLYLINE
  8
0
  6
CONTINUOUS
 66
     1
 40
0.000000
 41
0.000000
  0
VERTEX
  8
0
  6
CONTINUOUS
 10
6.919000
 20
5.724400
  0
VERTEX
  8
0
  6
CONTINUOUS
 10
7.570640
 20
6.101480
  0
VERTEX
  8
0
  6
CONTINUOUS
 10
7.568440
 20
6.065840
  0
VERTEX
  8
0
  6
CONTINUOUS
 10
6.917240
 20
5.688760
  0
VERTEX
  8
0
  6
CONTINUOUS
 10
6.919000
 20
5.724400
  0
SEQEND
  8
0
  0
SOLID
  8
0
 62
    15
 10
4.203760
 20
8.569000
 11
4.854960
 21
8.946080
 12
4.496360
 22
8.732240
 13
5.147560
 23
9.109320
  0
POLYLINE
  8
0
  6
CONTINUOUS
 66
     1
 40
0.000000
 41
0.000000
  0
VERTEX
  8
0
  6
CONTINUOUS
 10
4.203760
 20
8.569000
  0
VERTEX
  8
0
  6
CONTINUOUS
 10
4.854960
 20
8.946080
  0
VERTEX
  8
0
  6
CONTINUOUS
 10
5.147560
 20
9.109320
  0
VERTEX
  8
0
  6
CONTINUOUS
 10
4.496360
 20
8.732240
  0
VERTEX
  8
0
  6
CONTINUOUS
 10
4.203760
 20
8.569000
  0
SEQEND
  8
0
  0
SOLID
  8
0
 62
    15
 10
4.496360
 20
8.732240
 11
5.147560
 21
9.109320
 12
4.817120
 22
8.860720
 13
5.468760
 23
9.237800
  0
POLYLINE
  8
0
  6
CONTINUOUS
 66
     1
 40
0.000000
 41
0.000000
  0
VERTEX
  8
0
  6
CONTINUOUS
 10
4.496360
 20
8.732240
  0
VERTEX
  8
0
  6
CONTINUOUS
 10
5.147560
 20
9.109320
  0
VERTEX
  8
0
  6
CONTINUOUS
 10
5.468760
 20
9.237800
  0
VERTEX
  8
0
  6
CONTINUOUS
 10
4.817120
 20
8.860720
  0
VERTEX
  8
0
  6
CONTINUOUS
 10
4.496360
 20
8.732240
  0
SEQEND
  8
0
  0
SOLID
  8
0
 62
    15
 10
4.817120
 20
8.860720
 11
5.468760
 21
9.237800
 12
5.141400
 22
8.954000
 13
5.793040
 23
9.330640
  0
POLYLINE
  8
0
  6
CONTINUOUS
 66
     1
 40
0.000000
 41
0.000000
  0
VERTEX
  8
0
  6
CONTINUOUS
 10
4.817120
 20
8.860720
  0
VERTEX
  8
0
  6
CONTINUOUS
 10
5.468760
 20
9.237800
  0
VERTEX
  8
0
  6
CONTINUOUS
 10
5.793040
 20
9.330640
  0
VERTEX
  8
0
  6
CONTINUOUS
 10
5.141400
 20
8.954000
  0
VERTEX
  8
0
  6
CONTINUOUS
 10
4.817120
 20
8.860720
  0
SEQEND
  8
0
  0
SOLID
  8
0
 62
    15
 10
5.141400
 20
8.954000
 11
5.793040
 21
9.330640
 12
5.443240
 22
9.010320
 13
6.094440
 23
9.387400
  0
POLYLINE
  8
0
  6
CONTINUOUS
 66
     1
 40
0.000000
 41
0.000000
  0
VERTEX
  8
0
  6
CONTINUOUS
 10
5.141400
 20
8.954000
  0
VERTEX
  8
0
  6
CONTINUOUS
 10
5.793040
 20
9.330640
  0
VERTEX
  8
0
  6
CONTINUOUS
 10
6.094440
 20
9.387400
  0
VERTEX
  8
0
  6
CONTINUOUS
 10
5.443240
 20
9.010320
  0
VERTEX
  8
0
  6
CONTINUOUS
 10
5.141400
 20
8.954000
  0
SEQEND
  8
0
  0
SOLID
  8
0
 62
    15
 10
5.443240
 20
9.010320
 11
6.094440
 21
9.387400
 12
5.577440
 22
9.024840
 13
6.228640
 23
9.401480
  0
POLYLINE
  8
0
  6
CONTINUOUS
 66
     1
 40
0.000000
 41
0.000000
  0
VERTEX
  8
0
  6
CONTINUOUS
 10
5.443240
 20
9.010320
  0
VERTEX
  8
0
  6
CONTINUOUS
 10
6.094440
 20
9.387400
  0
VERTEX
  8
0
  6
CONTINUOUS
 10
6.228640
 20
9.401480
  0
VERTEX
  8
0
  6
CONTINUOUS
 10
5.577440
 20
9.024840
  0
VERTEX
  8
0
  6
CONTINUOUS
 10
5.443240
 20
9.010320
  0
SEQEND
  8
0
  0
SOLID
  8
0
 62
    15
 10
5.577440
 20
9.024840
 11
6.228640
 21
9.401480
 12
5.696680
 22
9.029240
 13
6.348320
 23
9.406320
  0
POLYLINE
  8
0
  6
CONTINUOUS
 66
     1
 40
0.000000
 41
0.000000
  0
VERTEX
  8
0
  6
CONTINUOUS
 10
5.577440
 20
9.024840
  0
VERTEX
  8
0
  6
CONTINUOUS
 10
6.228640
 20
9.401480
  0
VERTEX
  8
0
  6
CONTINUOUS
 10
6.348320
 20
9.406320
  0
VERTEX
  8
0
  6
CONTINUOUS
 10
5.696680
 20
9.029240
  0
VERTEX
  8
0
  6
CONTINUOUS
 10
5.577440
 20
9.024840
  0
SEQEND
  8
0
  0
SOLID
  8
0
 62
    15
 10
5.696680
 20
9.029240
 11
6.348320
 21
9.406320
 12
5.696680
 22
9.029240
 13
5.697120
 23
9.029240
  0
POLYLINE
  8
0
  6
CONTINUOUS
 66
     1
 40
0.000000
 41
0.000000
  0
VERTEX
  8
0
  6
CONTINUOUS
 10
5.696680
 20
9.029240
  0
VERTEX
  8
0
  6
CONTINUOUS
 10
6.348320
 20
9.406320
  0
VERTEX
  8
0
  6
CONTINUOUS
 10
5.697120
 20
9.029240
  0
VERTEX
  8
0
  6
CONTINUOUS
 10
5.696680
 20
9.029240
  0
SEQEND
  8
0
  0
POLYLINE
  8
0
  6
CONTINUOUS
 66
     1
 40
0.000000
 41
0.000000
  0
VERTEX
  8
0
  6
CONTINUOUS
 10
5.697120
 20
9.029240
  0
VERTEX
  8
0
  6
CONTINUOUS
 10
5.815920
 20
9.024400
  0
VERTEX
  8
0
  6
CONTINUOUS
 10
5.950560
 20
9.010320
  0
VERTEX
  8
0
  6
CONTINUOUS
 10
6.251960
 20
8.953560
  0
VERTEX
  8
0
  6
CONTINUOUS
 10
6.576240
 20
8.860720
  0
VERTEX
  8
0
  6
CONTINUOUS
 10
6.897000
 20
8.731800
  0
VERTEX
  8
0
  6
CONTINUOUS
 10
7.189600
 20
8.569000
  0
VERTEX
  8
0
  6
CONTINUOUS
 10
7.317200
 20
8.474840
  0
VERTEX
  8
0
  6
CONTINUOUS
 10
7.428080
 20
8.371880
  0
VERTEX
  8
0
  6
CONTINUOUS
 10
7.518720
 20
8.261440
  0
VERTEX
  8
0
  6
CONTINUOUS
 10
7.586480
 20
8.142640
  0
VERTEX
  8
0
  6
CONTINUOUS
 10
7.628280
 20
8.015920
  0
VERTEX
  8
0
  6
CONTINUOUS
 10
7.640160
 20
7.881280
  0
VERTEX
  8
0
  6
CONTINUOUS
 10
7.623880
 20
7.791080
  0
VERTEX
  8
0
  6
CONTINUOUS
 10
7.583840
 20
7.695160
  0
VERTEX
  8
0
  6
CONTINUOUS
 10
7.450080
 20
7.491440
  0
VERTEX
  8
0
  6
CONTINUOUS
 10
7.113480
 20
7.072560
  0
VERTEX
  8
0
  6
CONTINUOUS
 10
7.009640
 20
6.886880
  0
VERTEX
  8
0
  6
CONTINUOUS
 10
6.942760
 20
6.674360
  0
VERTEX
  8
0
  6
CONTINUOUS
 10
6.905800
 20
6.450400
  0
VERTEX
  8
0
  6
CONTINUOUS
 10
6.891720
 20
6.231720
  0
VERTEX
  8
0
  6
CONTINUOUS
 10
6.893040
 20
6.033720
  0
VERTEX
  8
0
  6
CONTINUOUS
 10
6.902720
 20
5.872680
  0
VERTEX
  8
0
  6
CONTINUOUS
 10
6.913720
 20
5.764000
  0
VERTEX
  8
0
  6
CONTINUOUS
 10
6.919000
 20
5.724400
  0
VERTEX
  8
0
  6
CONTINUOUS
 10
6.917240
 20
5.688760
  0
VERTEX
  8
0
  6
CONTINUOUS
 10
6.902280
 20
5.670720
  0
VERTEX
  8
0
  6
CONTINUOUS
 10
6.870600
 20
5.664120
  0
VERTEX
  8
0
  6
CONTINUOUS
 10
6.819120
 20
5.662800
  0
VERTEX
  8
0
  6
CONTINUOUS
 10
4.578200
 20
5.662800
  0
VERTEX
  8
0
  6
CONTINUOUS
 10
4.525840
 20
5.663680
  0
VERTEX
  8
0
  6
CONTINUOUS
 10
4.492840
 20
5.670720
  0
VERTEX
  8
0
  6
CONTINUOUS
 10
4.476560
 20
5.689200
  0
VERTEX
  8
0
  6
CONTINUOUS
 10
4.473920
 20
5.724840
  0
VERTEX
  8
0
  6
CONTINUOUS
 10
4.479200
 20
5.764440
  0
VERTEX
  8
0
  6
CONTINUOUS
 10
4.490200
 20
5.872680
  0
VERTEX
  8
0
  6
CONTINUOUS
 10
4.499880
 20
6.034160
  0
VERTEX
  8
0
  6
CONTINUOUS
 10
4.501200
 20
6.231720
  0
VERTEX
  8
0
  6
CONTINUOUS
 10
4.487120
 20
6.450840
  0
VERTEX
  8
0
  6
CONTINUOUS
 10
4.450160
 20
6.674360
  0
VERTEX
  8
0
  6
CONTINUOUS
 10
4.383280
 20
6.887320
  0
VERTEX
  8
0
  6
CONTINUOUS
 10
4.279440
 20
7.073000
  0
VERTEX
  8
0
  6
CONTINUOUS
 10
3.942840
 20
7.491880
  0
VERTEX
  8
0
  6
CONTINUOUS
 10
3.809080
 20
7.695600
  0
VERTEX
  8
0
  6
CONTINUOUS
 10
3.768600
 20
7.791520
  0
VERTEX
  8
0
  6
CONTINUOUS
 10
3.752760
 20
7.881720
  0
VERTEX
  8
0
  6
CONTINUOUS
 10
3.764640
 20
8.016360
  0
VERTEX
  8
0
  6
CONTINUOUS
 10
3.806440
 20
8.143080
  0
VERTEX
  8
0
  6
CONTINUOUS
 10
3.874200
 20
8.261880
  0
VERTEX
  8
0
  6
CONTINUOUS
 10
3.965280
 20
8.372320
  0
VERTEX
  8
0
  6
CONTINUOUS
 10
4.076160
 20
8.474840
  0
VERTEX
  8
0
  6
CONTINUOUS
 10
4.203760
 20
8.569000
  0
VERTEX
  8
0
  6
CONTINUOUS
 10
4.496360
 20
8.732240
  0
VERTEX
  8
0
  6
CONTINUOUS
 10
4.817120
 20
8.860720
  0
VERTEX
  8
0
  6
CONTINUOUS
 10
5.141400
 20
8.954000
  0
VERTEX
  8
0
  6
CONTINUOUS
 10
5.443240
 20
9.010320
  0
VERTEX
  8
0
  6
CONTINUOUS
 10
5.577440
 20
9.024840
  0
VERTEX
  8
0
  6
CONTINUOUS
 10
5.697120
 20
9.029240
  0
SEQEND
  8
0
  0
TEXT
  8
0
 10
5.680840
 20
5.339400
 40
0.137950
  1
BA  1244
 41
1.000000
  7
SN0
 71
     0
 72
     5
 11
6.364230
 21
5.339400
  0
TEXT
  8
0
 10
5.497360
 20
5.147560
 40
0.137950
  1
3-3/8" x 3-7/8"
 41
1.000000
  7
SN0
 71
     0
 72
     5
 11
6.549265
 21
5.147560
  0
TEXT
  8
0
 10
2.279200
 20
7.136800
 40
0.137950
  1
BA  1244
 41
1.000000
  7
SN0
 71
     0
 72
     5
 11
2.962590
 21
7.136800
  0
TEXT
  8
0
 10
2.095720
 20
6.944960
 40
0.137950
  1
3-3/8" x 3-7/8"
 41
1.000000
  7
SN0
 71
     0
 72
     5
 11
3.147625
 21
6.944960
  0
LINE
  8
0
  6
CONTINUOUS
 10
0.336600
 20
3.500200
 11
5.028760
 21
3.500200
  0
ENDSEC
  0
EOF
