  0
SECTION
  2
HEADER
  9
$ACADVER
  1
AC1006
  9
$EXTMIN
 10
2.033240
 20
1.492040
  9
$EXTMAX
 10
6.627720
 20
7.301800
  9
$LTSCALE
 40
0.044000
  9
$PDMODE
 70
    35
  9
$PDSIZE
 40
0.035200
  0
ENDSEC
  0
SECTION
  2
TABLES
  0
TABLE
  2
LTYPE
 70
     9
  0
LTYPE
  2
CONTINUOUS
 70
    64
  3
Solid line
 72
    65
 73
     0
 40
0.000000
  0
LTYPE
  2
DASHED
 70
    64
  3
__ __ __ __ __ __ __ __ __ __ __ __ __ __ __
 72
    65
 73
     2
 40
0.000330
 49
0.000220
 49
-0.000110
  0
LTYPE
  2
HIDDEN
 70
    64
  3
 _ _ _ _ _ _ _ _ _ _ _ _ _ _ _ _ _ _ _ _ _ _
 72
    65
 73
     2
 40
0.000165
 49
0.000110
 49
-0.000055
  0
LTYPE
  2
CENTER
 70
    64
  3
____ _ ____ _ ____ _ ____ _ ____ _ ____ _ ____
 72
    65
 73
     4
 40
0.000880
 49
0.000550
 49
-0.000110
 49
0.000110
 49
-0.000110
  0
LTYPE
  2
PHANTOM
 70
    64
  3
_____ _ _ _____ _ _ _____ _ _ _____ _ _ ____
 72
    65
 73
     6
 40
0.001100
 49
0.000550
 49
-0.000110
 49
0.000110
 49
-0.000110
 49
0.000110
 49
-0.000110
  0
LTYPE
  2
DOT
 70
    64
  3
...............................................
 72
    65
 73
     2
 40
0.000110
 49
0.000000
 49
-0.000110
  0
LTYPE
  2
DASHDOT
 70
    64
  3
__ . __ . __ . __ . __ . __ . __ . __ . __ . __
 72
    65
 73
     4
 40
0.000440
 49
0.000220
 49
-0.000110
 49
0.000000
 49
-0.000110
  0
LTYPE
  2
BORDER
 70
    64
  3
__ __ . __ __ . __ __ . __ __ . __ __ . __ __
 72
    65
 73
     6
 40
0.000770
 49
0.000220
 49
-0.000110
 49
0.000220
 49
-0.000110
 49
0.000000
 49
-0.000110
  0
LTYPE
  2
DIVIDE
 70
    64
  3
__ . . __ . . __ . . __ . . __ . . __ . . __
 72
    65
 73
     6
 40
0.000550
 49
0.000220
 49
-0.000110
 49
0.000000
 49
-0.000110
 49
0.000000
 49
-0.000110
  0
LTYPE
  2
DOTDOT
 70
    64
  3
 . .  . .  . .  . .  . .  . . 
 72
    65
 73
     5
 40
0.000242
 49
-0.000110
 49
0.000000
 49
-0.000110
 49
0.000000
 49
-0.000110
  0
ENDTAB
  0
TABLE
  2
STYLE
 70
     2
  0
STYLE
 70
     0
  2
SN0
 40
0.000000
 41
0.000440
 50
0.000000
 71
     0
 42
0.000000
  3
ROMAND
  0
STYLE
 70
    68
  2
SV0
 40
0.000000
 41
0.000440
 50
0.000000
 71
     0
 42
0.000000
  3
ROMAND
  0
ENDTAB
  0
TABLE
  2
LAYER
 70
     3
  0
LAYER
  2
FOREGROUND
 70
    64
 62
     7
  6
CONTINUOUS
  0
LAYER
  2
BACKGROUND
 70
    65
 62
    -7
  6
CONTINUOUS
  0
LAYER
  2
0
 70
    64
 62
     7
  6
CONTINUOUS
  0
ENDTAB
  0
ENDSEC
  0
SECTION
  2
ENTITIES
  0
POLYLINE
  8
FOREGROUND
  6
CONTINUOUS
 66
     1
 40
0.000000
 41
0.000000
  0
VERTEX
  8
FOREGROUND
  6
CONTINUOUS
 10
0.000000
 20
8.793840
  0
VERTEX
  8
FOREGROUND
  6
CONTINUOUS
 10
8.499920
 20
8.793840
  0
VERTEX
  8
FOREGROUND
  6
CONTINUOUS
 10
8.499920
 20
-2.206160
  0
VERTEX
  8
FOREGROUND
  6
CONTINUOUS
 10
0.000000
 20
-2.206160
  0
VERTEX
  8
FOREGROUND
  6
CONTINUOUS
 10
0.000000
 20
8.793840
  0
SEQEND
  8
0
  0
POLYLINE
  8
FOREGROUND
  6
CONTINUOUS
 66
     1
 40
0.000000
 41
0.000000
  0
VERTEX
  8
FOREGROUND
  6
CONTINUOUS
 10
0.000000
 20
8.793840
  0
VERTEX
  8
FOREGROUND
  6
CONTINUOUS
 10
8.499920
 20
8.793840
  0
VERTEX
  8
FOREGROUND
  6
CONTINUOUS
 10
8.499920
 20
-2.206160
  0
VERTEX
  8
FOREGROUND
  6
CONTINUOUS
 10
0.000000
 20
-2.206160
  0
VERTEX
  8
FOREGROUND
  6
CONTINUOUS
 10
0.000000
 20
8.793840
  0
SEQEND
  8
0
  0
TEXT
  8
0
 10
3.974080
 20
6.789640
 40
0.138205
  1
BA  1243
 41
1.000000
  7
SN0
 71
     0
 72
     5
 11
4.657017
 21
6.789640
  0
TEXT
  8
0
 10
3.818320
 20
6.597800
 40
0.138205
  1
3/4" x 4-9/16"
 41
1.000000
  7
SN0
 71
     0
 72
     5
 11
4.812079
 21
6.597800
  0
POLYLINE
  8
0
  6
CONTINUOUS
 66
     1
 40
0.000000
 41
0.000000
  0
VERTEX
  8
0
  6
CONTINUOUS
 10
5.482840
 20
2.970440
  0
VERTEX
  8
0
  6
CONTINUOUS
 10
3.221240
 20
2.970440
  0
VERTEX
  8
0
  6
CONTINUOUS
 10
3.215080
 20
3.006520
  0
VERTEX
  8
0
  6
CONTINUOUS
 10
3.206280
 20
3.038640
  0
VERTEX
  8
0
  6
CONTINUOUS
 10
3.193960
 20
3.067240
  0
VERTEX
  8
0
  6
CONTINUOUS
 10
3.179000
 20
3.092320
  0
VERTEX
  8
0
  6
CONTINUOUS
 10
3.161840
 20
3.113880
  0
VERTEX
  8
0
  6
CONTINUOUS
 10
3.131480
 20
3.141160
  0
VERTEX
  8
0
  6
CONTINUOUS
 10
3.097160
 20
3.162280
  0
VERTEX
  8
0
  6
CONTINUOUS
 10
3.072080
 20
3.173720
  0
VERTEX
  8
0
  6
CONTINUOUS
 10
3.045680
 20
3.182960
  0
VERTEX
  8
0
  6
CONTINUOUS
 10
2.990240
 20
3.196600
  0
VERTEX
  8
0
  6
CONTINUOUS
 10
2.932600
 20
3.204960
  0
VERTEX
  8
0
  6
CONTINUOUS
 10
2.874080
 20
3.209800
  0
VERTEX
  8
0
  6
CONTINUOUS
 10
2.868800
 20
3.312760
  0
VERTEX
  8
0
  6
CONTINUOUS
 10
2.076800
 20
3.312760
  0
VERTEX
  8
0
  6
CONTINUOUS
 10
2.078120
 20
3.312760
  0
VERTEX
  8
0
  6
CONTINUOUS
 10
2.078120
 20
2.565640
  0
VERTEX
  8
0
  6
CONTINUOUS
 10
6.627280
 20
2.565640
  0
VERTEX
  8
0
  6
CONTINUOUS
 10
6.627280
 20
3.312760
  0
VERTEX
  8
0
  6
CONTINUOUS
 10
5.835280
 20
3.312760
  0
VERTEX
  8
0
  6
CONTINUOUS
 10
5.830000
 20
3.209800
  0
VERTEX
  8
0
  6
CONTINUOUS
 10
5.771480
 20
3.204960
  0
VERTEX
  8
0
  6
CONTINUOUS
 10
5.713840
 20
3.196600
  0
VERTEX
  8
0
  6
CONTINUOUS
 10
5.685680
 20
3.190880
  0
VERTEX
  8
0
  6
CONTINUOUS
 10
5.658400
 20
3.183400
  0
VERTEX
  8
0
  6
CONTINUOUS
 10
5.606920
 20
3.162720
  0
VERTEX
  8
0
  6
CONTINUOUS
 10
5.572600
 20
3.141160
  0
VERTEX
  8
0
  6
CONTINUOUS
 10
5.542240
 20
3.113880
  0
VERTEX
  8
0
  6
CONTINUOUS
 10
5.525080
 20
3.092320
  0
VERTEX
  8
0
  6
CONTINUOUS
 10
5.510120
 20
3.067240
  0
VERTEX
  8
0
  6
CONTINUOUS
 10
5.497800
 20
3.038640
  0
VERTEX
  8
0
  6
CONTINUOUS
 10
5.489000
 20
3.006520
  0
VERTEX
  8
0
  6
CONTINUOUS
 10
5.482840
 20
2.970440
  0
SEQEND
  8
0
  0
TEXT
  8
0
 10
3.974080
 20
4.186160
 40
0.138205
  1
BA  1243
 41
1.000000
  7
SN0
 71
     0
 72
     5
 11
4.657017
 21
4.186160
  0
TEXT
  8
0
 10
3.818320
 20
3.994760
 40
0.138205
  1
3/4" x 4-9/16"
 41
1.000000
  7
SN0
 71
     0
 72
     5
 11
4.812079
 21
3.994760
  0
SOLID
  8
0
 62
    15
 10
2.041160
 20
4.444440
 11
2.040280
 21
5.184080
 12
2.041160
 22
5.190680
 13
2.040280
 23
5.930320
  0
POLYLINE
  8
0
  6
CONTINUOUS
 66
     1
 40
0.000000
 41
0.000000
  0
VERTEX
  8
0
  6
CONTINUOUS
 10
2.041160
 20
4.444440
  0
VERTEX
  8
0
  6
CONTINUOUS
 10
2.040280
 20
5.184080
  0
VERTEX
  8
0
  6
CONTINUOUS
 10
2.040280
 20
5.930320
  0
VERTEX
  8
0
  6
CONTINUOUS
 10
2.041160
 20
5.190680
  0
VERTEX
  8
0
  6
CONTINUOUS
 10
2.041160
 20
4.444440
  0
SEQEND
  8
0
  0
SOLID
  8
0
 62
    15
 10
5.452040
 20
4.884880
 11
5.451160
 21
5.624080
 12
5.461280
 22
4.917000
 13
5.460400
 23
5.656200
  0
POLYLINE
  8
0
  6
CONTINUOUS
 66
     1
 40
0.000000
 41
0.000000
  0
VERTEX
  8
0
  6
CONTINUOUS
 10
5.452040
 20
4.884880
  0
VERTEX
  8
0
  6
CONTINUOUS
 10
5.451160
 20
5.624080
  0
VERTEX
  8
0
  6
CONTINUOUS
 10
5.460400
 20
5.656200
  0
VERTEX
  8
0
  6
CONTINUOUS
 10
5.461280
 20
4.917000
  0
VERTEX
  8
0
  6
CONTINUOUS
 10
5.452040
 20
4.884880
  0
SEQEND
  8
0
  0
SOLID
  8
0
 62
    15
 10
5.461280
 20
4.917000
 11
5.460400
 21
5.656200
 12
5.473160
 22
4.945160
 13
5.472280
 23
5.684800
  0
POLYLINE
  8
0
  6
CONTINUOUS
 66
     1
 40
0.000000
 41
0.000000
  0
VERTEX
  8
0
  6
CONTINUOUS
 10
5.461280
 20
4.917000
  0
VERTEX
  8
0
  6
CONTINUOUS
 10
5.460400
 20
5.656200
  0
VERTEX
  8
0
  6
CONTINUOUS
 10
5.472280
 20
5.684800
  0
VERTEX
  8
0
  6
CONTINUOUS
 10
5.473160
 20
4.945160
  0
VERTEX
  8
0
  6
CONTINUOUS
 10
5.461280
 20
4.917000
  0
SEQEND
  8
0
  0
SOLID
  8
0
 62
    15
 10
5.473160
 20
4.945160
 11
5.472280
 21
5.684800
 12
5.488120
 22
4.970240
 13
5.487240
 23
5.709880
  0
POLYLINE
  8
0
  6
CONTINUOUS
 66
     1
 40
0.000000
 41
0.000000
  0
VERTEX
  8
0
  6
CONTINUOUS
 10
5.473160
 20
4.945160
  0
VERTEX
  8
0
  6
CONTINUOUS
 10
5.472280
 20
5.684800
  0
VERTEX
  8
0
  6
CONTINUOUS
 10
5.487240
 20
5.709880
  0
VERTEX
  8
0
  6
CONTINUOUS
 10
5.488120
 20
4.970240
  0
VERTEX
  8
0
  6
CONTINUOUS
 10
5.473160
 20
4.945160
  0
SEQEND
  8
0
  0
SOLID
  8
0
 62
    15
 10
5.488120
 20
4.970240
 11
5.487240
 21
5.709880
 12
5.505720
 22
4.992240
 13
5.504400
 23
5.731440
  0
POLYLINE
  8
0
  6
CONTINUOUS
 66
     1
 40
0.000000
 41
0.000000
  0
VERTEX
  8
0
  6
CONTINUOUS
 10
5.488120
 20
4.970240
  0
VERTEX
  8
0
  6
CONTINUOUS
 10
5.487240
 20
5.709880
  0
VERTEX
  8
0
  6
CONTINUOUS
 10
5.504400
 20
5.731440
  0
VERTEX
  8
0
  6
CONTINUOUS
 10
5.505720
 20
4.992240
  0
VERTEX
  8
0
  6
CONTINUOUS
 10
5.488120
 20
4.970240
  0
SEQEND
  8
0
  0
SOLID
  8
0
 62
    15
 10
5.505720
 20
4.992240
 11
5.504400
 21
5.731440
 12
5.525080
 22
5.010720
 13
5.524200
 23
5.750360
  0
POLYLINE
  8
0
  6
CONTINUOUS
 66
     1
 40
0.000000
 41
0.000000
  0
VERTEX
  8
0
  6
CONTINUOUS
 10
5.505720
 20
4.992240
  0
VERTEX
  8
0
  6
CONTINUOUS
 10
5.504400
 20
5.731440
  0
VERTEX
  8
0
  6
CONTINUOUS
 10
5.524200
 20
5.750360
  0
VERTEX
  8
0
  6
CONTINUOUS
 10
5.525080
 20
5.010720
  0
VERTEX
  8
0
  6
CONTINUOUS
 10
5.505720
 20
4.992240
  0
SEQEND
  8
0
  0
SOLID
  8
0
 62
    15
 10
5.525080
 20
5.010720
 11
5.524200
 21
5.750360
 12
5.570400
 22
5.040640
 13
5.569080
 23
5.780280
  0
POLYLINE
  8
0
  6
CONTINUOUS
 66
     1
 40
0.000000
 41
0.000000
  0
VERTEX
  8
0
  6
CONTINUOUS
 10
5.525080
 20
5.010720
  0
VERTEX
  8
0
  6
CONTINUOUS
 10
5.524200
 20
5.750360
  0
VERTEX
  8
0
  6
CONTINUOUS
 10
5.569080
 20
5.780280
  0
VERTEX
  8
0
  6
CONTINUOUS
 10
5.570400
 20
5.040640
  0
VERTEX
  8
0
  6
CONTINUOUS
 10
5.525080
 20
5.010720
  0
SEQEND
  8
0
  0
SOLID
  8
0
 62
    15
 10
5.570400
 20
5.040640
 11
5.569080
 21
5.780280
 12
5.621440
 22
5.061320
 13
5.620560
 23
5.800520
  0
POLYLINE
  8
0
  6
CONTINUOUS
 66
     1
 40
0.000000
 41
0.000000
  0
VERTEX
  8
0
  6
CONTINUOUS
 10
5.570400
 20
5.040640
  0
VERTEX
  8
0
  6
CONTINUOUS
 10
5.569080
 20
5.780280
  0
VERTEX
  8
0
  6
CONTINUOUS
 10
5.620560
 20
5.800520
  0
VERTEX
  8
0
  6
CONTINUOUS
 10
5.621440
 20
5.061320
  0
VERTEX
  8
0
  6
CONTINUOUS
 10
5.570400
 20
5.040640
  0
SEQEND
  8
0
  0
SOLID
  8
0
 62
    15
 10
5.621440
 20
5.061320
 11
5.620560
 21
5.800520
 12
5.676880
 22
5.074520
 13
5.676000
 23
5.814160
  0
POLYLINE
  8
0
  6
CONTINUOUS
 66
     1
 40
0.000000
 41
0.000000
  0
VERTEX
  8
0
  6
CONTINUOUS
 10
5.621440
 20
5.061320
  0
VERTEX
  8
0
  6
CONTINUOUS
 10
5.620560
 20
5.800520
  0
VERTEX
  8
0
  6
CONTINUOUS
 10
5.676000
 20
5.814160
  0
VERTEX
  8
0
  6
CONTINUOUS
 10
5.676880
 20
5.074520
  0
VERTEX
  8
0
  6
CONTINUOUS
 10
5.621440
 20
5.061320
  0
SEQEND
  8
0
  0
SOLID
  8
0
 62
    15
 10
5.676880
 20
5.074520
 11
5.676000
 21
5.814160
 12
5.793040
 22
5.087720
 13
5.792160
 23
5.827360
  0
POLYLINE
  8
0
  6
CONTINUOUS
 66
     1
 40
0.000000
 41
0.000000
  0
VERTEX
  8
0
  6
CONTINUOUS
 10
5.676880
 20
5.074520
  0
VERTEX
  8
0
  6
CONTINUOUS
 10
5.676000
 20
5.814160
  0
VERTEX
  8
0
  6
CONTINUOUS
 10
5.792160
 20
5.827360
  0
VERTEX
  8
0
  6
CONTINUOUS
 10
5.793040
 20
5.087720
  0
VERTEX
  8
0
  6
CONTINUOUS
 10
5.676880
 20
5.074520
  0
SEQEND
  8
0
  0
SOLID
  8
0
 62
    15
 10
5.793040
 20
5.087720
 11
5.792160
 21
5.827360
 12
5.798320
 22
5.190680
 13
5.797440
 23
5.930320
  0
POLYLINE
  8
0
  6
CONTINUOUS
 66
     1
 40
0.000000
 41
0.000000
  0
VERTEX
  8
0
  6
CONTINUOUS
 10
5.793040
 20
5.087720
  0
VERTEX
  8
0
  6
CONTINUOUS
 10
5.792160
 20
5.827360
  0
VERTEX
  8
0
  6
CONTINUOUS
 10
5.797440
 20
5.930320
  0
VERTEX
  8
0
  6
CONTINUOUS
 10
5.798320
 20
5.190680
  0
VERTEX
  8
0
  6
CONTINUOUS
 10
5.793040
 20
5.087720
  0
SEQEND
  8
0
  0
SOLID
  8
0
 62
    15
 10
5.798320
 20
5.190680
 11
5.797440
 21
5.930320
 12
6.590760
 22
5.190680
 13
6.589440
 23
5.930320
  0
POLYLINE
  8
0
  6
CONTINUOUS
 66
     1
 40
0.000000
 41
0.000000
  0
VERTEX
  8
0
  6
CONTINUOUS
 10
5.798320
 20
5.190680
  0
VERTEX
  8
0
  6
CONTINUOUS
 10
5.797440
 20
5.930320
  0
VERTEX
  8
0
  6
CONTINUOUS
 10
6.589440
 20
5.930320
  0
VERTEX
  8
0
  6
CONTINUOUS
 10
6.590760
 20
5.190680
  0
VERTEX
  8
0
  6
CONTINUOUS
 10
5.798320
 20
5.190680
  0
SEQEND
  8
0
  0
SOLID
  8
0
 62
    15
 10
2.041160
 20
5.190680
 11
2.040280
 21
5.930320
 12
2.831840
 22
5.190680
 13
2.830960
 23
5.930320
  0
POLYLINE
  8
0
  6
CONTINUOUS
 66
     1
 40
0.000000
 41
0.000000
  0
VERTEX
  8
0
  6
CONTINUOUS
 10
2.041160
 20
5.190680
  0
VERTEX
  8
0
  6
CONTINUOUS
 10
2.040280
 20
5.930320
  0
VERTEX
  8
0
  6
CONTINUOUS
 10
2.830960
 20
5.930320
  0
VERTEX
  8
0
  6
CONTINUOUS
 10
2.831840
 20
5.190680
  0
VERTEX
  8
0
  6
CONTINUOUS
 10
2.041160
 20
5.190680
  0
SEQEND
  8
0
  0
SOLID
  8
0
 62
    15
 10
5.446320
 20
4.848360
 11
5.445000
 21
5.588000
 12
5.452040
 22
4.884880
 13
5.451160
 23
5.624080
  0
POLYLINE
  8
0
  6
CONTINUOUS
 66
     1
 40
0.000000
 41
0.000000
  0
VERTEX
  8
0
  6
CONTINUOUS
 10
5.446320
 20
4.848360
  0
VERTEX
  8
0
  6
CONTINUOUS
 10
5.445000
 20
5.588000
  0
VERTEX
  8
0
  6
CONTINUOUS
 10
5.451160
 20
5.624080
  0
VERTEX
  8
0
  6
CONTINUOUS
 10
5.452040
 20
4.884880
  0
VERTEX
  8
0
  6
CONTINUOUS
 10
5.446320
 20
4.848360
  0
SEQEND
  8
0
  0
SOLID
  8
0
 62
    15
 10
2.831840
 20
5.190680
 11
2.830960
 21
5.930320
 12
2.837120
 22
5.087720
 13
2.836240
 23
5.827360
  0
POLYLINE
  8
0
  6
CONTINUOUS
 66
     1
 40
0.000000
 41
0.000000
  0
VERTEX
  8
0
  6
CONTINUOUS
 10
2.831840
 20
5.190680
  0
VERTEX
  8
0
  6
CONTINUOUS
 10
2.830960
 20
5.930320
  0
VERTEX
  8
0
  6
CONTINUOUS
 10
2.836240
 20
5.827360
  0
VERTEX
  8
0
  6
CONTINUOUS
 10
2.837120
 20
5.087720
  0
VERTEX
  8
0
  6
CONTINUOUS
 10
2.831840
 20
5.190680
  0
SEQEND
  8
0
  0
SOLID
  8
0
 62
    15
 10
2.837120
 20
5.087720
 11
2.836240
 21
5.827360
 12
2.953280
 22
5.074520
 13
2.952400
 23
5.814160
  0
POLYLINE
  8
0
  6
CONTINUOUS
 66
     1
 40
0.000000
 41
0.000000
  0
VERTEX
  8
0
  6
CONTINUOUS
 10
2.837120
 20
5.087720
  0
VERTEX
  8
0
  6
CONTINUOUS
 10
2.836240
 20
5.827360
  0
VERTEX
  8
0
  6
CONTINUOUS
 10
2.952400
 20
5.814160
  0
VERTEX
  8
0
  6
CONTINUOUS
 10
2.953280
 20
5.074520
  0
VERTEX
  8
0
  6
CONTINUOUS
 10
2.837120
 20
5.087720
  0
SEQEND
  8
0
  0
SOLID
  8
0
 62
    15
 10
2.953280
 20
5.074520
 11
2.952400
 21
5.814160
 12
3.008720
 22
5.060880
 13
3.007840
 23
5.800520
  0
POLYLINE
  8
0
  6
CONTINUOUS
 66
     1
 40
0.000000
 41
0.000000
  0
VERTEX
  8
0
  6
CONTINUOUS
 10
2.953280
 20
5.074520
  0
VERTEX
  8
0
  6
CONTINUOUS
 10
2.952400
 20
5.814160
  0
VERTEX
  8
0
  6
CONTINUOUS
 10
3.007840
 20
5.800520
  0
VERTEX
  8
0
  6
CONTINUOUS
 10
3.008720
 20
5.060880
  0
VERTEX
  8
0
  6
CONTINUOUS
 10
2.953280
 20
5.074520
  0
SEQEND
  8
0
  0
SOLID
  8
0
 62
    15
 10
3.008720
 20
5.060880
 11
3.007840
 21
5.800520
 12
3.060200
 22
5.040200
 13
3.059320
 23
5.779840
  0
POLYLINE
  8
0
  6
CONTINUOUS
 66
     1
 40
0.000000
 41
0.000000
  0
VERTEX
  8
0
  6
CONTINUOUS
 10
3.008720
 20
5.060880
  0
VERTEX
  8
0
  6
CONTINUOUS
 10
3.007840
 20
5.800520
  0
VERTEX
  8
0
  6
CONTINUOUS
 10
3.059320
 20
5.779840
  0
VERTEX
  8
0
  6
CONTINUOUS
 10
3.060200
 20
5.040200
  0
VERTEX
  8
0
  6
CONTINUOUS
 10
3.008720
 20
5.060880
  0
SEQEND
  8
0
  0
SOLID
  8
0
 62
    15
 10
3.060200
 20
5.040200
 11
3.059320
 21
5.779840
 12
3.105080
 22
5.010720
 13
3.104200
 23
5.750360
  0
POLYLINE
  8
0
  6
CONTINUOUS
 66
     1
 40
0.000000
 41
0.000000
  0
VERTEX
  8
0
  6
CONTINUOUS
 10
3.060200
 20
5.040200
  0
VERTEX
  8
0
  6
CONTINUOUS
 10
3.059320
 20
5.779840
  0
VERTEX
  8
0
  6
CONTINUOUS
 10
3.104200
 20
5.750360
  0
VERTEX
  8
0
  6
CONTINUOUS
 10
3.105080
 20
5.010720
  0
VERTEX
  8
0
  6
CONTINUOUS
 10
3.060200
 20
5.040200
  0
SEQEND
  8
0
  0
SOLID
  8
0
 62
    15
 10
3.105080
 20
5.010720
 11
3.104200
 21
5.750360
 12
3.124880
 22
4.991800
 13
3.124000
 23
5.731440
  0
POLYLINE
  8
0
  6
CONTINUOUS
 66
     1
 40
0.000000
 41
0.000000
  0
VERTEX
  8
0
  6
CONTINUOUS
 10
3.105080
 20
5.010720
  0
VERTEX
  8
0
  6
CONTINUOUS
 10
3.104200
 20
5.750360
  0
VERTEX
  8
0
  6
CONTINUOUS
 10
3.124000
 20
5.731440
  0
VERTEX
  8
0
  6
CONTINUOUS
 10
3.124880
 20
4.991800
  0
VERTEX
  8
0
  6
CONTINUOUS
 10
3.105080
 20
5.010720
  0
SEQEND
  8
0
  0
SOLID
  8
0
 62
    15
 10
3.124880
 20
4.991800
 11
3.124000
 21
5.731440
 12
3.142040
 22
4.970240
 13
3.141160
 23
5.709440
  0
POLYLINE
  8
0
  6
CONTINUOUS
 66
     1
 40
0.000000
 41
0.000000
  0
VERTEX
  8
0
  6
CONTINUOUS
 10
3.124880
 20
4.991800
  0
VERTEX
  8
0
  6
CONTINUOUS
 10
3.124000
 20
5.731440
  0
VERTEX
  8
0
  6
CONTINUOUS
 10
3.141160
 20
5.709440
  0
VERTEX
  8
0
  6
CONTINUOUS
 10
3.142040
 20
4.970240
  0
VERTEX
  8
0
  6
CONTINUOUS
 10
3.124880
 20
4.991800
  0
SEQEND
  8
0
  0
SOLID
  8
0
 62
    15
 10
3.142040
 20
4.970240
 11
3.141160
 21
5.709440
 12
3.157000
 22
4.945160
 13
3.156120
 23
5.684800
  0
POLYLINE
  8
0
  6
CONTINUOUS
 66
     1
 40
0.000000
 41
0.000000
  0
VERTEX
  8
0
  6
CONTINUOUS
 10
3.142040
 20
4.970240
  0
VERTEX
  8
0
  6
CONTINUOUS
 10
3.141160
 20
5.709440
  0
VERTEX
  8
0
  6
CONTINUOUS
 10
3.156120
 20
5.684800
  0
VERTEX
  8
0
  6
CONTINUOUS
 10
3.157000
 20
4.945160
  0
VERTEX
  8
0
  6
CONTINUOUS
 10
3.142040
 20
4.970240
  0
SEQEND
  8
0
  0
SOLID
  8
0
 62
    15
 10
3.157000
 20
4.945160
 11
3.156120
 21
5.684800
 12
3.169320
 22
4.916560
 13
3.168440
 23
5.656200
  0
POLYLINE
  8
0
  6
CONTINUOUS
 66
     1
 40
0.000000
 41
0.000000
  0
VERTEX
  8
0
  6
CONTINUOUS
 10
3.157000
 20
4.945160
  0
VERTEX
  8
0
  6
CONTINUOUS
 10
3.156120
 20
5.684800
  0
VERTEX
  8
0
  6
CONTINUOUS
 10
3.168440
 20
5.656200
  0
VERTEX
  8
0
  6
CONTINUOUS
 10
3.169320
 20
4.916560
  0
VERTEX
  8
0
  6
CONTINUOUS
 10
3.157000
 20
4.945160
  0
SEQEND
  8
0
  0
SOLID
  8
0
 62
    15
 10
3.169320
 20
4.916560
 11
3.168440
 21
5.656200
 12
3.178560
 22
4.884440
 13
3.177680
 23
5.624080
  0
POLYLINE
  8
0
  6
CONTINUOUS
 66
     1
 40
0.000000
 41
0.000000
  0
VERTEX
  8
0
  6
CONTINUOUS
 10
3.169320
 20
4.916560
  0
VERTEX
  8
0
  6
CONTINUOUS
 10
3.168440
 20
5.656200
  0
VERTEX
  8
0
  6
CONTINUOUS
 10
3.177680
 20
5.624080
  0
VERTEX
  8
0
  6
CONTINUOUS
 10
3.178560
 20
4.884440
  0
VERTEX
  8
0
  6
CONTINUOUS
 10
3.169320
 20
4.916560
  0
SEQEND
  8
0
  0
SOLID
  8
0
 62
    15
 10
3.178560
 20
4.884440
 11
3.177680
 21
5.624080
 12
3.184720
 22
4.848360
 13
3.183840
 23
5.588000
  0
POLYLINE
  8
0
  6
CONTINUOUS
 66
     1
 40
0.000000
 41
0.000000
  0
VERTEX
  8
0
  6
CONTINUOUS
 10
3.178560
 20
4.884440
  0
VERTEX
  8
0
  6
CONTINUOUS
 10
3.177680
 20
5.624080
  0
VERTEX
  8
0
  6
CONTINUOUS
 10
3.183840
 20
5.588000
  0
VERTEX
  8
0
  6
CONTINUOUS
 10
3.184720
 20
4.848360
  0
VERTEX
  8
0
  6
CONTINUOUS
 10
3.178560
 20
4.884440
  0
SEQEND
  8
0
  0
SOLID
  8
0
 62
    15
 10
3.184720
 20
4.848360
 11
3.183840
 21
5.588000
 12
5.446320
 22
4.848360
 13
5.445000
 23
5.588000
  0
POLYLINE
  8
0
  6
CONTINUOUS
 66
     1
 40
0.000000
 41
0.000000
  0
VERTEX
  8
0
  6
CONTINUOUS
 10
3.184720
 20
4.848360
  0
VERTEX
  8
0
  6
CONTINUOUS
 10
3.183840
 20
5.588000
  0
VERTEX
  8
0
  6
CONTINUOUS
 10
5.445000
 20
5.588000
  0
VERTEX
  8
0
  6
CONTINUOUS
 10
5.446320
 20
4.848360
  0
VERTEX
  8
0
  6
CONTINUOUS
 10
3.184720
 20
4.848360
  0
SEQEND
  8
0
  0
POLYLINE
  8
0
  6
CONTINUOUS
 66
     1
 40
0.000000
 41
0.000000
  0
VERTEX
  8
0
  6
CONTINUOUS
 10
5.446320
 20
4.848360
  0
VERTEX
  8
0
  6
CONTINUOUS
 10
5.445000
 20
5.588000
  0
VERTEX
  8
0
  6
CONTINUOUS
 10
5.446320
 20
4.848360
  0
SEQEND
  8
0
  0
POLYLINE
  8
0
  6
CONTINUOUS
 66
     1
 40
0.000000
 41
0.000000
  0
VERTEX
  8
0
  6
CONTINUOUS
 10
5.446320
 20
4.848360
  0
VERTEX
  8
0
  6
CONTINUOUS
 10
5.452040
 20
4.884880
  0
VERTEX
  8
0
  6
CONTINUOUS
 10
5.461280
 20
4.917000
  0
VERTEX
  8
0
  6
CONTINUOUS
 10
5.473160
 20
4.945160
  0
VERTEX
  8
0
  6
CONTINUOUS
 10
5.488120
 20
4.970240
  0
VERTEX
  8
0
  6
CONTINUOUS
 10
5.505720
 20
4.992240
  0
VERTEX
  8
0
  6
CONTINUOUS
 10
5.525080
 20
5.010720
  0
VERTEX
  8
0
  6
CONTINUOUS
 10
5.570400
 20
5.040640
  0
VERTEX
  8
0
  6
CONTINUOUS
 10
5.621440
 20
5.061320
  0
VERTEX
  8
0
  6
CONTINUOUS
 10
5.676880
 20
5.074520
  0
VERTEX
  8
0
  6
CONTINUOUS
 10
5.793040
 20
5.087720
  0
VERTEX
  8
0
  6
CONTINUOUS
 10
5.798320
 20
5.190680
  0
VERTEX
  8
0
  6
CONTINUOUS
 10
6.590760
 20
5.190680
  0
VERTEX
  8
0
  6
CONTINUOUS
 10
6.590760
 20
4.443560
  0
VERTEX
  8
0
  6
CONTINUOUS
 10
2.041600
 20
4.443560
  0
VERTEX
  8
0
  6
CONTINUOUS
 10
2.041160
 20
4.444440
  0
VERTEX
  8
0
  6
CONTINUOUS
 10
2.041160
 20
5.190680
  0
VERTEX
  8
0
  6
CONTINUOUS
 10
2.831840
 20
5.190680
  0
VERTEX
  8
0
  6
CONTINUOUS
 10
2.837120
 20
5.087720
  0
VERTEX
  8
0
  6
CONTINUOUS
 10
2.953280
 20
5.074520
  0
VERTEX
  8
0
  6
CONTINUOUS
 10
3.008720
 20
5.060880
  0
VERTEX
  8
0
  6
CONTINUOUS
 10
3.060200
 20
5.040200
  0
VERTEX
  8
0
  6
CONTINUOUS
 10
3.105080
 20
5.010720
  0
VERTEX
  8
0
  6
CONTINUOUS
 10
3.124880
 20
4.991800
  0
VERTEX
  8
0
  6
CONTINUOUS
 10
3.142040
 20
4.970240
  0
VERTEX
  8
0
  6
CONTINUOUS
 10
3.157000
 20
4.945160
  0
VERTEX
  8
0
  6
CONTINUOUS
 10
3.169320
 20
4.916560
  0
VERTEX
  8
0
  6
CONTINUOUS
 10
3.178560
 20
4.884440
  0
VERTEX
  8
0
  6
CONTINUOUS
 10
3.184720
 20
4.848360
  0
VERTEX
  8
0
  6
CONTINUOUS
 10
5.446320
 20
4.848360
  0
SEQEND
  8
0
  0
POLYLINE
  8
0
  6
CONTINUOUS
 66
     1
 40
0.014080
 41
0.014080
  0
VERTEX
  8
0
  6
CONTINUOUS
 10
5.445880
 20
6.952000
  0
VERTEX
  8
0
  6
CONTINUOUS
 10
3.184280
 20
6.952000
  0
VERTEX
  8
0
  6
CONTINUOUS
 10
3.178120
 20
6.988080
  0
VERTEX
  8
0
  6
CONTINUOUS
 10
3.168880
 20
7.020200
  0
VERTEX
  8
0
  6
CONTINUOUS
 10
3.156560
 20
7.048800
  0
VERTEX
  8
0
  6
CONTINUOUS
 10
3.142040
 20
7.073880
  0
VERTEX
  8
0
  6
CONTINUOUS
 10
3.114760
 20
7.105120
  0
VERTEX
  8
0
  6
CONTINUOUS
 10
3.083080
 20
7.130640
  0
VERTEX
  8
0
  6
CONTINUOUS
 10
3.047440
 20
7.150000
  0
VERTEX
  8
0
  6
CONTINUOUS
 10
3.008280
 20
7.164960
  0
VERTEX
  8
0
  6
CONTINUOUS
 10
2.981000
 20
7.172440
  0
VERTEX
  8
0
  6
CONTINUOUS
 10
2.924240
 20
7.183000
  0
VERTEX
  8
0
  6
CONTINUOUS
 10
2.865720
 20
7.189160
  0
VERTEX
  8
0
  6
CONTINUOUS
 10
2.836680
 20
7.191360
  0
VERTEX
  8
0
  6
CONTINUOUS
 10
2.831400
 20
7.294320
  0
VERTEX
  8
0
  6
CONTINUOUS
 10
2.039400
 20
7.294320
  0
VERTEX
  8
0
  6
CONTINUOUS
 10
2.040720
 20
7.294320
  0
VERTEX
  8
0
  6
CONTINUOUS
 10
2.041160
 20
6.547200
  0
VERTEX
  8
0
  6
CONTINUOUS
 10
6.589880
 20
6.547200
  0
VERTEX
  8
0
  6
CONTINUOUS
 10
6.589880
 20
7.294320
  0
VERTEX
  8
0
  6
CONTINUOUS
 10
5.797880
 20
7.294320
  0
VERTEX
  8
0
  6
CONTINUOUS
 10
5.792600
 20
7.191360
  0
VERTEX
  8
0
  6
CONTINUOUS
 10
5.734080
 20
7.186520
  0
VERTEX
  8
0
  6
CONTINUOUS
 10
5.676440
 20
7.178160
  0
VERTEX
  8
0
  6
CONTINUOUS
 10
5.648280
 20
7.172440
  0
VERTEX
  8
0
  6
CONTINUOUS
 10
5.621000
 20
7.164960
  0
VERTEX
  8
0
  6
CONTINUOUS
 10
5.581840
 20
7.150000
  0
VERTEX
  8
0
  6
CONTINUOUS
 10
5.546200
 20
7.130640
  0
VERTEX
  8
0
  6
CONTINUOUS
 10
5.514520
 20
7.105120
  0
VERTEX
  8
0
  6
CONTINUOUS
 10
5.487680
 20
7.073880
  0
VERTEX
  8
0
  6
CONTINUOUS
 10
5.466560
 20
7.034720
  0
VERTEX
  8
0
  6
CONTINUOUS
 10
5.456000
 20
7.004800
  0
VERTEX
  8
0
  6
CONTINUOUS
 10
5.448520
 20
6.970480
  0
VERTEX
  8
0
  6
CONTINUOUS
 10
5.445880
 20
6.952000
  0
SEQEND
  8
0
  0
POLYLINE
  8
0
  6
CONTINUOUS
 66
     1
 40
0.000000
 41
0.000000
  0
VERTEX
  8
0
  6
CONTINUOUS
 10
5.454240
 20
1.896840
  0
VERTEX
  8
0
  6
CONTINUOUS
 10
3.192640
 20
1.896840
  0
VERTEX
  8
0
  6
CONTINUOUS
 10
3.186480
 20
1.932920
  0
VERTEX
  8
0
  6
CONTINUOUS
 10
3.177240
 20
1.965040
  0
VERTEX
  8
0
  6
CONTINUOUS
 10
3.164920
 20
1.993640
  0
VERTEX
  8
0
  6
CONTINUOUS
 10
3.150400
 20
2.018720
  0
VERTEX
  8
0
  6
CONTINUOUS
 10
3.123120
 20
2.049960
  0
VERTEX
  8
0
  6
CONTINUOUS
 10
3.091440
 20
2.075480
  0
VERTEX
  8
0
  6
CONTINUOUS
 10
3.055800
 20
2.094840
  0
VERTEX
  8
0
  6
CONTINUOUS
 10
3.016640
 20
2.109800
  0
VERTEX
  8
0
  6
CONTINUOUS
 10
2.989360
 20
2.117280
  0
VERTEX
  8
0
  6
CONTINUOUS
 10
2.932600
 20
2.127840
  0
VERTEX
  8
0
  6
CONTINUOUS
 10
2.874520
 20
2.134000
  0
VERTEX
  8
0
  6
CONTINUOUS
 10
2.845480
 20
2.136200
  0
VERTEX
  8
0
  6
CONTINUOUS
 10
2.840200
 20
2.239160
  0
VERTEX
  8
0
  6
CONTINUOUS
 10
2.047760
 20
2.239160
  0
VERTEX
  8
0
  6
CONTINUOUS
 10
2.049080
 20
2.239160
  0
VERTEX
  8
0
  6
CONTINUOUS
 10
2.049520
 20
1.492040
  0
VERTEX
  8
0
  6
CONTINUOUS
 10
6.598680
 20
1.492040
  0
VERTEX
  8
0
  6
CONTINUOUS
 10
6.598680
 20
2.239160
  0
VERTEX
  8
0
  6
CONTINUOUS
 10
5.806240
 20
2.239160
  0
VERTEX
  8
0
  6
CONTINUOUS
 10
5.801400
 20
2.136200
  0
VERTEX
  8
0
  6
CONTINUOUS
 10
5.742880
 20
2.131360
  0
VERTEX
  8
0
  6
CONTINUOUS
 10
5.685240
 20
2.123000
  0
VERTEX
  8
0
  6
CONTINUOUS
 10
5.657080
 20
2.117280
  0
VERTEX
  8
0
  6
CONTINUOUS
 10
5.629800
 20
2.109800
  0
VERTEX
  8
0
  6
CONTINUOUS
 10
5.578320
 20
2.089120
  0
VERTEX
  8
0
  6
CONTINUOUS
 10
5.544000
 20
2.067560
  0
VERTEX
  8
0
  6
CONTINUOUS
 10
5.513640
 20
2.040280
  0
VERTEX
  8
0
  6
CONTINUOUS
 10
5.496480
 20
2.018720
  0
VERTEX
  8
0
  6
CONTINUOUS
 10
5.481520
 20
1.993640
  0
VERTEX
  8
0
  6
CONTINUOUS
 10
5.469200
 20
1.965040
  0
VERTEX
  8
0
  6
CONTINUOUS
 10
5.460400
 20
1.932920
  0
VERTEX
  8
0
  6
CONTINUOUS
 10
5.454240
 20
1.896840
  0
SEQEND
  8
0
  0
ENDSEC
  0
EOF
