  0
SECTION
  2
HEADER
  9
$ACADVER
  1
AC1006
  9
$EXTMIN
 10
0.521400
 20
0.675400
  9
$EXTMAX
 10
8.034840
 20
9.562960
  9
$LTSCALE
 40
0.044000
  9
$PDMODE
 70
    35
  9
$PDSIZE
 40
0.035200
  0
ENDSEC
  0
SECTION
  2
TABLES
  0
TABLE
  2
LTYPE
 70
     9
  0
LTYPE
  2
CONTINUOUS
 70
    64
  3
Solid line
 72
    65
 73
     0
 40
0.000000
  0
LTYPE
  2
DASHED
 70
    64
  3
__ __ __ __ __ __ __ __ __ __ __ __ __ __ __
 72
    65
 73
     2
 40
0.000330
 49
0.000220
 49
-0.000110
  0
LTYPE
  2
HIDDEN
 70
    64
  3
 _ _ _ _ _ _ _ _ _ _ _ _ _ _ _ _ _ _ _ _ _ _
 72
    65
 73
     2
 40
0.000165
 49
0.000110
 49
-0.000055
  0
LTYPE
  2
CENTER
 70
    64
  3
____ _ ____ _ ____ _ ____ _ ____ _ ____ _ ____
 72
    65
 73
     4
 40
0.000880
 49
0.000550
 49
-0.000110
 49
0.000110
 49
-0.000110
  0
LTYPE
  2
PHANTOM
 70
    64
  3
_____ _ _ _____ _ _ _____ _ _ _____ _ _ ____
 72
    65
 73
     6
 40
0.001100
 49
0.000550
 49
-0.000110
 49
0.000110
 49
-0.000110
 49
0.000110
 49
-0.000110
  0
LTYPE
  2
DOT
 70
    64
  3
...............................................
 72
    65
 73
     2
 40
0.000110
 49
0.000000
 49
-0.000110
  0
LTYPE
  2
DASHDOT
 70
    64
  3
__ . __ . __ . __ . __ . __ . __ . __ . __ . __
 72
    65
 73
     4
 40
0.000440
 49
0.000220
 49
-0.000110
 49
0.000000
 49
-0.000110
  0
LTYPE
  2
BORDER
 70
    64
  3
__ __ . __ __ . __ __ . __ __ . __ __ . __ __
 72
    65
 73
     6
 40
0.000770
 49
0.000220
 49
-0.000110
 49
0.000220
 49
-0.000110
 49
0.000000
 49
-0.000110
  0
LTYPE
  2
DIVIDE
 70
    64
  3
__ . . __ . . __ . . __ . . __ . . __ . . __
 72
    65
 73
     6
 40
0.000550
 49
0.000220
 49
-0.000110
 49
0.000000
 49
-0.000110
 49
0.000000
 49
-0.000110
  0
LTYPE
  2
DOTDOT
 70
    64
  3
 . .  . .  . .  . .  . .  . . 
 72
    65
 73
     5
 40
0.000242
 49
-0.000110
 49
0.000000
 49
-0.000110
 49
0.000000
 49
-0.000110
  0
ENDTAB
  0
TABLE
  2
STYLE
 70
     2
  0
STYLE
 70
     0
  2
SN0
 40
0.000000
 41
0.000440
 50
0.000000
 71
     0
 42
0.000000
  3
ROMAND
  0
STYLE
 70
    68
  2
SV0
 40
0.000000
 41
0.000440
 50
0.000000
 71
     0
 42
0.000000
  3
ROMAND
  0
ENDTAB
  0
TABLE
  2
LAYER
 70
     3
  0
LAYER
  2
FOREGROUND
 70
    64
 62
     7
  6
CONTINUOUS
  0
LAYER
  2
BACKGROUND
 70
    65
 62
    -7
  6
CONTINUOUS
  0
LAYER
  2
0
 70
    64
 62
     7
  6
CONTINUOUS
  0
ENDTAB
  0
ENDSEC
  0
SECTION
  2
ENTITIES
  0
POLYLINE
  8
FOREGROUND
  6
CONTINUOUS
 66
     1
 40
0.000000
 41
0.000000
  0
VERTEX
  8
FOREGROUND
  6
CONTINUOUS
 10
0.000000
 20
10.238360
  0
VERTEX
  8
FOREGROUND
  6
CONTINUOUS
 10
8.499920
 20
10.238360
  0
VERTEX
  8
FOREGROUND
  6
CONTINUOUS
 10
8.499920
 20
-0.761640
  0
VERTEX
  8
FOREGROUND
  6
CONTINUOUS
 10
0.000000
 20
-0.761640
  0
VERTEX
  8
FOREGROUND
  6
CONTINUOUS
 10
0.000000
 20
10.238360
  0
SEQEND
  8
0
  0
POLYLINE
  8
FOREGROUND
  6
CONTINUOUS
 66
     1
 40
0.000000
 41
0.000000
  0
VERTEX
  8
FOREGROUND
  6
CONTINUOUS
 10
0.000000
 20
10.238360
  0
VERTEX
  8
FOREGROUND
  6
CONTINUOUS
 10
8.499920
 20
10.238360
  0
VERTEX
  8
FOREGROUND
  6
CONTINUOUS
 10
8.499920
 20
-0.761640
  0
VERTEX
  8
FOREGROUND
  6
CONTINUOUS
 10
0.000000
 20
-0.761640
  0
VERTEX
  8
FOREGROUND
  6
CONTINUOUS
 10
0.000000
 20
10.238360
  0
SEQEND
  8
0
  0
POLYLINE
  8
0
  6
CONTINUOUS
 66
     1
 40
0.014080
 41
0.014080
  0
VERTEX
  8
0
  6
CONTINUOUS
 10
3.165800
 20
8.175640
  0
VERTEX
  8
0
  6
CONTINUOUS
 10
3.165800
 20
9.555480
  0
VERTEX
  8
0
  6
CONTINUOUS
 10
3.503720
 20
9.555480
  0
VERTEX
  8
0
  6
CONTINUOUS
 10
3.509440
 20
9.503120
  0
VERTEX
  8
0
  6
CONTINUOUS
 10
3.518680
 20
9.454720
  0
VERTEX
  8
0
  6
CONTINUOUS
 10
3.531000
 20
9.409400
  0
VERTEX
  8
0
  6
CONTINUOUS
 10
3.546840
 20
9.367600
  0
VERTEX
  8
0
  6
CONTINUOUS
 10
3.575880
 20
9.310840
  0
VERTEX
  8
0
  6
CONTINUOUS
 10
3.611520
 20
9.260680
  0
VERTEX
  8
0
  6
CONTINUOUS
 10
3.653320
 20
9.216680
  0
VERTEX
  8
0
  6
CONTINUOUS
 10
3.700840
 20
9.178400
  0
VERTEX
  8
0
  6
CONTINUOUS
 10
3.735160
 20
9.155960
  0
VERTEX
  8
0
  6
CONTINUOUS
 10
3.791040
 20
9.126480
  0
VERTEX
  8
0
  6
CONTINUOUS
 10
3.851320
 20
9.101400
  0
VERTEX
  8
0
  6
CONTINUOUS
 10
3.893560
 20
9.086880
  0
VERTEX
  8
0
  6
CONTINUOUS
 10
4.075280
 20
9.035400
  0
VERTEX
  8
0
  6
CONTINUOUS
 10
4.121480
 20
9.020440
  0
VERTEX
  8
0
  6
CONTINUOUS
 10
4.166360
 20
9.004160
  0
VERTEX
  8
0
  6
CONTINUOUS
 10
4.231480
 20
8.976440
  0
VERTEX
  8
0
  6
CONTINUOUS
 10
4.292200
 20
8.943880
  0
VERTEX
  8
0
  6
CONTINUOUS
 10
4.347200
 20
8.905600
  0
VERTEX
  8
0
  6
CONTINUOUS
 10
4.379760
 20
8.876560
  0
VERTEX
  8
0
  6
CONTINUOUS
 10
4.408800
 20
8.844000
  0
VERTEX
  8
0
  6
CONTINUOUS
 10
4.433880
 20
8.807920
  0
VERTEX
  8
0
  6
CONTINUOUS
 10
4.454120
 20
8.767880
  0
VERTEX
  8
0
  6
CONTINUOUS
 10
4.469080
 20
8.723880
  0
VERTEX
  8
0
  6
CONTINUOUS
 10
4.474800
 20
8.700120
  0
VERTEX
  8
0
  6
CONTINUOUS
 10
4.478760
 20
8.675480
  0
VERTEX
  8
0
  6
CONTINUOUS
 10
4.482720
 20
8.637640
  0
VERTEX
  8
0
  6
CONTINUOUS
 10
4.590080
 20
8.666240
  0
VERTEX
  8
0
  6
CONTINUOUS
 10
4.618680
 20
8.624440
  0
VERTEX
  8
0
  6
CONTINUOUS
 10
4.661800
 20
8.649520
  0
VERTEX
  8
0
  6
CONTINUOUS
 10
4.690400
 20
8.660520
  0
VERTEX
  8
0
  6
CONTINUOUS
 10
4.719000
 20
8.668000
  0
VERTEX
  8
0
  6
CONTINUOUS
 10
4.746280
 20
8.671520
  0
VERTEX
  8
0
  6
CONTINUOUS
 10
4.773120
 20
8.671080
  0
VERTEX
  8
0
  6
CONTINUOUS
 10
4.798640
 20
8.666680
  0
VERTEX
  8
0
  6
CONTINUOUS
 10
4.822840
 20
8.658760
  0
VERTEX
  8
0
  6
CONTINUOUS
 10
4.844840
 20
8.647320
  0
VERTEX
  8
0
  6
CONTINUOUS
 10
4.865080
 20
8.632360
  0
VERTEX
  8
0
  6
CONTINUOUS
 10
4.883120
 20
8.614320
  0
VERTEX
  8
0
  6
CONTINUOUS
 10
4.898080
 20
8.593200
  0
VERTEX
  8
0
  6
CONTINUOUS
 10
4.910840
 20
8.568560
  0
VERTEX
  8
0
  6
CONTINUOUS
 10
4.920080
 20
8.541280
  0
VERTEX
  8
0
  6
CONTINUOUS
 10
4.925800
 20
8.510480
  0
VERTEX
  8
0
  6
CONTINUOUS
 10
4.927560
 20
8.494640
  0
VERTEX
  8
0
  6
CONTINUOUS
 10
4.927560
 20
8.459880
  0
VERTEX
  8
0
  6
CONTINUOUS
 10
5.204320
 20
8.458120
  0
VERTEX
  8
0
  6
CONTINUOUS
 10
5.204320
 20
8.175640
  0
VERTEX
  8
0
  6
CONTINUOUS
 10
3.165800
 20
8.175640
  0
SEQEND
  8
0
  0
SOLID
  8
0
 62
    15
 10
5.951440
 20
3.377440
 11
6.576680
 21
3.018400
 12
5.905240
 22
3.365120
 13
6.530480
 23
3.006080
  0
POLYLINE
  8
0
  6
CONTINUOUS
 66
     1
 40
0.000000
 41
0.000000
  0
VERTEX
  8
0
  6
CONTINUOUS
 10
5.951440
 20
3.377440
  0
VERTEX
  8
0
  6
CONTINUOUS
 10
6.576680
 20
3.018400
  0
VERTEX
  8
0
  6
CONTINUOUS
 10
6.530480
 20
3.006080
  0
VERTEX
  8
0
  6
CONTINUOUS
 10
5.905240
 20
3.365120
  0
VERTEX
  8
0
  6
CONTINUOUS
 10
5.951440
 20
3.377440
  0
SEQEND
  8
0
  0
SOLID
  8
0
 62
    15
 10
6.760160
 20
4.336200
 11
7.385400
 21
3.977160
 12
6.659400
 22
4.321240
 13
7.284640
 23
3.962200
  0
POLYLINE
  8
0
  6
CONTINUOUS
 66
     1
 40
0.000000
 41
0.000000
  0
VERTEX
  8
0
  6
CONTINUOUS
 10
6.760160
 20
4.336200
  0
VERTEX
  8
0
  6
CONTINUOUS
 10
7.385400
 20
3.977160
  0
VERTEX
  8
0
  6
CONTINUOUS
 10
7.284640
 20
3.962200
  0
VERTEX
  8
0
  6
CONTINUOUS
 10
6.659400
 20
4.321240
  0
VERTEX
  8
0
  6
CONTINUOUS
 10
6.760160
 20
4.336200
  0
SEQEND
  8
0
  0
SOLID
  8
0
 62
    15
 10
6.659400
 20
4.321240
 11
7.284640
 21
3.962200
 12
6.572280
 22
4.293080
 13
7.197520
 23
3.934040
  0
POLYLINE
  8
0
  6
CONTINUOUS
 66
     1
 40
0.000000
 41
0.000000
  0
VERTEX
  8
0
  6
CONTINUOUS
 10
6.659400
 20
4.321240
  0
VERTEX
  8
0
  6
CONTINUOUS
 10
7.284640
 20
3.962200
  0
VERTEX
  8
0
  6
CONTINUOUS
 10
7.197520
 20
3.934040
  0
VERTEX
  8
0
  6
CONTINUOUS
 10
6.572280
 20
4.293080
  0
VERTEX
  8
0
  6
CONTINUOUS
 10
6.659400
 20
4.321240
  0
SEQEND
  8
0
  0
SOLID
  8
0
 62
    15
 10
6.572280
 20
4.293080
 11
7.197520
 21
3.934040
 12
6.498360
 22
4.252600
 13
7.123600
 23
3.893560
  0
POLYLINE
  8
0
  6
CONTINUOUS
 66
     1
 40
0.000000
 41
0.000000
  0
VERTEX
  8
0
  6
CONTINUOUS
 10
6.572280
 20
4.293080
  0
VERTEX
  8
0
  6
CONTINUOUS
 10
7.197520
 20
3.934040
  0
VERTEX
  8
0
  6
CONTINUOUS
 10
7.123600
 20
3.893560
  0
VERTEX
  8
0
  6
CONTINUOUS
 10
6.498360
 20
4.252600
  0
VERTEX
  8
0
  6
CONTINUOUS
 10
6.572280
 20
4.293080
  0
SEQEND
  8
0
  0
SOLID
  8
0
 62
    15
 10
6.498360
 20
4.252600
 11
7.123600
 21
3.893560
 12
6.435440
 22
4.201120
 13
7.060680
 23
3.842080
  0
POLYLINE
  8
0
  6
CONTINUOUS
 66
     1
 40
0.000000
 41
0.000000
  0
VERTEX
  8
0
  6
CONTINUOUS
 10
6.498360
 20
4.252600
  0
VERTEX
  8
0
  6
CONTINUOUS
 10
7.123600
 20
3.893560
  0
VERTEX
  8
0
  6
CONTINUOUS
 10
7.060680
 20
3.842080
  0
VERTEX
  8
0
  6
CONTINUOUS
 10
6.435440
 20
4.201120
  0
VERTEX
  8
0
  6
CONTINUOUS
 10
6.498360
 20
4.252600
  0
SEQEND
  8
0
  0
SOLID
  8
0
 62
    15
 10
6.435440
 20
4.201120
 11
7.060680
 21
3.842080
 12
6.383520
 22
4.139080
 13
7.008760
 23
3.780040
  0
POLYLINE
  8
0
  6
CONTINUOUS
 66
     1
 40
0.000000
 41
0.000000
  0
VERTEX
  8
0
  6
CONTINUOUS
 10
6.435440
 20
4.201120
  0
VERTEX
  8
0
  6
CONTINUOUS
 10
7.060680
 20
3.842080
  0
VERTEX
  8
0
  6
CONTINUOUS
 10
7.008760
 20
3.780040
  0
VERTEX
  8
0
  6
CONTINUOUS
 10
6.383520
 20
4.139080
  0
VERTEX
  8
0
  6
CONTINUOUS
 10
6.435440
 20
4.201120
  0
SEQEND
  8
0
  0
SOLID
  8
0
 62
    15
 10
6.383520
 20
4.139080
 11
7.008760
 21
3.780040
 12
6.340840
 22
4.067800
 13
6.966080
 23
3.708760
  0
POLYLINE
  8
0
  6
CONTINUOUS
 66
     1
 40
0.000000
 41
0.000000
  0
VERTEX
  8
0
  6
CONTINUOUS
 10
6.383520
 20
4.139080
  0
VERTEX
  8
0
  6
CONTINUOUS
 10
7.008760
 20
3.780040
  0
VERTEX
  8
0
  6
CONTINUOUS
 10
6.966080
 20
3.708760
  0
VERTEX
  8
0
  6
CONTINUOUS
 10
6.340840
 20
4.067800
  0
VERTEX
  8
0
  6
CONTINUOUS
 10
6.383520
 20
4.139080
  0
SEQEND
  8
0
  0
SOLID
  8
0
 62
    15
 10
6.340840
 20
4.067800
 11
6.966080
 21
3.708760
 12
6.306080
 22
3.988600
 13
6.931320
 23
3.629560
  0
POLYLINE
  8
0
  6
CONTINUOUS
 66
     1
 40
0.000000
 41
0.000000
  0
VERTEX
  8
0
  6
CONTINUOUS
 10
6.340840
 20
4.067800
  0
VERTEX
  8
0
  6
CONTINUOUS
 10
6.966080
 20
3.708760
  0
VERTEX
  8
0
  6
CONTINUOUS
 10
6.931320
 20
3.629560
  0
VERTEX
  8
0
  6
CONTINUOUS
 10
6.306080
 20
3.988600
  0
VERTEX
  8
0
  6
CONTINUOUS
 10
6.340840
 20
4.067800
  0
SEQEND
  8
0
  0
SOLID
  8
0
 62
    15
 10
6.306080
 20
3.988600
 11
6.931320
 21
3.629560
 12
6.278800
 22
3.901920
 13
6.904040
 23
3.542880
  0
POLYLINE
  8
0
  6
CONTINUOUS
 66
     1
 40
0.000000
 41
0.000000
  0
VERTEX
  8
0
  6
CONTINUOUS
 10
6.306080
 20
3.988600
  0
VERTEX
  8
0
  6
CONTINUOUS
 10
6.931320
 20
3.629560
  0
VERTEX
  8
0
  6
CONTINUOUS
 10
6.904040
 20
3.542880
  0
VERTEX
  8
0
  6
CONTINUOUS
 10
6.278800
 20
3.901920
  0
VERTEX
  8
0
  6
CONTINUOUS
 10
6.306080
 20
3.988600
  0
SEQEND
  8
0
  0
SOLID
  8
0
 62
    15
 10
6.278800
 20
3.901920
 11
6.904040
 21
3.542880
 12
6.225120
 22
3.718440
 13
6.850360
 23
3.359400
  0
POLYLINE
  8
0
  6
CONTINUOUS
 66
     1
 40
0.000000
 41
0.000000
  0
VERTEX
  8
0
  6
CONTINUOUS
 10
6.278800
 20
3.901920
  0
VERTEX
  8
0
  6
CONTINUOUS
 10
6.904040
 20
3.542880
  0
VERTEX
  8
0
  6
CONTINUOUS
 10
6.850360
 20
3.359400
  0
VERTEX
  8
0
  6
CONTINUOUS
 10
6.225120
 20
3.718440
  0
VERTEX
  8
0
  6
CONTINUOUS
 10
6.278800
 20
3.901920
  0
SEQEND
  8
0
  0
SOLID
  8
0
 62
    15
 10
6.225120
 20
3.718440
 11
6.850360
 21
3.359400
 12
6.191240
 22
3.629560
 13
6.816480
 23
3.270520
  0
POLYLINE
  8
0
  6
CONTINUOUS
 66
     1
 40
0.000000
 41
0.000000
  0
VERTEX
  8
0
  6
CONTINUOUS
 10
6.225120
 20
3.718440
  0
VERTEX
  8
0
  6
CONTINUOUS
 10
6.850360
 20
3.359400
  0
VERTEX
  8
0
  6
CONTINUOUS
 10
6.816480
 20
3.270520
  0
VERTEX
  8
0
  6
CONTINUOUS
 10
6.191240
 20
3.629560
  0
VERTEX
  8
0
  6
CONTINUOUS
 10
6.225120
 20
3.718440
  0
SEQEND
  8
0
  0
SOLID
  8
0
 62
    15
 10
6.191240
 20
3.629560
 11
6.816480
 21
3.270520
 12
6.149000
 22
3.547720
 13
6.774240
 23
3.188680
  0
POLYLINE
  8
0
  6
CONTINUOUS
 66
     1
 40
0.000000
 41
0.000000
  0
VERTEX
  8
0
  6
CONTINUOUS
 10
6.191240
 20
3.629560
  0
VERTEX
  8
0
  6
CONTINUOUS
 10
6.816480
 20
3.270520
  0
VERTEX
  8
0
  6
CONTINUOUS
 10
6.774240
 20
3.188680
  0
VERTEX
  8
0
  6
CONTINUOUS
 10
6.149000
 20
3.547720
  0
VERTEX
  8
0
  6
CONTINUOUS
 10
6.191240
 20
3.629560
  0
SEQEND
  8
0
  0
SOLID
  8
0
 62
    15
 10
6.149000
 20
3.547720
 11
6.774240
 21
3.188680
 12
6.096200
 22
3.475560
 13
6.721440
 23
3.116960
  0
POLYLINE
  8
0
  6
CONTINUOUS
 66
     1
 40
0.000000
 41
0.000000
  0
VERTEX
  8
0
  6
CONTINUOUS
 10
6.149000
 20
3.547720
  0
VERTEX
  8
0
  6
CONTINUOUS
 10
6.774240
 20
3.188680
  0
VERTEX
  8
0
  6
CONTINUOUS
 10
6.721440
 20
3.116960
  0
VERTEX
  8
0
  6
CONTINUOUS
 10
6.096200
 20
3.475560
  0
VERTEX
  8
0
  6
CONTINUOUS
 10
6.149000
 20
3.547720
  0
SEQEND
  8
0
  0
SOLID
  8
0
 62
    15
 10
6.096200
 20
3.475560
 11
6.721440
 21
3.116960
 12
6.031080
 22
3.417920
 13
6.656320
 23
3.058880
  0
POLYLINE
  8
0
  6
CONTINUOUS
 66
     1
 40
0.000000
 41
0.000000
  0
VERTEX
  8
0
  6
CONTINUOUS
 10
6.096200
 20
3.475560
  0
VERTEX
  8
0
  6
CONTINUOUS
 10
6.721440
 20
3.116960
  0
VERTEX
  8
0
  6
CONTINUOUS
 10
6.656320
 20
3.058880
  0
VERTEX
  8
0
  6
CONTINUOUS
 10
6.031080
 20
3.417920
  0
VERTEX
  8
0
  6
CONTINUOUS
 10
6.096200
 20
3.475560
  0
SEQEND
  8
0
  0
SOLID
  8
0
 62
    15
 10
6.031080
 20
3.417920
 11
6.656320
 21
3.058880
 12
5.951440
 22
3.377440
 13
6.576680
 23
3.018400
  0
POLYLINE
  8
0
  6
CONTINUOUS
 66
     1
 40
0.000000
 41
0.000000
  0
VERTEX
  8
0
  6
CONTINUOUS
 10
6.031080
 20
3.417920
  0
VERTEX
  8
0
  6
CONTINUOUS
 10
6.656320
 20
3.058880
  0
VERTEX
  8
0
  6
CONTINUOUS
 10
6.576680
 20
3.018400
  0
VERTEX
  8
0
  6
CONTINUOUS
 10
5.951440
 20
3.377440
  0
VERTEX
  8
0
  6
CONTINUOUS
 10
6.031080
 20
3.417920
  0
SEQEND
  8
0
  0
SOLID
  8
0
 62
    15
 10
6.760160
 20
4.673680
 11
7.385400
 21
4.314640
 12
6.760160
 22
4.336200
 13
7.385400
 23
3.977160
  0
POLYLINE
  8
0
  6
CONTINUOUS
 66
     1
 40
0.000000
 41
0.000000
  0
VERTEX
  8
0
  6
CONTINUOUS
 10
6.760160
 20
4.673680
  0
VERTEX
  8
0
  6
CONTINUOUS
 10
7.385400
 20
4.314640
  0
VERTEX
  8
0
  6
CONTINUOUS
 10
7.385400
 20
3.977160
  0
VERTEX
  8
0
  6
CONTINUOUS
 10
6.760160
 20
4.336200
  0
VERTEX
  8
0
  6
CONTINUOUS
 10
6.760160
 20
4.673680
  0
SEQEND
  8
0
  0
SOLID
  8
0
 62
    15
 10
5.905240
 20
3.365120
 11
6.530480
 21
3.006080
 12
5.854200
 22
3.358080
 13
6.479440
 23
2.999040
  0
POLYLINE
  8
0
  6
CONTINUOUS
 66
     1
 40
0.000000
 41
0.000000
  0
VERTEX
  8
0
  6
CONTINUOUS
 10
5.905240
 20
3.365120
  0
VERTEX
  8
0
  6
CONTINUOUS
 10
6.530480
 20
3.006080
  0
VERTEX
  8
0
  6
CONTINUOUS
 10
6.479440
 20
2.999040
  0
VERTEX
  8
0
  6
CONTINUOUS
 10
5.854200
 20
3.358080
  0
VERTEX
  8
0
  6
CONTINUOUS
 10
5.905240
 20
3.365120
  0
SEQEND
  8
0
  0
SOLID
  8
0
 62
    15
 10
5.854200
 20
3.358080
 11
6.479440
 21
2.999040
 12
5.842760
 22
3.357200
 13
6.468000
 23
2.998160
  0
POLYLINE
  8
0
  6
CONTINUOUS
 66
     1
 40
0.000000
 41
0.000000
  0
VERTEX
  8
0
  6
CONTINUOUS
 10
5.854200
 20
3.358080
  0
VERTEX
  8
0
  6
CONTINUOUS
 10
6.479440
 20
2.999040
  0
VERTEX
  8
0
  6
CONTINUOUS
 10
6.468000
 20
2.998160
  0
VERTEX
  8
0
  6
CONTINUOUS
 10
5.842760
 20
3.357200
  0
VERTEX
  8
0
  6
CONTINUOUS
 10
5.854200
 20
3.358080
  0
SEQEND
  8
0
  0
SOLID
  8
0
 62
    15
 10
5.842760
 20
3.357200
 11
6.468000
 21
2.998160
 12
5.871360
 22
3.249840
 13
6.496600
 23
2.890800
  0
POLYLINE
  8
0
  6
CONTINUOUS
 66
     1
 40
0.000000
 41
0.000000
  0
VERTEX
  8
0
  6
CONTINUOUS
 10
5.842760
 20
3.357200
  0
VERTEX
  8
0
  6
CONTINUOUS
 10
6.468000
 20
2.998160
  0
VERTEX
  8
0
  6
CONTINUOUS
 10
6.496600
 20
2.890800
  0
VERTEX
  8
0
  6
CONTINUOUS
 10
5.871360
 20
3.249840
  0
VERTEX
  8
0
  6
CONTINUOUS
 10
5.842760
 20
3.357200
  0
SEQEND
  8
0
  0
SOLID
  8
0
 62
    15
 10
5.871360
 20
3.249840
 11
6.496600
 21
2.890800
 12
5.829560
 22
3.221240
 13
6.454800
 23
2.862200
  0
POLYLINE
  8
0
  6
CONTINUOUS
 66
     1
 40
0.000000
 41
0.000000
  0
VERTEX
  8
0
  6
CONTINUOUS
 10
5.871360
 20
3.249840
  0
VERTEX
  8
0
  6
CONTINUOUS
 10
6.496600
 20
2.890800
  0
VERTEX
  8
0
  6
CONTINUOUS
 10
6.454800
 20
2.862200
  0
VERTEX
  8
0
  6
CONTINUOUS
 10
5.829560
 20
3.221240
  0
VERTEX
  8
0
  6
CONTINUOUS
 10
5.871360
 20
3.249840
  0
SEQEND
  8
0
  0
SOLID
  8
0
 62
    15
 10
5.829560
 20
3.221240
 11
6.454800
 21
2.862200
 12
5.860360
 22
3.163600
 13
6.485600
 23
2.804560
  0
POLYLINE
  8
0
  6
CONTINUOUS
 66
     1
 40
0.000000
 41
0.000000
  0
VERTEX
  8
0
  6
CONTINUOUS
 10
5.829560
 20
3.221240
  0
VERTEX
  8
0
  6
CONTINUOUS
 10
6.454800
 20
2.862200
  0
VERTEX
  8
0
  6
CONTINUOUS
 10
6.485600
 20
2.804560
  0
VERTEX
  8
0
  6
CONTINUOUS
 10
5.860360
 20
3.163600
  0
VERTEX
  8
0
  6
CONTINUOUS
 10
5.829560
 20
3.221240
  0
SEQEND
  8
0
  0
SOLID
  8
0
 62
    15
 10
5.860360
 20
3.163600
 11
6.485600
 21
2.804560
 12
5.875320
 22
3.107280
 13
6.500560
 23
2.748240
  0
POLYLINE
  8
0
  6
CONTINUOUS
 66
     1
 40
0.000000
 41
0.000000
  0
VERTEX
  8
0
  6
CONTINUOUS
 10
5.860360
 20
3.163600
  0
VERTEX
  8
0
  6
CONTINUOUS
 10
6.485600
 20
2.804560
  0
VERTEX
  8
0
  6
CONTINUOUS
 10
6.500560
 20
2.748240
  0
VERTEX
  8
0
  6
CONTINUOUS
 10
5.875320
 20
3.107280
  0
VERTEX
  8
0
  6
CONTINUOUS
 10
5.860360
 20
3.163600
  0
SEQEND
  8
0
  0
SOLID
  8
0
 62
    15
 10
5.875320
 20
3.107280
 11
6.500560
 21
2.748240
 12
5.874440
 22
3.053600
 13
6.499680
 23
2.694560
  0
POLYLINE
  8
0
  6
CONTINUOUS
 66
     1
 40
0.000000
 41
0.000000
  0
VERTEX
  8
0
  6
CONTINUOUS
 10
5.875320
 20
3.107280
  0
VERTEX
  8
0
  6
CONTINUOUS
 10
6.500560
 20
2.748240
  0
VERTEX
  8
0
  6
CONTINUOUS
 10
6.499680
 20
2.694560
  0
VERTEX
  8
0
  6
CONTINUOUS
 10
5.874440
 20
3.053600
  0
VERTEX
  8
0
  6
CONTINUOUS
 10
5.875320
 20
3.107280
  0
SEQEND
  8
0
  0
SOLID
  8
0
 62
    15
 10
5.874440
 20
3.053600
 11
6.499680
 21
2.694560
 12
5.858600
 22
3.005640
 13
6.483840
 23
2.646600
  0
POLYLINE
  8
0
  6
CONTINUOUS
 66
     1
 40
0.000000
 41
0.000000
  0
VERTEX
  8
0
  6
CONTINUOUS
 10
5.874440
 20
3.053600
  0
VERTEX
  8
0
  6
CONTINUOUS
 10
6.499680
 20
2.694560
  0
VERTEX
  8
0
  6
CONTINUOUS
 10
6.483840
 20
2.646600
  0
VERTEX
  8
0
  6
CONTINUOUS
 10
5.858600
 20
3.005640
  0
VERTEX
  8
0
  6
CONTINUOUS
 10
5.874440
 20
3.053600
  0
SEQEND
  8
0
  0
SOLID
  8
0
 62
    15
 10
5.858600
 20
3.005640
 11
6.483840
 21
2.646600
 12
5.828680
 22
2.965600
 13
6.453920
 23
2.606560
  0
POLYLINE
  8
0
  6
CONTINUOUS
 66
     1
 40
0.000000
 41
0.000000
  0
VERTEX
  8
0
  6
CONTINUOUS
 10
5.858600
 20
3.005640
  0
VERTEX
  8
0
  6
CONTINUOUS
 10
6.483840
 20
2.646600
  0
VERTEX
  8
0
  6
CONTINUOUS
 10
6.453920
 20
2.606560
  0
VERTEX
  8
0
  6
CONTINUOUS
 10
5.828680
 20
2.965600
  0
VERTEX
  8
0
  6
CONTINUOUS
 10
5.858600
 20
3.005640
  0
SEQEND
  8
0
  0
SOLID
  8
0
 62
    15
 10
5.828680
 20
2.965600
 11
6.453920
 21
2.606560
 12
5.786000
 22
2.934800
 13
6.411240
 23
2.575760
  0
POLYLINE
  8
0
  6
CONTINUOUS
 66
     1
 40
0.000000
 41
0.000000
  0
VERTEX
  8
0
  6
CONTINUOUS
 10
5.828680
 20
2.965600
  0
VERTEX
  8
0
  6
CONTINUOUS
 10
6.453920
 20
2.606560
  0
VERTEX
  8
0
  6
CONTINUOUS
 10
6.411240
 20
2.575760
  0
VERTEX
  8
0
  6
CONTINUOUS
 10
5.786000
 20
2.934800
  0
VERTEX
  8
0
  6
CONTINUOUS
 10
5.828680
 20
2.965600
  0
SEQEND
  8
0
  0
SOLID
  8
0
 62
    15
 10
5.786000
 20
2.934800
 11
6.411240
 21
2.575760
 12
5.731440
 22
2.916320
 13
6.356680
 23
2.557280
  0
POLYLINE
  8
0
  6
CONTINUOUS
 66
     1
 40
0.000000
 41
0.000000
  0
VERTEX
  8
0
  6
CONTINUOUS
 10
5.786000
 20
2.934800
  0
VERTEX
  8
0
  6
CONTINUOUS
 10
6.411240
 20
2.575760
  0
VERTEX
  8
0
  6
CONTINUOUS
 10
6.356680
 20
2.557280
  0
VERTEX
  8
0
  6
CONTINUOUS
 10
5.731440
 20
2.916320
  0
VERTEX
  8
0
  6
CONTINUOUS
 10
5.786000
 20
2.934800
  0
SEQEND
  8
0
  0
SOLID
  8
0
 62
    15
 10
5.731440
 20
2.916320
 11
6.356680
 21
2.557280
 12
5.665000
 22
2.912360
 13
6.290240
 23
2.553320
  0
POLYLINE
  8
0
  6
CONTINUOUS
 66
     1
 40
0.000000
 41
0.000000
  0
VERTEX
  8
0
  6
CONTINUOUS
 10
5.731440
 20
2.916320
  0
VERTEX
  8
0
  6
CONTINUOUS
 10
6.356680
 20
2.557280
  0
VERTEX
  8
0
  6
CONTINUOUS
 10
6.290240
 20
2.553320
  0
VERTEX
  8
0
  6
CONTINUOUS
 10
5.665000
 20
2.912360
  0
VERTEX
  8
0
  6
CONTINUOUS
 10
5.731440
 20
2.916320
  0
SEQEND
  8
0
  0
SOLID
  8
0
 62
    15
 10
5.665000
 20
2.912360
 11
6.290240
 21
2.553320
 12
5.663240
 22
2.635600
 13
6.288480
 23
2.276560
  0
POLYLINE
  8
0
  6
CONTINUOUS
 66
     1
 40
0.000000
 41
0.000000
  0
VERTEX
  8
0
  6
CONTINUOUS
 10
5.665000
 20
2.912360
  0
VERTEX
  8
0
  6
CONTINUOUS
 10
6.290240
 20
2.553320
  0
VERTEX
  8
0
  6
CONTINUOUS
 10
6.288480
 20
2.276560
  0
VERTEX
  8
0
  6
CONTINUOUS
 10
5.663240
 20
2.635600
  0
VERTEX
  8
0
  6
CONTINUOUS
 10
5.665000
 20
2.912360
  0
SEQEND
  8
0
  0
SOLID
  8
0
 62
    15
 10
5.663240
 20
2.635600
 11
6.288480
 21
2.276560
 12
5.380760
 22
2.635600
 13
6.006000
 23
2.276560
  0
POLYLINE
  8
0
  6
CONTINUOUS
 66
     1
 40
0.000000
 41
0.000000
  0
VERTEX
  8
0
  6
CONTINUOUS
 10
5.663240
 20
2.635600
  0
VERTEX
  8
0
  6
CONTINUOUS
 10
6.288480
 20
2.276560
  0
VERTEX
  8
0
  6
CONTINUOUS
 10
6.006000
 20
2.276560
  0
VERTEX
  8
0
  6
CONTINUOUS
 10
5.380760
 20
2.635600
  0
VERTEX
  8
0
  6
CONTINUOUS
 10
5.663240
 20
2.635600
  0
SEQEND
  8
0
  0
SOLID
  8
0
 62
    15
 10
5.380760
 20
4.674120
 11
6.006000
 21
4.315080
 12
5.380760
 22
4.673680
 13
6.006000
 23
4.314640
  0
POLYLINE
  8
0
  6
CONTINUOUS
 66
     1
 40
0.000000
 41
0.000000
  0
VERTEX
  8
0
  6
CONTINUOUS
 10
5.380760
 20
4.674120
  0
VERTEX
  8
0
  6
CONTINUOUS
 10
6.006000
 20
4.315080
  0
VERTEX
  8
0
  6
CONTINUOUS
 10
6.006000
 20
4.314640
  0
VERTEX
  8
0
  6
CONTINUOUS
 10
5.380760
 20
4.673680
  0
VERTEX
  8
0
  6
CONTINUOUS
 10
5.380760
 20
4.674120
  0
SEQEND
  8
0
  0
POLYLINE
  8
0
  6
CONTINUOUS
 66
     1
 40
0.000000
 41
0.000000
  0
VERTEX
  8
0
  6
CONTINUOUS
 10
5.380760
 20
4.673680
  0
VERTEX
  8
0
  6
CONTINUOUS
 10
6.760160
 20
4.673680
  0
VERTEX
  8
0
  6
CONTINUOUS
 10
6.760160
 20
4.336200
  0
VERTEX
  8
0
  6
CONTINUOUS
 10
6.659400
 20
4.321240
  0
VERTEX
  8
0
  6
CONTINUOUS
 10
6.572280
 20
4.293080
  0
VERTEX
  8
0
  6
CONTINUOUS
 10
6.498360
 20
4.252600
  0
VERTEX
  8
0
  6
CONTINUOUS
 10
6.435440
 20
4.201120
  0
VERTEX
  8
0
  6
CONTINUOUS
 10
6.383520
 20
4.139080
  0
VERTEX
  8
0
  6
CONTINUOUS
 10
6.340840
 20
4.067800
  0
VERTEX
  8
0
  6
CONTINUOUS
 10
6.306080
 20
3.988600
  0
VERTEX
  8
0
  6
CONTINUOUS
 10
6.278800
 20
3.901920
  0
VERTEX
  8
0
  6
CONTINUOUS
 10
6.225120
 20
3.718440
  0
VERTEX
  8
0
  6
CONTINUOUS
 10
6.191240
 20
3.629560
  0
VERTEX
  8
0
  6
CONTINUOUS
 10
6.149000
 20
3.547720
  0
VERTEX
  8
0
  6
CONTINUOUS
 10
6.096200
 20
3.475560
  0
VERTEX
  8
0
  6
CONTINUOUS
 10
6.031080
 20
3.417920
  0
VERTEX
  8
0
  6
CONTINUOUS
 10
5.951440
 20
3.377440
  0
VERTEX
  8
0
  6
CONTINUOUS
 10
5.905240
 20
3.365120
  0
VERTEX
  8
0
  6
CONTINUOUS
 10
5.854200
 20
3.358080
  0
VERTEX
  8
0
  6
CONTINUOUS
 10
5.842760
 20
3.357200
  0
VERTEX
  8
0
  6
CONTINUOUS
 10
5.871360
 20
3.249840
  0
VERTEX
  8
0
  6
CONTINUOUS
 10
5.829560
 20
3.221240
  0
VERTEX
  8
0
  6
CONTINUOUS
 10
5.860360
 20
3.163600
  0
VERTEX
  8
0
  6
CONTINUOUS
 10
5.875320
 20
3.107280
  0
VERTEX
  8
0
  6
CONTINUOUS
 10
5.874440
 20
3.053600
  0
VERTEX
  8
0
  6
CONTINUOUS
 10
5.858600
 20
3.005640
  0
VERTEX
  8
0
  6
CONTINUOUS
 10
5.828680
 20
2.965600
  0
VERTEX
  8
0
  6
CONTINUOUS
 10
5.786000
 20
2.934800
  0
VERTEX
  8
0
  6
CONTINUOUS
 10
5.731440
 20
2.916320
  0
VERTEX
  8
0
  6
CONTINUOUS
 10
5.665000
 20
2.912360
  0
VERTEX
  8
0
  6
CONTINUOUS
 10
5.663240
 20
2.635600
  0
VERTEX
  8
0
  6
CONTINUOUS
 10
5.380760
 20
2.635600
  0
VERTEX
  8
0
  6
CONTINUOUS
 10
5.380760
 20
4.674120
  0
VERTEX
  8
0
  6
CONTINUOUS
 10
5.380760
 20
4.673680
  0
SEQEND
  8
0
  0
TEXT
  8
0
 10
7.002600
 20
2.493480
 40
0.138095
  1
BA  1242
 41
1.000000
  7
SN0
 71
     0
 72
     5
 11
7.688720
 21
2.493480
  0
TEXT
  8
0
 10
6.772920
 20
2.302080
 40
0.138095
  1
1-3/8" x 2-1/16"
 41
1.000000
  7
SN0
 71
     0
 72
     5
 11
7.920748
 21
2.302080
  0
TEXT
  8
0
 10
3.596120
 20
8.447120
 40
0.138095
  1
BA  1242
 41
1.000000
  7
SN0
 71
     0
 72
     5
 11
4.282240
 21
8.447120
  0
TEXT
  8
0
 10
3.366440
 20
8.255280
 40
0.138095
  1
1-3/8" x 2-1/16"
 41
1.000000
  7
SN0
 71
     0
 72
     5
 11
4.514268
 21
8.255280
  0
SOLID
  8
0
 62
    15
 10
2.428360
 20
3.095840
 11
3.072520
 21
2.728000
 12
2.312200
 22
3.119160
 13
2.956360
 23
2.751760
  0
POLYLINE
  8
0
  6
CONTINUOUS
 66
     1
 40
0.000000
 41
0.000000
  0
VERTEX
  8
0
  6
CONTINUOUS
 10
2.428360
 20
3.095840
  0
VERTEX
  8
0
  6
CONTINUOUS
 10
3.072520
 20
2.728000
  0
VERTEX
  8
0
  6
CONTINUOUS
 10
2.956360
 20
2.751760
  0
VERTEX
  8
0
  6
CONTINUOUS
 10
2.312200
 20
3.119160
  0
VERTEX
  8
0
  6
CONTINUOUS
 10
2.428360
 20
3.095840
  0
SEQEND
  8
0
  0
SOLID
  8
0
 62
    15
 10
4.470400
 20
4.432120
 11
5.114560
 21
4.064720
 12
4.330480
 22
4.415400
 13
4.974640
 23
4.048000
  0
POLYLINE
  8
0
  6
CONTINUOUS
 66
     1
 40
0.000000
 41
0.000000
  0
VERTEX
  8
0
  6
CONTINUOUS
 10
4.470400
 20
4.432120
  0
VERTEX
  8
0
  6
CONTINUOUS
 10
5.114560
 20
4.064720
  0
VERTEX
  8
0
  6
CONTINUOUS
 10
4.974640
 20
4.048000
  0
VERTEX
  8
0
  6
CONTINUOUS
 10
4.330480
 20
4.415400
  0
VERTEX
  8
0
  6
CONTINUOUS
 10
4.470400
 20
4.432120
  0
SEQEND
  8
0
  0
SOLID
  8
0
 62
    15
 10
4.330480
 20
4.415400
 11
4.974640
 21
4.048000
 12
4.216960
 22
4.379320
 13
4.861120
 23
4.011920
  0
POLYLINE
  8
0
  6
CONTINUOUS
 66
     1
 40
0.000000
 41
0.000000
  0
VERTEX
  8
0
  6
CONTINUOUS
 10
4.330480
 20
4.415400
  0
VERTEX
  8
0
  6
CONTINUOUS
 10
4.974640
 20
4.048000
  0
VERTEX
  8
0
  6
CONTINUOUS
 10
4.861120
 20
4.011920
  0
VERTEX
  8
0
  6
CONTINUOUS
 10
4.216960
 20
4.379320
  0
VERTEX
  8
0
  6
CONTINUOUS
 10
4.330480
 20
4.415400
  0
SEQEND
  8
0
  0
SOLID
  8
0
 62
    15
 10
4.216960
 20
4.379320
 11
4.861120
 21
4.011920
 12
4.127200
 22
4.328280
 13
4.771360
 23
3.960880
  0
POLYLINE
  8
0
  6
CONTINUOUS
 66
     1
 40
0.000000
 41
0.000000
  0
VERTEX
  8
0
  6
CONTINUOUS
 10
4.216960
 20
4.379320
  0
VERTEX
  8
0
  6
CONTINUOUS
 10
4.861120
 20
4.011920
  0
VERTEX
  8
0
  6
CONTINUOUS
 10
4.771360
 20
3.960880
  0
VERTEX
  8
0
  6
CONTINUOUS
 10
4.127200
 20
4.328280
  0
VERTEX
  8
0
  6
CONTINUOUS
 10
4.216960
 20
4.379320
  0
SEQEND
  8
0
  0
SOLID
  8
0
 62
    15
 10
4.127200
 20
4.328280
 11
4.771360
 21
3.960880
 12
4.056800
 22
4.266240
 13
4.700960
 23
3.898400
  0
POLYLINE
  8
0
  6
CONTINUOUS
 66
     1
 40
0.000000
 41
0.000000
  0
VERTEX
  8
0
  6
CONTINUOUS
 10
4.127200
 20
4.328280
  0
VERTEX
  8
0
  6
CONTINUOUS
 10
4.771360
 20
3.960880
  0
VERTEX
  8
0
  6
CONTINUOUS
 10
4.700960
 20
3.898400
  0
VERTEX
  8
0
  6
CONTINUOUS
 10
4.056800
 20
4.266240
  0
VERTEX
  8
0
  6
CONTINUOUS
 10
4.127200
 20
4.328280
  0
SEQEND
  8
0
  0
SOLID
  8
0
 62
    15
 10
4.056800
 20
4.266240
 11
4.700960
 21
3.898400
 12
3.961320
 22
4.123680
 13
4.605480
 23
3.756280
  0
POLYLINE
  8
0
  6
CONTINUOUS
 66
     1
 40
0.000000
 41
0.000000
  0
VERTEX
  8
0
  6
CONTINUOUS
 10
4.056800
 20
4.266240
  0
VERTEX
  8
0
  6
CONTINUOUS
 10
4.700960
 20
3.898400
  0
VERTEX
  8
0
  6
CONTINUOUS
 10
4.605480
 20
3.756280
  0
VERTEX
  8
0
  6
CONTINUOUS
 10
3.961320
 20
4.123680
  0
VERTEX
  8
0
  6
CONTINUOUS
 10
4.056800
 20
4.266240
  0
SEQEND
  8
0
  0
SOLID
  8
0
 62
    15
 10
3.961320
 20
4.123680
 11
4.605480
 21
3.756280
 12
3.902800
 22
3.984640
 13
4.546960
 23
3.616800
  0
POLYLINE
  8
0
  6
CONTINUOUS
 66
     1
 40
0.000000
 41
0.000000
  0
VERTEX
  8
0
  6
CONTINUOUS
 10
3.961320
 20
4.123680
  0
VERTEX
  8
0
  6
CONTINUOUS
 10
4.605480
 20
3.756280
  0
VERTEX
  8
0
  6
CONTINUOUS
 10
4.546960
 20
3.616800
  0
VERTEX
  8
0
  6
CONTINUOUS
 10
3.902800
 20
3.984640
  0
VERTEX
  8
0
  6
CONTINUOUS
 10
3.961320
 20
4.123680
  0
SEQEND
  8
0
  0
SOLID
  8
0
 62
    15
 10
3.902800
 20
3.984640
 11
4.546960
 21
3.616800
 12
3.842960
 22
3.851760
 13
4.487120
 23
3.483920
  0
POLYLINE
  8
0
  6
CONTINUOUS
 66
     1
 40
0.000000
 41
0.000000
  0
VERTEX
  8
0
  6
CONTINUOUS
 10
3.902800
 20
3.984640
  0
VERTEX
  8
0
  6
CONTINUOUS
 10
4.546960
 20
3.616800
  0
VERTEX
  8
0
  6
CONTINUOUS
 10
4.487120
 20
3.483920
  0
VERTEX
  8
0
  6
CONTINUOUS
 10
3.842960
 20
3.851760
  0
VERTEX
  8
0
  6
CONTINUOUS
 10
3.902800
 20
3.984640
  0
SEQEND
  8
0
  0
SOLID
  8
0
 62
    15
 10
3.842960
 20
3.851760
 11
4.487120
 21
3.483920
 12
3.752760
 22
3.723720
 13
4.396920
 23
3.355880
  0
POLYLINE
  8
0
  6
CONTINUOUS
 66
     1
 40
0.000000
 41
0.000000
  0
VERTEX
  8
0
  6
CONTINUOUS
 10
3.842960
 20
3.851760
  0
VERTEX
  8
0
  6
CONTINUOUS
 10
4.487120
 20
3.483920
  0
VERTEX
  8
0
  6
CONTINUOUS
 10
4.396920
 20
3.355880
  0
VERTEX
  8
0
  6
CONTINUOUS
 10
3.752760
 20
3.723720
  0
VERTEX
  8
0
  6
CONTINUOUS
 10
3.842960
 20
3.851760
  0
SEQEND
  8
0
  0
SOLID
  8
0
 62
    15
 10
3.752760
 20
3.723720
 11
4.396920
 21
3.355880
 12
3.617680
 22
3.624720
 13
4.261840
 23
3.257320
  0
POLYLINE
  8
0
  6
CONTINUOUS
 66
     1
 40
0.000000
 41
0.000000
  0
VERTEX
  8
0
  6
CONTINUOUS
 10
3.752760
 20
3.723720
  0
VERTEX
  8
0
  6
CONTINUOUS
 10
4.396920
 20
3.355880
  0
VERTEX
  8
0
  6
CONTINUOUS
 10
4.261840
 20
3.257320
  0
VERTEX
  8
0
  6
CONTINUOUS
 10
3.617680
 20
3.624720
  0
VERTEX
  8
0
  6
CONTINUOUS
 10
3.752760
 20
3.723720
  0
SEQEND
  8
0
  0
SOLID
  8
0
 62
    15
 10
3.617680
 20
3.624720
 11
4.261840
 21
3.257320
 12
3.529240
 22
3.594360
 13
4.173400
 23
3.226960
  0
POLYLINE
  8
0
  6
CONTINUOUS
 66
     1
 40
0.000000
 41
0.000000
  0
VERTEX
  8
0
  6
CONTINUOUS
 10
3.617680
 20
3.624720
  0
VERTEX
  8
0
  6
CONTINUOUS
 10
4.261840
 20
3.257320
  0
VERTEX
  8
0
  6
CONTINUOUS
 10
4.173400
 20
3.226960
  0
VERTEX
  8
0
  6
CONTINUOUS
 10
3.529240
 20
3.594360
  0
VERTEX
  8
0
  6
CONTINUOUS
 10
3.617680
 20
3.624720
  0
SEQEND
  8
0
  0
SOLID
  8
0
 62
    15
 10
3.529240
 20
3.594360
 11
4.173400
 21
3.226960
 12
3.424080
 22
3.580280
 13
4.068240
 23
3.212440
  0
POLYLINE
  8
0
  6
CONTINUOUS
 66
     1
 40
0.000000
 41
0.000000
  0
VERTEX
  8
0
  6
CONTINUOUS
 10
3.529240
 20
3.594360
  0
VERTEX
  8
0
  6
CONTINUOUS
 10
4.173400
 20
3.226960
  0
VERTEX
  8
0
  6
CONTINUOUS
 10
4.068240
 20
3.212440
  0
VERTEX
  8
0
  6
CONTINUOUS
 10
3.424080
 20
3.580280
  0
VERTEX
  8
0
  6
CONTINUOUS
 10
3.529240
 20
3.594360
  0
SEQEND
  8
0
  0
SOLID
  8
0
 62
    15
 10
3.424080
 20
3.580280
 11
4.068240
 21
3.212440
 12
3.425840
 22
3.472480
 13
4.070000
 23
3.105080
  0
POLYLINE
  8
0
  6
CONTINUOUS
 66
     1
 40
0.000000
 41
0.000000
  0
VERTEX
  8
0
  6
CONTINUOUS
 10
3.424080
 20
3.580280
  0
VERTEX
  8
0
  6
CONTINUOUS
 10
4.068240
 20
3.212440
  0
VERTEX
  8
0
  6
CONTINUOUS
 10
4.070000
 20
3.105080
  0
VERTEX
  8
0
  6
CONTINUOUS
 10
3.425840
 20
3.472480
  0
VERTEX
  8
0
  6
CONTINUOUS
 10
3.424080
 20
3.580280
  0
SEQEND
  8
0
  0
SOLID
  8
0
 62
    15
 10
3.425840
 20
3.472480
 11
4.070000
 21
3.105080
 12
3.383600
 22
3.453120
 13
4.027760
 23
3.085720
  0
POLYLINE
  8
0
  6
CONTINUOUS
 66
     1
 40
0.000000
 41
0.000000
  0
VERTEX
  8
0
  6
CONTINUOUS
 10
3.425840
 20
3.472480
  0
VERTEX
  8
0
  6
CONTINUOUS
 10
4.070000
 20
3.105080
  0
VERTEX
  8
0
  6
CONTINUOUS
 10
4.027760
 20
3.085720
  0
VERTEX
  8
0
  6
CONTINUOUS
 10
3.383600
 20
3.453120
  0
VERTEX
  8
0
  6
CONTINUOUS
 10
3.425840
 20
3.472480
  0
SEQEND
  8
0
  0
SOLID
  8
0
 62
    15
 10
3.383600
 20
3.453120
 11
4.027760
 21
3.085720
 12
3.395040
 22
3.427160
 13
4.039200
 23
3.059760
  0
POLYLINE
  8
0
  6
CONTINUOUS
 66
     1
 40
0.000000
 41
0.000000
  0
VERTEX
  8
0
  6
CONTINUOUS
 10
3.383600
 20
3.453120
  0
VERTEX
  8
0
  6
CONTINUOUS
 10
4.027760
 20
3.085720
  0
VERTEX
  8
0
  6
CONTINUOUS
 10
4.039200
 20
3.059760
  0
VERTEX
  8
0
  6
CONTINUOUS
 10
3.395040
 20
3.427160
  0
VERTEX
  8
0
  6
CONTINUOUS
 10
3.383600
 20
3.453120
  0
SEQEND
  8
0
  0
SOLID
  8
0
 62
    15
 10
3.395040
 20
3.427160
 11
4.039200
 21
3.059760
 12
3.414400
 22
3.366000
 13
4.058560
 23
2.998160
  0
POLYLINE
  8
0
  6
CONTINUOUS
 66
     1
 40
0.000000
 41
0.000000
  0
VERTEX
  8
0
  6
CONTINUOUS
 10
3.395040
 20
3.427160
  0
VERTEX
  8
0
  6
CONTINUOUS
 10
4.039200
 20
3.059760
  0
VERTEX
  8
0
  6
CONTINUOUS
 10
4.058560
 20
2.998160
  0
VERTEX
  8
0
  6
CONTINUOUS
 10
3.414400
 20
3.366000
  0
VERTEX
  8
0
  6
CONTINUOUS
 10
3.395040
 20
3.427160
  0
SEQEND
  8
0
  0
SOLID
  8
0
 62
    15
 10
3.414400
 20
3.366000
 11
4.058560
 21
2.998160
 12
3.417480
 22
3.310560
 13
4.061640
 23
2.943160
  0
POLYLINE
  8
0
  6
CONTINUOUS
 66
     1
 40
0.000000
 41
0.000000
  0
VERTEX
  8
0
  6
CONTINUOUS
 10
3.414400
 20
3.366000
  0
VERTEX
  8
0
  6
CONTINUOUS
 10
4.058560
 20
2.998160
  0
VERTEX
  8
0
  6
CONTINUOUS
 10
4.061640
 20
2.943160
  0
VERTEX
  8
0
  6
CONTINUOUS
 10
3.417480
 20
3.310560
  0
VERTEX
  8
0
  6
CONTINUOUS
 10
3.414400
 20
3.366000
  0
SEQEND
  8
0
  0
SOLID
  8
0
 62
    15
 10
3.417480
 20
3.310560
 11
4.061640
 21
2.943160
 12
3.380520
 22
3.222560
 13
4.024680
 23
2.855160
  0
POLYLINE
  8
0
  6
CONTINUOUS
 66
     1
 40
0.000000
 41
0.000000
  0
VERTEX
  8
0
  6
CONTINUOUS
 10
3.417480
 20
3.310560
  0
VERTEX
  8
0
  6
CONTINUOUS
 10
4.061640
 20
2.943160
  0
VERTEX
  8
0
  6
CONTINUOUS
 10
4.024680
 20
2.855160
  0
VERTEX
  8
0
  6
CONTINUOUS
 10
3.380520
 20
3.222560
  0
VERTEX
  8
0
  6
CONTINUOUS
 10
3.417480
 20
3.310560
  0
SEQEND
  8
0
  0
SOLID
  8
0
 62
    15
 10
3.380520
 20
3.222560
 11
4.024680
 21
2.855160
 12
3.294720
 22
3.170640
 13
3.938880
 23
2.803240
  0
POLYLINE
  8
0
  6
CONTINUOUS
 66
     1
 40
0.000000
 41
0.000000
  0
VERTEX
  8
0
  6
CONTINUOUS
 10
3.380520
 20
3.222560
  0
VERTEX
  8
0
  6
CONTINUOUS
 10
4.024680
 20
2.855160
  0
VERTEX
  8
0
  6
CONTINUOUS
 10
3.938880
 20
2.803240
  0
VERTEX
  8
0
  6
CONTINUOUS
 10
3.294720
 20
3.170640
  0
VERTEX
  8
0
  6
CONTINUOUS
 10
3.380520
 20
3.222560
  0
SEQEND
  8
0
  0
SOLID
  8
0
 62
    15
 10
3.294720
 20
3.170640
 11
3.938880
 21
2.803240
 12
3.171080
 22
3.161840
 13
3.815680
 23
2.794000
  0
POLYLINE
  8
0
  6
CONTINUOUS
 66
     1
 40
0.000000
 41
0.000000
  0
VERTEX
  8
0
  6
CONTINUOUS
 10
3.294720
 20
3.170640
  0
VERTEX
  8
0
  6
CONTINUOUS
 10
3.938880
 20
2.803240
  0
VERTEX
  8
0
  6
CONTINUOUS
 10
3.815680
 20
2.794000
  0
VERTEX
  8
0
  6
CONTINUOUS
 10
3.171080
 20
3.161840
  0
VERTEX
  8
0
  6
CONTINUOUS
 10
3.294720
 20
3.170640
  0
SEQEND
  8
0
  0
SOLID
  8
0
 62
    15
 10
3.171080
 20
3.161840
 11
3.815680
 21
2.794000
 12
3.142040
 22
2.867480
 13
3.786200
 23
2.500080
  0
POLYLINE
  8
0
  6
CONTINUOUS
 66
     1
 40
0.000000
 41
0.000000
  0
VERTEX
  8
0
  6
CONTINUOUS
 10
3.171080
 20
3.161840
  0
VERTEX
  8
0
  6
CONTINUOUS
 10
3.815680
 20
2.794000
  0
VERTEX
  8
0
  6
CONTINUOUS
 10
3.786200
 20
2.500080
  0
VERTEX
  8
0
  6
CONTINUOUS
 10
3.142040
 20
2.867480
  0
VERTEX
  8
0
  6
CONTINUOUS
 10
3.171080
 20
3.161840
  0
SEQEND
  8
0
  0
SOLID
  8
0
 62
    15
 10
2.532640
 20
3.047880
 11
3.177240
 21
2.680480
 12
2.428360
 22
3.095840
 13
3.072520
 23
2.728000
  0
POLYLINE
  8
0
  6
CONTINUOUS
 66
     1
 40
0.000000
 41
0.000000
  0
VERTEX
  8
0
  6
CONTINUOUS
 10
2.532640
 20
3.047880
  0
VERTEX
  8
0
  6
CONTINUOUS
 10
3.177240
 20
2.680480
  0
VERTEX
  8
0
  6
CONTINUOUS
 10
3.072520
 20
2.728000
  0
VERTEX
  8
0
  6
CONTINUOUS
 10
2.428360
 20
3.095840
  0
VERTEX
  8
0
  6
CONTINUOUS
 10
2.532640
 20
3.047880
  0
SEQEND
  8
0
  0
SOLID
  8
0
 62
    15
 10
2.312200
 20
3.119160
 11
2.956360
 21
2.751760
 12
2.186360
 22
3.120040
 13
2.830960
 23
2.752640
  0
POLYLINE
  8
0
  6
CONTINUOUS
 66
     1
 40
0.000000
 41
0.000000
  0
VERTEX
  8
0
  6
CONTINUOUS
 10
2.312200
 20
3.119160
  0
VERTEX
  8
0
  6
CONTINUOUS
 10
2.956360
 20
2.751760
  0
VERTEX
  8
0
  6
CONTINUOUS
 10
2.830960
 20
2.752640
  0
VERTEX
  8
0
  6
CONTINUOUS
 10
2.186360
 20
3.120040
  0
VERTEX
  8
0
  6
CONTINUOUS
 10
2.312200
 20
3.119160
  0
SEQEND
  8
0
  0
SOLID
  8
0
 62
    15
 10
4.500320
 20
4.757720
 11
5.144920
 21
4.390320
 12
4.470400
 22
4.432120
 13
5.114560
 23
4.064720
  0
POLYLINE
  8
0
  6
CONTINUOUS
 66
     1
 40
0.000000
 41
0.000000
  0
VERTEX
  8
0
  6
CONTINUOUS
 10
4.500320
 20
4.757720
  0
VERTEX
  8
0
  6
CONTINUOUS
 10
5.144920
 20
4.390320
  0
VERTEX
  8
0
  6
CONTINUOUS
 10
5.114560
 20
4.064720
  0
VERTEX
  8
0
  6
CONTINUOUS
 10
4.470400
 20
4.432120
  0
VERTEX
  8
0
  6
CONTINUOUS
 10
4.500320
 20
4.757720
  0
SEQEND
  8
0
  0
SOLID
  8
0
 62
    15
 10
3.142040
 20
2.867480
 11
3.786200
 21
2.500080
 12
2.693680
 22
2.874960
 13
3.337840
 23
2.507560
  0
POLYLINE
  8
0
  6
CONTINUOUS
 66
     1
 40
0.000000
 41
0.000000
  0
VERTEX
  8
0
  6
CONTINUOUS
 10
3.142040
 20
2.867480
  0
VERTEX
  8
0
  6
CONTINUOUS
 10
3.786200
 20
2.500080
  0
VERTEX
  8
0
  6
CONTINUOUS
 10
3.337840
 20
2.507560
  0
VERTEX
  8
0
  6
CONTINUOUS
 10
2.693680
 20
2.874960
  0
VERTEX
  8
0
  6
CONTINUOUS
 10
3.142040
 20
2.867480
  0
SEQEND
  8
0
  0
SOLID
  8
0
 62
    15
 10
2.186360
 20
3.120040
 11
2.830960
 21
2.752640
 12
2.055240
 22
3.099360
 13
2.699400
 23
2.731520
  0
POLYLINE
  8
0
  6
CONTINUOUS
 66
     1
 40
0.000000
 41
0.000000
  0
VERTEX
  8
0
  6
CONTINUOUS
 10
2.186360
 20
3.120040
  0
VERTEX
  8
0
  6
CONTINUOUS
 10
2.830960
 20
2.752640
  0
VERTEX
  8
0
  6
CONTINUOUS
 10
2.699400
 20
2.731520
  0
VERTEX
  8
0
  6
CONTINUOUS
 10
2.055240
 20
3.099360
  0
VERTEX
  8
0
  6
CONTINUOUS
 10
2.186360
 20
3.120040
  0
SEQEND
  8
0
  0
SOLID
  8
0
 62
    15
 10
2.055240
 20
3.099360
 11
2.699400
 21
2.731520
 12
1.920600
 22
3.058000
 13
2.564760
 23
2.690600
  0
POLYLINE
  8
0
  6
CONTINUOUS
 66
     1
 40
0.000000
 41
0.000000
  0
VERTEX
  8
0
  6
CONTINUOUS
 10
2.055240
 20
3.099360
  0
VERTEX
  8
0
  6
CONTINUOUS
 10
2.699400
 20
2.731520
  0
VERTEX
  8
0
  6
CONTINUOUS
 10
2.564760
 20
2.690600
  0
VERTEX
  8
0
  6
CONTINUOUS
 10
1.920600
 20
3.058000
  0
VERTEX
  8
0
  6
CONTINUOUS
 10
2.055240
 20
3.099360
  0
SEQEND
  8
0
  0
SOLID
  8
0
 62
    15
 10
1.920600
 20
3.058000
 11
2.564760
 21
2.690600
 12
1.785520
 22
2.997720
 13
2.430120
 23
2.630320
  0
POLYLINE
  8
0
  6
CONTINUOUS
 66
     1
 40
0.000000
 41
0.000000
  0
VERTEX
  8
0
  6
CONTINUOUS
 10
1.920600
 20
3.058000
  0
VERTEX
  8
0
  6
CONTINUOUS
 10
2.564760
 20
2.690600
  0
VERTEX
  8
0
  6
CONTINUOUS
 10
2.430120
 20
2.630320
  0
VERTEX
  8
0
  6
CONTINUOUS
 10
1.785520
 20
2.997720
  0
VERTEX
  8
0
  6
CONTINUOUS
 10
1.920600
 20
3.058000
  0
SEQEND
  8
0
  0
SOLID
  8
0
 62
    15
 10
1.785520
 20
2.997720
 11
2.430120
 21
2.630320
 12
1.653960
 22
2.919840
 13
2.298120
 23
2.552440
  0
POLYLINE
  8
0
  6
CONTINUOUS
 66
     1
 40
0.000000
 41
0.000000
  0
VERTEX
  8
0
  6
CONTINUOUS
 10
1.785520
 20
2.997720
  0
VERTEX
  8
0
  6
CONTINUOUS
 10
2.430120
 20
2.630320
  0
VERTEX
  8
0
  6
CONTINUOUS
 10
2.298120
 20
2.552440
  0
VERTEX
  8
0
  6
CONTINUOUS
 10
1.653960
 20
2.919840
  0
VERTEX
  8
0
  6
CONTINUOUS
 10
1.785520
 20
2.997720
  0
SEQEND
  8
0
  0
SOLID
  8
0
 62
    15
 10
1.653960
 20
2.919840
 11
2.298120
 21
2.552440
 12
1.527680
 22
2.825680
 13
2.171840
 23
2.457840
  0
POLYLINE
  8
0
  6
CONTINUOUS
 66
     1
 40
0.000000
 41
0.000000
  0
VERTEX
  8
0
  6
CONTINUOUS
 10
1.653960
 20
2.919840
  0
VERTEX
  8
0
  6
CONTINUOUS
 10
2.298120
 20
2.552440
  0
VERTEX
  8
0
  6
CONTINUOUS
 10
2.171840
 20
2.457840
  0
VERTEX
  8
0
  6
CONTINUOUS
 10
1.527680
 20
2.825680
  0
VERTEX
  8
0
  6
CONTINUOUS
 10
1.653960
 20
2.919840
  0
SEQEND
  8
0
  0
SOLID
  8
0
 62
    15
 10
1.527680
 20
2.825680
 11
2.171840
 21
2.457840
 12
1.410200
 22
2.716120
 13
2.054800
 23
2.348720
  0
POLYLINE
  8
0
  6
CONTINUOUS
 66
     1
 40
0.000000
 41
0.000000
  0
VERTEX
  8
0
  6
CONTINUOUS
 10
1.527680
 20
2.825680
  0
VERTEX
  8
0
  6
CONTINUOUS
 10
2.171840
 20
2.457840
  0
VERTEX
  8
0
  6
CONTINUOUS
 10
2.054800
 20
2.348720
  0
VERTEX
  8
0
  6
CONTINUOUS
 10
1.410200
 20
2.716120
  0
VERTEX
  8
0
  6
CONTINUOUS
 10
1.527680
 20
2.825680
  0
SEQEND
  8
0
  0
SOLID
  8
0
 62
    15
 10
1.410200
 20
2.716120
 11
2.054800
 21
2.348720
 12
1.304600
 22
2.592480
 13
1.949200
 23
2.225080
  0
POLYLINE
  8
0
  6
CONTINUOUS
 66
     1
 40
0.000000
 41
0.000000
  0
VERTEX
  8
0
  6
CONTINUOUS
 10
1.410200
 20
2.716120
  0
VERTEX
  8
0
  6
CONTINUOUS
 10
2.054800
 20
2.348720
  0
VERTEX
  8
0
  6
CONTINUOUS
 10
1.949200
 20
2.225080
  0
VERTEX
  8
0
  6
CONTINUOUS
 10
1.304600
 20
2.592480
  0
VERTEX
  8
0
  6
CONTINUOUS
 10
1.410200
 20
2.716120
  0
SEQEND
  8
0
  0
SOLID
  8
0
 62
    15
 10
1.304600
 20
2.592480
 11
1.949200
 21
2.225080
 12
1.213960
 22
2.456520
 13
1.858120
 23
2.089120
  0
POLYLINE
  8
0
  6
CONTINUOUS
 66
     1
 40
0.000000
 41
0.000000
  0
VERTEX
  8
0
  6
CONTINUOUS
 10
1.304600
 20
2.592480
  0
VERTEX
  8
0
  6
CONTINUOUS
 10
1.949200
 20
2.225080
  0
VERTEX
  8
0
  6
CONTINUOUS
 10
1.858120
 20
2.089120
  0
VERTEX
  8
0
  6
CONTINUOUS
 10
1.213960
 20
2.456520
  0
VERTEX
  8
0
  6
CONTINUOUS
 10
1.304600
 20
2.592480
  0
SEQEND
  8
0
  0
SOLID
  8
0
 62
    15
 10
1.213960
 20
2.456520
 11
1.858120
 21
2.089120
 12
1.140920
 22
2.309120
 13
1.785080
 23
1.941720
  0
POLYLINE
  8
0
  6
CONTINUOUS
 66
     1
 40
0.000000
 41
0.000000
  0
VERTEX
  8
0
  6
CONTINUOUS
 10
1.213960
 20
2.456520
  0
VERTEX
  8
0
  6
CONTINUOUS
 10
1.858120
 20
2.089120
  0
VERTEX
  8
0
  6
CONTINUOUS
 10
1.785080
 20
1.941720
  0
VERTEX
  8
0
  6
CONTINUOUS
 10
1.140920
 20
2.309120
  0
VERTEX
  8
0
  6
CONTINUOUS
 10
1.213960
 20
2.456520
  0
SEQEND
  8
0
  0
SOLID
  8
0
 62
    15
 10
1.140920
 20
2.309120
 11
1.785080
 21
1.941720
 12
1.088120
 22
2.151600
 13
1.732720
 23
1.784200
  0
POLYLINE
  8
0
  6
CONTINUOUS
 66
     1
 40
0.000000
 41
0.000000
  0
VERTEX
  8
0
  6
CONTINUOUS
 10
1.140920
 20
2.309120
  0
VERTEX
  8
0
  6
CONTINUOUS
 10
1.785080
 20
1.941720
  0
VERTEX
  8
0
  6
CONTINUOUS
 10
1.732720
 20
1.784200
  0
VERTEX
  8
0
  6
CONTINUOUS
 10
1.088120
 20
2.151600
  0
VERTEX
  8
0
  6
CONTINUOUS
 10
1.140920
 20
2.309120
  0
SEQEND
  8
0
  0
SOLID
  8
0
 62
    15
 10
1.088120
 20
2.151600
 11
1.732720
 21
1.784200
 12
1.059520
 22
1.985720
 13
1.703680
 23
1.617880
  0
POLYLINE
  8
0
  6
CONTINUOUS
 66
     1
 40
0.000000
 41
0.000000
  0
VERTEX
  8
0
  6
CONTINUOUS
 10
1.088120
 20
2.151600
  0
VERTEX
  8
0
  6
CONTINUOUS
 10
1.732720
 20
1.784200
  0
VERTEX
  8
0
  6
CONTINUOUS
 10
1.703680
 20
1.617880
  0
VERTEX
  8
0
  6
CONTINUOUS
 10
1.059520
 20
1.985720
  0
VERTEX
  8
0
  6
CONTINUOUS
 10
1.088120
 20
2.151600
  0
SEQEND
  8
0
  0
SOLID
  8
0
 62
    15
 10
1.059520
 20
1.985720
 11
1.703680
 21
1.617880
 12
1.040600
 22
1.825560
 13
1.685200
 23
1.458160
  0
POLYLINE
  8
0
  6
CONTINUOUS
 66
     1
 40
0.000000
 41
0.000000
  0
VERTEX
  8
0
  6
CONTINUOUS
 10
1.059520
 20
1.985720
  0
VERTEX
  8
0
  6
CONTINUOUS
 10
1.703680
 20
1.617880
  0
VERTEX
  8
0
  6
CONTINUOUS
 10
1.685200
 20
1.458160
  0
VERTEX
  8
0
  6
CONTINUOUS
 10
1.040600
 20
1.825560
  0
VERTEX
  8
0
  6
CONTINUOUS
 10
1.059520
 20
1.985720
  0
SEQEND
  8
0
  0
SOLID
  8
0
 62
    15
 10
1.040600
 20
1.825560
 11
1.685200
 21
1.458160
 12
1.017280
 22
1.685200
 13
1.661440
 23
1.317800
  0
POLYLINE
  8
0
  6
CONTINUOUS
 66
     1
 40
0.000000
 41
0.000000
  0
VERTEX
  8
0
  6
CONTINUOUS
 10
1.040600
 20
1.825560
  0
VERTEX
  8
0
  6
CONTINUOUS
 10
1.685200
 20
1.458160
  0
VERTEX
  8
0
  6
CONTINUOUS
 10
1.661440
 20
1.317800
  0
VERTEX
  8
0
  6
CONTINUOUS
 10
1.017280
 20
1.685200
  0
VERTEX
  8
0
  6
CONTINUOUS
 10
1.040600
 20
1.825560
  0
SEQEND
  8
0
  0
SOLID
  8
0
 62
    15
 10
1.017280
 20
1.685200
 11
1.661440
 21
1.317800
 12
0.989560
 22
1.563320
 13
1.633720
 23
1.195920
  0
POLYLINE
  8
0
  6
CONTINUOUS
 66
     1
 40
0.000000
 41
0.000000
  0
VERTEX
  8
0
  6
CONTINUOUS
 10
1.017280
 20
1.685200
  0
VERTEX
  8
0
  6
CONTINUOUS
 10
1.661440
 20
1.317800
  0
VERTEX
  8
0
  6
CONTINUOUS
 10
1.633720
 20
1.195920
  0
VERTEX
  8
0
  6
CONTINUOUS
 10
0.989560
 20
1.563320
  0
VERTEX
  8
0
  6
CONTINUOUS
 10
1.017280
 20
1.685200
  0
SEQEND
  8
0
  0
SOLID
  8
0
 62
    15
 10
0.989560
 20
1.563320
 11
1.633720
 21
1.195920
 12
0.958320
 22
1.458600
 13
1.602480
 23
1.091200
  0
POLYLINE
  8
0
  6
CONTINUOUS
 66
     1
 40
0.000000
 41
0.000000
  0
VERTEX
  8
0
  6
CONTINUOUS
 10
0.989560
 20
1.563320
  0
VERTEX
  8
0
  6
CONTINUOUS
 10
1.633720
 20
1.195920
  0
VERTEX
  8
0
  6
CONTINUOUS
 10
1.602480
 20
1.091200
  0
VERTEX
  8
0
  6
CONTINUOUS
 10
0.958320
 20
1.458600
  0
VERTEX
  8
0
  6
CONTINUOUS
 10
0.989560
 20
1.563320
  0
SEQEND
  8
0
  0
SOLID
  8
0
 62
    15
 10
0.958320
 20
1.458600
 11
1.602480
 21
1.091200
 12
0.887480
 22
1.295800
 13
1.531640
 23
0.927960
  0
POLYLINE
  8
0
  6
CONTINUOUS
 66
     1
 40
0.000000
 41
0.000000
  0
VERTEX
  8
0
  6
CONTINUOUS
 10
0.958320
 20
1.458600
  0
VERTEX
  8
0
  6
CONTINUOUS
 10
1.602480
 20
1.091200
  0
VERTEX
  8
0
  6
CONTINUOUS
 10
1.531640
 20
0.927960
  0
VERTEX
  8
0
  6
CONTINUOUS
 10
0.887480
 20
1.295800
  0
VERTEX
  8
0
  6
CONTINUOUS
 10
0.958320
 20
1.458600
  0
SEQEND
  8
0
  0
SOLID
  8
0
 62
    15
 10
0.887480
 20
1.295800
 11
1.531640
 21
0.927960
 12
0.809160
 22
1.185800
 13
1.453320
 23
0.818400
  0
POLYLINE
  8
0
  6
CONTINUOUS
 66
     1
 40
0.000000
 41
0.000000
  0
VERTEX
  8
0
  6
CONTINUOUS
 10
0.887480
 20
1.295800
  0
VERTEX
  8
0
  6
CONTINUOUS
 10
1.531640
 20
0.927960
  0
VERTEX
  8
0
  6
CONTINUOUS
 10
1.453320
 20
0.818400
  0
VERTEX
  8
0
  6
CONTINUOUS
 10
0.809160
 20
1.185800
  0
VERTEX
  8
0
  6
CONTINUOUS
 10
0.887480
 20
1.295800
  0
SEQEND
  8
0
  0
SOLID
  8
0
 62
    15
 10
0.809160
 20
1.185800
 11
1.453320
 21
0.818400
 12
0.728640
 22
1.119800
 13
1.372800
 23
0.751960
  0
POLYLINE
  8
0
  6
CONTINUOUS
 66
     1
 40
0.000000
 41
0.000000
  0
VERTEX
  8
0
  6
CONTINUOUS
 10
0.809160
 20
1.185800
  0
VERTEX
  8
0
  6
CONTINUOUS
 10
1.453320
 20
0.818400
  0
VERTEX
  8
0
  6
CONTINUOUS
 10
1.372800
 20
0.751960
  0
VERTEX
  8
0
  6
CONTINUOUS
 10
0.728640
 20
1.119800
  0
VERTEX
  8
0
  6
CONTINUOUS
 10
0.809160
 20
1.185800
  0
SEQEND
  8
0
  0
SOLID
  8
0
 62
    15
 10
0.728640
 20
1.119800
 11
1.372800
 21
0.751960
 12
0.650760
 22
1.086800
 13
1.294920
 23
0.718960
  0
POLYLINE
  8
0
  6
CONTINUOUS
 66
     1
 40
0.000000
 41
0.000000
  0
VERTEX
  8
0
  6
CONTINUOUS
 10
0.728640
 20
1.119800
  0
VERTEX
  8
0
  6
CONTINUOUS
 10
1.372800
 20
0.751960
  0
VERTEX
  8
0
  6
CONTINUOUS
 10
1.294920
 20
0.718960
  0
VERTEX
  8
0
  6
CONTINUOUS
 10
0.650760
 20
1.086800
  0
VERTEX
  8
0
  6
CONTINUOUS
 10
0.728640
 20
1.119800
  0
SEQEND
  8
0
  0
SOLID
  8
0
 62
    15
 10
0.650760
 20
1.086800
 11
1.294920
 21
0.718960
 12
0.580360
 22
1.076680
 13
1.224520
 23
0.709280
  0
POLYLINE
  8
0
  6
CONTINUOUS
 66
     1
 40
0.000000
 41
0.000000
  0
VERTEX
  8
0
  6
CONTINUOUS
 10
0.650760
 20
1.086800
  0
VERTEX
  8
0
  6
CONTINUOUS
 10
1.294920
 20
0.718960
  0
VERTEX
  8
0
  6
CONTINUOUS
 10
1.224520
 20
0.709280
  0
VERTEX
  8
0
  6
CONTINUOUS
 10
0.580360
 20
1.076680
  0
VERTEX
  8
0
  6
CONTINUOUS
 10
0.650760
 20
1.086800
  0
SEQEND
  8
0
  0
SOLID
  8
0
 62
    15
 10
0.580360
 20
1.076680
 11
1.224520
 21
0.709280
 12
0.521840
 22
1.079760
 13
1.166440
 23
0.712360
  0
POLYLINE
  8
0
  6
CONTINUOUS
 66
     1
 40
0.000000
 41
0.000000
  0
VERTEX
  8
0
  6
CONTINUOUS
 10
0.580360
 20
1.076680
  0
VERTEX
  8
0
  6
CONTINUOUS
 10
1.224520
 20
0.709280
  0
VERTEX
  8
0
  6
CONTINUOUS
 10
1.166440
 20
0.712360
  0
VERTEX
  8
0
  6
CONTINUOUS
 10
0.521840
 20
1.079760
  0
VERTEX
  8
0
  6
CONTINUOUS
 10
0.580360
 20
1.076680
  0
SEQEND
  8
0
  0
POLYLINE
  8
0
  6
CONTINUOUS
 66
     1
 40
0.000000
 41
0.000000
  0
VERTEX
  8
0
  6
CONTINUOUS
 10
4.500320
 20
4.757720
  0
VERTEX
  8
0
  6
CONTINUOUS
 10
4.470400
 20
4.432120
  0
VERTEX
  8
0
  6
CONTINUOUS
 10
4.330480
 20
4.415400
  0
VERTEX
  8
0
  6
CONTINUOUS
 10
4.216960
 20
4.379320
  0
VERTEX
  8
0
  6
CONTINUOUS
 10
4.127200
 20
4.328280
  0
VERTEX
  8
0
  6
CONTINUOUS
 10
4.056800
 20
4.266240
  0
VERTEX
  8
0
  6
CONTINUOUS
 10
3.961320
 20
4.123680
  0
VERTEX
  8
0
  6
CONTINUOUS
 10
3.902800
 20
3.984640
  0
VERTEX
  8
0
  6
CONTINUOUS
 10
3.842960
 20
3.851760
  0
VERTEX
  8
0
  6
CONTINUOUS
 10
3.752760
 20
3.723720
  0
VERTEX
  8
0
  6
CONTINUOUS
 10
3.617680
 20
3.624720
  0
VERTEX
  8
0
  6
CONTINUOUS
 10
3.529240
 20
3.594360
  0
VERTEX
  8
0
  6
CONTINUOUS
 10
3.424080
 20
3.580280
  0
VERTEX
  8
0
  6
CONTINUOUS
 10
3.425840
 20
3.472480
  0
VERTEX
  8
0
  6
CONTINUOUS
 10
3.383600
 20
3.453120
  0
VERTEX
  8
0
  6
CONTINUOUS
 10
3.395040
 20
3.427160
  0
VERTEX
  8
0
  6
CONTINUOUS
 10
3.414400
 20
3.366000
  0
VERTEX
  8
0
  6
CONTINUOUS
 10
3.417480
 20
3.310560
  0
VERTEX
  8
0
  6
CONTINUOUS
 10
3.380520
 20
3.222560
  0
VERTEX
  8
0
  6
CONTINUOUS
 10
3.294720
 20
3.170640
  0
VERTEX
  8
0
  6
CONTINUOUS
 10
3.171080
 20
3.161840
  0
VERTEX
  8
0
  6
CONTINUOUS
 10
3.142040
 20
2.867480
  0
VERTEX
  8
0
  6
CONTINUOUS
 10
2.693680
 20
2.874960
  0
VERTEX
  8
0
  6
CONTINUOUS
 10
2.621960
 20
2.974840
  0
VERTEX
  8
0
  6
CONTINUOUS
 10
2.532640
 20
3.047880
  0
VERTEX
  8
0
  6
CONTINUOUS
 10
2.428360
 20
3.095840
  0
VERTEX
  8
0
  6
CONTINUOUS
 10
2.312200
 20
3.119160
  0
VERTEX
  8
0
  6
CONTINUOUS
 10
2.186360
 20
3.120040
  0
VERTEX
  8
0
  6
CONTINUOUS
 10
2.055240
 20
3.099360
  0
VERTEX
  8
0
  6
CONTINUOUS
 10
1.920600
 20
3.058000
  0
VERTEX
  8
0
  6
CONTINUOUS
 10
1.785520
 20
2.997720
  0
VERTEX
  8
0
  6
CONTINUOUS
 10
1.653960
 20
2.919840
  0
VERTEX
  8
0
  6
CONTINUOUS
 10
1.527680
 20
2.825680
  0
VERTEX
  8
0
  6
CONTINUOUS
 10
1.410200
 20
2.716120
  0
VERTEX
  8
0
  6
CONTINUOUS
 10
1.304600
 20
2.592480
  0
VERTEX
  8
0
  6
CONTINUOUS
 10
1.213960
 20
2.456520
  0
VERTEX
  8
0
  6
CONTINUOUS
 10
1.140920
 20
2.309120
  0
VERTEX
  8
0
  6
CONTINUOUS
 10
1.088120
 20
2.151600
  0
VERTEX
  8
0
  6
CONTINUOUS
 10
1.059520
 20
1.985720
  0
VERTEX
  8
0
  6
CONTINUOUS
 10
1.040600
 20
1.825560
  0
VERTEX
  8
0
  6
CONTINUOUS
 10
1.017280
 20
1.685200
  0
VERTEX
  8
0
  6
CONTINUOUS
 10
0.989560
 20
1.563320
  0
VERTEX
  8
0
  6
CONTINUOUS
 10
0.958320
 20
1.458600
  0
VERTEX
  8
0
  6
CONTINUOUS
 10
0.887480
 20
1.295800
  0
VERTEX
  8
0
  6
CONTINUOUS
 10
0.809160
 20
1.185800
  0
VERTEX
  8
0
  6
CONTINUOUS
 10
0.728640
 20
1.119800
  0
VERTEX
  8
0
  6
CONTINUOUS
 10
0.650760
 20
1.086800
  0
VERTEX
  8
0
  6
CONTINUOUS
 10
0.580360
 20
1.076680
  0
VERTEX
  8
0
  6
CONTINUOUS
 10
0.521840
 20
1.079760
  0
VERTEX
  8
0
  6
CONTINUOUS
 10
0.540760
 20
2.792240
  0
VERTEX
  8
0
  6
CONTINUOUS
 10
3.199680
 20
4.766520
  0
VERTEX
  8
0
  6
CONTINUOUS
 10
4.500320
 20
4.757720
  0
SEQEND
  8
0
  0
TEXT
  8
0
 10
2.247960
 20
0.918280
 40
0.138095
  1
BA  1241
 41
1.000000
  7
SN0
 71
     0
 72
     5
 11
2.934080
 21
0.918280
  0
TEXT
  8
0
 10
2.018280
 20
0.726440
 40
0.138095
  1
1-1/2" x 5-7/16"
 41
1.000000
  7
SN0
 71
     0
 72
     5
 11
3.166108
 21
0.726440
  0
ENDSEC
  0
EOF
