  0
SECTION
  2
HEADER
  9
$ACADVER
  1
AC1006
  9
$EXTMIN
 10
0.553960
 20
2.085160
  9
$EXTMAX
 10
8.067400
 20
8.808800
  9
$LTSCALE
 40
0.044000
  9
$PDMODE
 70
    35
  9
$PDSIZE
 40
0.035200
  0
ENDSEC
  0
SECTION
  2
TABLES
  0
TABLE
  2
LTYPE
 70
     9
  0
LTYPE
  2
CONTINUOUS
 70
    64
  3
Solid line
 72
    65
 73
     0
 40
0.000000
  0
LTYPE
  2
DASHED
 70
    64
  3
__ __ __ __ __ __ __ __ __ __ __ __ __ __ __
 72
    65
 73
     2
 40
0.000330
 49
0.000220
 49
-0.000110
  0
LTYPE
  2
HIDDEN
 70
    64
  3
 _ _ _ _ _ _ _ _ _ _ _ _ _ _ _ _ _ _ _ _ _ _
 72
    65
 73
     2
 40
0.000165
 49
0.000110
 49
-0.000055
  0
LTYPE
  2
CENTER
 70
    64
  3
____ _ ____ _ ____ _ ____ _ ____ _ ____ _ ____
 72
    65
 73
     4
 40
0.000880
 49
0.000550
 49
-0.000110
 49
0.000110
 49
-0.000110
  0
LTYPE
  2
PHANTOM
 70
    64
  3
_____ _ _ _____ _ _ _____ _ _ _____ _ _ ____
 72
    65
 73
     6
 40
0.001100
 49
0.000550
 49
-0.000110
 49
0.000110
 49
-0.000110
 49
0.000110
 49
-0.000110
  0
LTYPE
  2
DOT
 70
    64
  3
...............................................
 72
    65
 73
     2
 40
0.000110
 49
0.000000
 49
-0.000110
  0
LTYPE
  2
DASHDOT
 70
    64
  3
__ . __ . __ . __ . __ . __ . __ . __ . __ . __
 72
    65
 73
     4
 40
0.000440
 49
0.000220
 49
-0.000110
 49
0.000000
 49
-0.000110
  0
LTYPE
  2
BORDER
 70
    64
  3
__ __ . __ __ . __ __ . __ __ . __ __ . __ __
 72
    65
 73
     6
 40
0.000770
 49
0.000220
 49
-0.000110
 49
0.000220
 49
-0.000110
 49
0.000000
 49
-0.000110
  0
LTYPE
  2
DIVIDE
 70
    64
  3
__ . . __ . . __ . . __ . . __ . . __ . . __
 72
    65
 73
     6
 40
0.000550
 49
0.000220
 49
-0.000110
 49
0.000000
 49
-0.000110
 49
0.000000
 49
-0.000110
  0
LTYPE
  2
DOTDOT
 70
    64
  3
 . .  . .  . .  . .  . .  . . 
 72
    65
 73
     5
 40
0.000242
 49
-0.000110
 49
0.000000
 49
-0.000110
 49
0.000000
 49
-0.000110
  0
ENDTAB
  0
TABLE
  2
STYLE
 70
     2
  0
STYLE
 70
     0
  2
SN0
 40
0.000000
 41
0.000440
 50
0.000000
 71
     0
 42
0.000000
  3
ROMAND
  0
STYLE
 70
    68
  2
SV0
 40
0.000000
 41
0.000440
 50
0.000000
 71
     0
 42
0.000000
  3
ROMAND
  0
ENDTAB
  0
TABLE
  2
LAYER
 70
     3
  0
LAYER
  2
FOREGROUND
 70
    64
 62
     7
  6
CONTINUOUS
  0
LAYER
  2
BACKGROUND
 70
    65
 62
    -7
  6
CONTINUOUS
  0
LAYER
  2
0
 70
    64
 62
     7
  6
CONTINUOUS
  0
ENDTAB
  0
ENDSEC
  0
SECTION
  2
ENTITIES
  0
POLYLINE
  8
FOREGROUND
  6
CONTINUOUS
 66
     1
 40
0.000000
 41
0.000000
  0
VERTEX
  8
FOREGROUND
  6
CONTINUOUS
 10
0.000000
 20
10.893960
  0
VERTEX
  8
FOREGROUND
  6
CONTINUOUS
 10
8.499920
 20
10.893960
  0
VERTEX
  8
FOREGROUND
  6
CONTINUOUS
 10
8.499920
 20
-0.106040
  0
VERTEX
  8
FOREGROUND
  6
CONTINUOUS
 10
0.000000
 20
-0.106040
  0
VERTEX
  8
FOREGROUND
  6
CONTINUOUS
 10
0.000000
 20
10.893960
  0
SEQEND
  8
0
  0
POLYLINE
  8
FOREGROUND
  6
CONTINUOUS
 66
     1
 40
0.000000
 41
0.000000
  0
VERTEX
  8
FOREGROUND
  6
CONTINUOUS
 10
0.000000
 20
10.893960
  0
VERTEX
  8
FOREGROUND
  6
CONTINUOUS
 10
8.499920
 20
10.893960
  0
VERTEX
  8
FOREGROUND
  6
CONTINUOUS
 10
8.499920
 20
-0.106040
  0
VERTEX
  8
FOREGROUND
  6
CONTINUOUS
 10
0.000000
 20
-0.106040
  0
VERTEX
  8
FOREGROUND
  6
CONTINUOUS
 10
0.000000
 20
10.893960
  0
SEQEND
  8
0
  0
TEXT
  8
0
 10
4.000920
 20
7.637960
 40
0.138096
  1
BA  1241
 41
1.000000
  7
SN0
 71
     0
 72
     5
 11
4.682013
 21
7.637960
  0
TEXT
  8
0
 10
3.771240
 20
7.446120
 40
0.138096
  1
1-1/2" x 5-7/16"
 41
1.000000
  7
SN0
 71
     0
 72
     5
 11
4.909902
 21
7.446120
  0
POLYLINE
  8
0
  6
CONTINUOUS
 66
     1
 40
0.014080
 41
0.014080
  0
VERTEX
  8
0
  6
CONTINUOUS
 10
5.890720
 20
7.308400
  0
VERTEX
  8
0
  6
CONTINUOUS
 10
2.579280
 20
7.308400
  0
VERTEX
  8
0
  6
CONTINUOUS
 10
1.543080
 20
8.671520
  0
VERTEX
  8
0
  6
CONTINUOUS
 10
1.575200
 20
8.699240
  0
VERTEX
  8
0
  6
CONTINUOUS
 10
1.602040
 20
8.718160
  0
VERTEX
  8
0
  6
CONTINUOUS
 10
1.633280
 20
8.735320
  0
VERTEX
  8
0
  6
CONTINUOUS
 10
1.669360
 20
8.749840
  0
VERTEX
  8
0
  6
CONTINUOUS
 10
1.689160
 20
8.755560
  0
VERTEX
  8
0
  6
CONTINUOUS
 10
1.710280
 20
8.759960
  0
VERTEX
  8
0
  6
CONTINUOUS
 10
1.732720
 20
8.763040
  0
VERTEX
  8
0
  6
CONTINUOUS
 10
1.756920
 20
8.764360
  0
VERTEX
  8
0
  6
CONTINUOUS
 10
1.782000
 20
8.763920
  0
VERTEX
  8
0
  6
CONTINUOUS
 10
1.822480
 20
8.759960
  0
VERTEX
  8
0
  6
CONTINUOUS
 10
1.866480
 20
8.751160
  0
VERTEX
  8
0
  6
CONTINUOUS
 10
1.930720
 20
8.730480
  0
VERTEX
  8
0
  6
CONTINUOUS
 10
1.983080
 20
8.708040
  0
VERTEX
  8
0
  6
CONTINUOUS
 10
2.058320
 20
8.667120
  0
VERTEX
  8
0
  6
CONTINUOUS
 10
2.140600
 20
8.612560
  0
VERTEX
  8
0
  6
CONTINUOUS
 10
2.229920
 20
8.543480
  0
VERTEX
  8
0
  6
CONTINUOUS
 10
2.326720
 20
8.457680
  0
VERTEX
  8
0
  6
CONTINUOUS
 10
2.404160
 20
8.382440
  0
VERTEX
  8
0
  6
CONTINUOUS
 10
2.514600
 20
8.264960
  0
VERTEX
  8
0
  6
CONTINUOUS
 10
2.543640
 20
8.233720
  0
VERTEX
  8
0
  6
CONTINUOUS
 10
2.604800
 20
8.175640
  0
VERTEX
  8
0
  6
CONTINUOUS
 10
2.669480
 20
8.122840
  0
VERTEX
  8
0
  6
CONTINUOUS
 10
2.737680
 20
8.075320
  0
VERTEX
  8
0
  6
CONTINUOUS
 10
2.808520
 20
8.033080
  0
VERTEX
  8
0
  6
CONTINUOUS
 10
2.882000
 20
7.995680
  0
VERTEX
  8
0
  6
CONTINUOUS
 10
2.957240
 20
7.963560
  0
VERTEX
  8
0
  6
CONTINUOUS
 10
3.034240
 20
7.935840
  0
VERTEX
  8
0
  6
CONTINUOUS
 10
3.112560
 20
7.912960
  0
VERTEX
  8
0
  6
CONTINUOUS
 10
3.191760
 20
7.894920
  0
VERTEX
  8
0
  6
CONTINUOUS
 10
3.271840
 20
7.881720
  0
VERTEX
  8
0
  6
CONTINUOUS
 10
3.351480
 20
7.872480
  0
VERTEX
  8
0
  6
CONTINUOUS
 10
3.431120
 20
7.868080
  0
VERTEX
  8
0
  6
CONTINUOUS
 10
3.509880
 20
7.868080
  0
VERTEX
  8
0
  6
CONTINUOUS
 10
3.587320
 20
7.872040
  0
VERTEX
  8
0
  6
CONTINUOUS
 10
3.663440
 20
7.879960
  0
VERTEX
  8
0
  6
CONTINUOUS
 10
3.737800
 20
7.891840
  0
VERTEX
  8
0
  6
CONTINUOUS
 10
3.809960
 20
7.908120
  0
VERTEX
  8
0
  6
CONTINUOUS
 10
3.879480
 20
7.927920
  0
VERTEX
  8
0
  6
CONTINUOUS
 10
3.945920
 20
7.951680
  0
VERTEX
  8
0
  6
CONTINUOUS
 10
4.008840
 20
7.978960
  0
VERTEX
  8
0
  6
CONTINUOUS
 10
4.067800
 20
8.009760
  0
VERTEX
  8
0
  6
CONTINUOUS
 10
4.122360
 20
8.044080
  0
VERTEX
  8
0
  6
CONTINUOUS
 10
4.172960
 20
8.081480
  0
VERTEX
  8
0
  6
CONTINUOUS
 10
4.217840
 20
8.122400
  0
VERTEX
  8
0
  6
CONTINUOUS
 10
4.257880
 20
8.166840
  0
VERTEX
  8
0
  6
CONTINUOUS
 10
4.291760
 20
8.213920
  0
VERTEX
  8
0
  6
CONTINUOUS
 10
4.319480
 20
8.264080
  0
VERTEX
  8
0
  6
CONTINUOUS
 10
4.330920
 20
8.290480
  0
VERTEX
  8
0
  6
CONTINUOUS
 10
4.340600
 20
8.317320
  0
VERTEX
  8
0
  6
CONTINUOUS
 10
4.348520
 20
8.345040
  0
VERTEX
  8
0
  6
CONTINUOUS
 10
4.354680
 20
8.373200
  0
VERTEX
  8
0
  6
CONTINUOUS
 10
4.359080
 20
8.402240
  0
VERTEX
  8
0
  6
CONTINUOUS
 10
4.361280
 20
8.432160
  0
VERTEX
  8
0
  6
CONTINUOUS
 10
4.361720
 20
8.462520
  0
VERTEX
  8
0
  6
CONTINUOUS
 10
4.360400
 20
8.493320
  0
VERTEX
  8
0
  6
CONTINUOUS
 10
4.356880
 20
8.525000
  0
VERTEX
  8
0
  6
CONTINUOUS
 10
4.712400
 20
8.798680
  0
VERTEX
  8
0
  6
CONTINUOUS
 10
4.911280
 20
8.580000
  0
VERTEX
  8
0
  6
CONTINUOUS
 10
4.950000
 20
8.611680
  0
VERTEX
  8
0
  6
CONTINUOUS
 10
4.989600
 20
8.635440
  0
VERTEX
  8
0
  6
CONTINUOUS
 10
5.028760
 20
8.650840
  0
VERTEX
  8
0
  6
CONTINUOUS
 10
5.054280
 20
8.656560
  0
VERTEX
  8
0
  6
CONTINUOUS
 10
5.079360
 20
8.659200
  0
VERTEX
  8
0
  6
CONTINUOUS
 10
5.103560
 20
8.657880
  0
VERTEX
  8
0
  6
CONTINUOUS
 10
5.138320
 20
8.649080
  0
VERTEX
  8
0
  6
CONTINUOUS
 10
5.159880
 20
8.638520
  0
VERTEX
  8
0
  6
CONTINUOUS
 10
5.179680
 20
8.624880
  0
VERTEX
  8
0
  6
CONTINUOUS
 10
5.206080
 20
8.597160
  0
VERTEX
  8
0
  6
CONTINUOUS
 10
5.221480
 20
8.573840
  0
VERTEX
  8
0
  6
CONTINUOUS
 10
5.234240
 20
8.547440
  0
VERTEX
  8
0
  6
CONTINUOUS
 10
5.244800
 20
8.517080
  0
VERTEX
  8
0
  6
CONTINUOUS
 10
5.255360
 20
8.472640
  0
VERTEX
  8
0
  6
CONTINUOUS
 10
5.300680
 20
8.482320
  0
VERTEX
  8
0
  6
CONTINUOUS
 10
5.363600
 20
8.394760
  0
VERTEX
  8
0
  6
CONTINUOUS
 10
5.386920
 20
8.410160
  0
VERTEX
  8
0
  6
CONTINUOUS
 10
5.433560
 20
8.435680
  0
VERTEX
  8
0
  6
CONTINUOUS
 10
5.478880
 20
8.455040
  0
VERTEX
  8
0
  6
CONTINUOUS
 10
5.523760
 20
8.469120
  0
VERTEX
  8
0
  6
CONTINUOUS
 10
5.545760
 20
8.474400
  0
VERTEX
  8
0
  6
CONTINUOUS
 10
5.589320
 20
8.481000
  0
VERTEX
  8
0
  6
CONTINUOUS
 10
5.631560
 20
8.482760
  0
VERTEX
  8
0
  6
CONTINUOUS
 10
5.672480
 20
8.481000
  0
VERTEX
  8
0
  6
CONTINUOUS
 10
5.712960
 20
8.475280
  0
VERTEX
  8
0
  6
CONTINUOUS
 10
5.751680
 20
8.466920
  0
VERTEX
  8
0
  6
CONTINUOUS
 10
5.789520
 20
8.455480
  0
VERTEX
  8
0
  6
CONTINUOUS
 10
5.826480
 20
8.441840
  0
VERTEX
  8
0
  6
CONTINUOUS
 10
5.861680
 20
8.426440
  0
VERTEX
  8
0
  6
CONTINUOUS
 10
5.928120
 20
8.392120
  0
VERTEX
  8
0
  6
CONTINUOUS
 10
6.083880
 20
8.297520
  0
VERTEX
  8
0
  6
CONTINUOUS
 10
6.137560
 20
8.269360
  0
VERTEX
  8
0
  6
CONTINUOUS
 10
6.195640
 20
8.244720
  0
VERTEX
  8
0
  6
CONTINUOUS
 10
6.237000
 20
8.231520
  0
VERTEX
  8
0
  6
CONTINUOUS
 10
6.280560
 20
8.221400
  0
VERTEX
  8
0
  6
CONTINUOUS
 10
6.325880
 20
8.214800
  0
VERTEX
  8
0
  6
CONTINUOUS
 10
6.373840
 20
8.213040
  0
VERTEX
  8
0
  6
CONTINUOUS
 10
6.424000
 20
8.216560
  0
VERTEX
  8
0
  6
CONTINUOUS
 10
6.476800
 20
8.225800
  0
VERTEX
  8
0
  6
CONTINUOUS
 10
6.531800
 20
8.241640
  0
VERTEX
  8
0
  6
CONTINUOUS
 10
6.589000
 20
8.264520
  0
VERTEX
  8
0
  6
CONTINUOUS
 10
6.648840
 20
8.295320
  0
VERTEX
  8
0
  6
CONTINUOUS
 10
6.711320
 20
8.334480
  0
VERTEX
  8
0
  6
CONTINUOUS
 10
6.930000
 20
8.091160
  0
VERTEX
  8
0
  6
CONTINUOUS
 10
5.890720
 20
7.308400
  0
SEQEND
  8
0
  0
SOLID
  8
0
 62
    15
 10
5.984000
 20
4.787640
 11
6.609240
 21
4.428600
 12
5.937800
 22
4.774880
 13
6.563040
 23
4.415840
  0
POLYLINE
  8
0
  6
CONTINUOUS
 66
     1
 40
0.000000
 41
0.000000
  0
VERTEX
  8
0
  6
CONTINUOUS
 10
5.984000
 20
4.787640
  0
VERTEX
  8
0
  6
CONTINUOUS
 10
6.609240
 20
4.428600
  0
VERTEX
  8
0
  6
CONTINUOUS
 10
6.563040
 20
4.415840
  0
VERTEX
  8
0
  6
CONTINUOUS
 10
5.937800
 20
4.774880
  0
VERTEX
  8
0
  6
CONTINUOUS
 10
5.984000
 20
4.787640
  0
SEQEND
  8
0
  0
SOLID
  8
0
 62
    15
 10
6.793160
 20
5.746400
 11
7.418400
 21
5.387360
 12
6.691960
 22
5.731440
 13
7.317200
 23
5.372400
  0
POLYLINE
  8
0
  6
CONTINUOUS
 66
     1
 40
0.000000
 41
0.000000
  0
VERTEX
  8
0
  6
CONTINUOUS
 10
6.793160
 20
5.746400
  0
VERTEX
  8
0
  6
CONTINUOUS
 10
7.418400
 20
5.387360
  0
VERTEX
  8
0
  6
CONTINUOUS
 10
7.317200
 20
5.372400
  0
VERTEX
  8
0
  6
CONTINUOUS
 10
6.691960
 20
5.731440
  0
VERTEX
  8
0
  6
CONTINUOUS
 10
6.793160
 20
5.746400
  0
SEQEND
  8
0
  0
SOLID
  8
0
 62
    15
 10
6.691960
 20
5.731440
 11
7.317200
 21
5.372400
 12
6.605280
 22
5.703280
 13
7.230520
 23
5.344240
  0
POLYLINE
  8
0
  6
CONTINUOUS
 66
     1
 40
0.000000
 41
0.000000
  0
VERTEX
  8
0
  6
CONTINUOUS
 10
6.691960
 20
5.731440
  0
VERTEX
  8
0
  6
CONTINUOUS
 10
7.317200
 20
5.372400
  0
VERTEX
  8
0
  6
CONTINUOUS
 10
7.230520
 20
5.344240
  0
VERTEX
  8
0
  6
CONTINUOUS
 10
6.605280
 20
5.703280
  0
VERTEX
  8
0
  6
CONTINUOUS
 10
6.691960
 20
5.731440
  0
SEQEND
  8
0
  0
SOLID
  8
0
 62
    15
 10
6.605280
 20
5.703280
 11
7.230520
 21
5.344240
 12
6.530920
 22
5.662800
 13
7.156160
 23
5.303760
  0
POLYLINE
  8
0
  6
CONTINUOUS
 66
     1
 40
0.000000
 41
0.000000
  0
VERTEX
  8
0
  6
CONTINUOUS
 10
6.605280
 20
5.703280
  0
VERTEX
  8
0
  6
CONTINUOUS
 10
7.230520
 20
5.344240
  0
VERTEX
  8
0
  6
CONTINUOUS
 10
7.156160
 20
5.303760
  0
VERTEX
  8
0
  6
CONTINUOUS
 10
6.530920
 20
5.662800
  0
VERTEX
  8
0
  6
CONTINUOUS
 10
6.605280
 20
5.703280
  0
SEQEND
  8
0
  0
SOLID
  8
0
 62
    15
 10
6.530920
 20
5.662800
 11
7.156160
 21
5.303760
 12
6.468440
 22
5.610880
 13
7.093680
 23
5.251840
  0
POLYLINE
  8
0
  6
CONTINUOUS
 66
     1
 40
0.000000
 41
0.000000
  0
VERTEX
  8
0
  6
CONTINUOUS
 10
6.530920
 20
5.662800
  0
VERTEX
  8
0
  6
CONTINUOUS
 10
7.156160
 20
5.303760
  0
VERTEX
  8
0
  6
CONTINUOUS
 10
7.093680
 20
5.251840
  0
VERTEX
  8
0
  6
CONTINUOUS
 10
6.468440
 20
5.610880
  0
VERTEX
  8
0
  6
CONTINUOUS
 10
6.530920
 20
5.662800
  0
SEQEND
  8
0
  0
SOLID
  8
0
 62
    15
 10
6.468440
 20
5.610880
 11
7.093680
 21
5.251840
 12
6.416080
 22
5.549280
 13
7.041320
 23
5.190240
  0
POLYLINE
  8
0
  6
CONTINUOUS
 66
     1
 40
0.000000
 41
0.000000
  0
VERTEX
  8
0
  6
CONTINUOUS
 10
6.468440
 20
5.610880
  0
VERTEX
  8
0
  6
CONTINUOUS
 10
7.093680
 20
5.251840
  0
VERTEX
  8
0
  6
CONTINUOUS
 10
7.041320
 20
5.190240
  0
VERTEX
  8
0
  6
CONTINUOUS
 10
6.416080
 20
5.549280
  0
VERTEX
  8
0
  6
CONTINUOUS
 10
6.468440
 20
5.610880
  0
SEQEND
  8
0
  0
SOLID
  8
0
 62
    15
 10
6.416080
 20
5.549280
 11
7.041320
 21
5.190240
 12
6.373400
 22
5.478000
 13
6.998640
 23
5.118960
  0
POLYLINE
  8
0
  6
CONTINUOUS
 66
     1
 40
0.000000
 41
0.000000
  0
VERTEX
  8
0
  6
CONTINUOUS
 10
6.416080
 20
5.549280
  0
VERTEX
  8
0
  6
CONTINUOUS
 10
7.041320
 20
5.190240
  0
VERTEX
  8
0
  6
CONTINUOUS
 10
6.998640
 20
5.118960
  0
VERTEX
  8
0
  6
CONTINUOUS
 10
6.373400
 20
5.478000
  0
VERTEX
  8
0
  6
CONTINUOUS
 10
6.416080
 20
5.549280
  0
SEQEND
  8
0
  0
SOLID
  8
0
 62
    15
 10
6.373400
 20
5.478000
 11
6.998640
 21
5.118960
 12
6.339080
 22
5.398800
 13
6.964320
 23
5.039760
  0
POLYLINE
  8
0
  6
CONTINUOUS
 66
     1
 40
0.000000
 41
0.000000
  0
VERTEX
  8
0
  6
CONTINUOUS
 10
6.373400
 20
5.478000
  0
VERTEX
  8
0
  6
CONTINUOUS
 10
6.998640
 20
5.118960
  0
VERTEX
  8
0
  6
CONTINUOUS
 10
6.964320
 20
5.039760
  0
VERTEX
  8
0
  6
CONTINUOUS
 10
6.339080
 20
5.398800
  0
VERTEX
  8
0
  6
CONTINUOUS
 10
6.373400
 20
5.478000
  0
SEQEND
  8
0
  0
SOLID
  8
0
 62
    15
 10
6.339080
 20
5.398800
 11
6.964320
 21
5.039760
 12
6.311360
 22
5.312120
 13
6.936600
 23
4.953080
  0
POLYLINE
  8
0
  6
CONTINUOUS
 66
     1
 40
0.000000
 41
0.000000
  0
VERTEX
  8
0
  6
CONTINUOUS
 10
6.339080
 20
5.398800
  0
VERTEX
  8
0
  6
CONTINUOUS
 10
6.964320
 20
5.039760
  0
VERTEX
  8
0
  6
CONTINUOUS
 10
6.936600
 20
4.953080
  0
VERTEX
  8
0
  6
CONTINUOUS
 10
6.311360
 20
5.312120
  0
VERTEX
  8
0
  6
CONTINUOUS
 10
6.339080
 20
5.398800
  0
SEQEND
  8
0
  0
SOLID
  8
0
 62
    15
 10
6.311360
 20
5.312120
 11
6.936600
 21
4.953080
 12
6.258120
 22
5.128640
 13
6.883360
 23
4.769600
  0
POLYLINE
  8
0
  6
CONTINUOUS
 66
     1
 40
0.000000
 41
0.000000
  0
VERTEX
  8
0
  6
CONTINUOUS
 10
6.311360
 20
5.312120
  0
VERTEX
  8
0
  6
CONTINUOUS
 10
6.936600
 20
4.953080
  0
VERTEX
  8
0
  6
CONTINUOUS
 10
6.883360
 20
4.769600
  0
VERTEX
  8
0
  6
CONTINUOUS
 10
6.258120
 20
5.128640
  0
VERTEX
  8
0
  6
CONTINUOUS
 10
6.311360
 20
5.312120
  0
SEQEND
  8
0
  0
SOLID
  8
0
 62
    15
 10
6.258120
 20
5.128640
 11
6.883360
 21
4.769600
 12
6.223800
 22
5.039760
 13
6.849040
 23
4.680720
  0
POLYLINE
  8
0
  6
CONTINUOUS
 66
     1
 40
0.000000
 41
0.000000
  0
VERTEX
  8
0
  6
CONTINUOUS
 10
6.258120
 20
5.128640
  0
VERTEX
  8
0
  6
CONTINUOUS
 10
6.883360
 20
4.769600
  0
VERTEX
  8
0
  6
CONTINUOUS
 10
6.849040
 20
4.680720
  0
VERTEX
  8
0
  6
CONTINUOUS
 10
6.223800
 20
5.039760
  0
VERTEX
  8
0
  6
CONTINUOUS
 10
6.258120
 20
5.128640
  0
SEQEND
  8
0
  0
SOLID
  8
0
 62
    15
 10
6.223800
 20
5.039760
 11
6.849040
 21
4.680720
 12
6.181560
 22
4.957480
 13
6.806800
 23
4.598440
  0
POLYLINE
  8
0
  6
CONTINUOUS
 66
     1
 40
0.000000
 41
0.000000
  0
VERTEX
  8
0
  6
CONTINUOUS
 10
6.223800
 20
5.039760
  0
VERTEX
  8
0
  6
CONTINUOUS
 10
6.849040
 20
4.680720
  0
VERTEX
  8
0
  6
CONTINUOUS
 10
6.806800
 20
4.598440
  0
VERTEX
  8
0
  6
CONTINUOUS
 10
6.181560
 20
4.957480
  0
VERTEX
  8
0
  6
CONTINUOUS
 10
6.223800
 20
5.039760
  0
SEQEND
  8
0
  0
SOLID
  8
0
 62
    15
 10
6.181560
 20
4.957480
 11
6.806800
 21
4.598440
 12
6.129200
 22
4.885760
 13
6.754440
 23
4.526720
  0
POLYLINE
  8
0
  6
CONTINUOUS
 66
     1
 40
0.000000
 41
0.000000
  0
VERTEX
  8
0
  6
CONTINUOUS
 10
6.181560
 20
4.957480
  0
VERTEX
  8
0
  6
CONTINUOUS
 10
6.806800
 20
4.598440
  0
VERTEX
  8
0
  6
CONTINUOUS
 10
6.754440
 20
4.526720
  0
VERTEX
  8
0
  6
CONTINUOUS
 10
6.129200
 20
4.885760
  0
VERTEX
  8
0
  6
CONTINUOUS
 10
6.181560
 20
4.957480
  0
SEQEND
  8
0
  0
SOLID
  8
0
 62
    15
 10
6.129200
 20
4.885760
 11
6.754440
 21
4.526720
 12
6.064080
 22
4.828120
 13
6.689320
 23
4.469080
  0
POLYLINE
  8
0
  6
CONTINUOUS
 66
     1
 40
0.000000
 41
0.000000
  0
VERTEX
  8
0
  6
CONTINUOUS
 10
6.129200
 20
4.885760
  0
VERTEX
  8
0
  6
CONTINUOUS
 10
6.754440
 20
4.526720
  0
VERTEX
  8
0
  6
CONTINUOUS
 10
6.689320
 20
4.469080
  0
VERTEX
  8
0
  6
CONTINUOUS
 10
6.064080
 20
4.828120
  0
VERTEX
  8
0
  6
CONTINUOUS
 10
6.129200
 20
4.885760
  0
SEQEND
  8
0
  0
SOLID
  8
0
 62
    15
 10
6.064080
 20
4.828120
 11
6.689320
 21
4.469080
 12
5.984000
 22
4.787640
 13
6.609240
 23
4.428600
  0
POLYLINE
  8
0
  6
CONTINUOUS
 66
     1
 40
0.000000
 41
0.000000
  0
VERTEX
  8
0
  6
CONTINUOUS
 10
6.064080
 20
4.828120
  0
VERTEX
  8
0
  6
CONTINUOUS
 10
6.689320
 20
4.469080
  0
VERTEX
  8
0
  6
CONTINUOUS
 10
6.609240
 20
4.428600
  0
VERTEX
  8
0
  6
CONTINUOUS
 10
5.984000
 20
4.787640
  0
VERTEX
  8
0
  6
CONTINUOUS
 10
6.064080
 20
4.828120
  0
SEQEND
  8
0
  0
SOLID
  8
0
 62
    15
 10
6.793160
 20
6.083880
 11
7.418400
 21
5.724840
 12
6.793160
 22
5.746400
 13
7.418400
 23
5.387360
  0
POLYLINE
  8
0
  6
CONTINUOUS
 66
     1
 40
0.000000
 41
0.000000
  0
VERTEX
  8
0
  6
CONTINUOUS
 10
6.793160
 20
6.083880
  0
VERTEX
  8
0
  6
CONTINUOUS
 10
7.418400
 20
5.724840
  0
VERTEX
  8
0
  6
CONTINUOUS
 10
7.418400
 20
5.387360
  0
VERTEX
  8
0
  6
CONTINUOUS
 10
6.793160
 20
5.746400
  0
VERTEX
  8
0
  6
CONTINUOUS
 10
6.793160
 20
6.083880
  0
SEQEND
  8
0
  0
SOLID
  8
0
 62
    15
 10
5.937800
 20
4.774880
 11
6.563040
 21
4.415840
 12
5.887200
 22
4.768280
 13
6.512440
 23
4.409240
  0
POLYLINE
  8
0
  6
CONTINUOUS
 66
     1
 40
0.000000
 41
0.000000
  0
VERTEX
  8
0
  6
CONTINUOUS
 10
5.937800
 20
4.774880
  0
VERTEX
  8
0
  6
CONTINUOUS
 10
6.563040
 20
4.415840
  0
VERTEX
  8
0
  6
CONTINUOUS
 10
6.512440
 20
4.409240
  0
VERTEX
  8
0
  6
CONTINUOUS
 10
5.887200
 20
4.768280
  0
VERTEX
  8
0
  6
CONTINUOUS
 10
5.937800
 20
4.774880
  0
SEQEND
  8
0
  0
SOLID
  8
0
 62
    15
 10
5.887200
 20
4.768280
 11
6.512440
 21
4.409240
 12
5.875320
 22
4.766960
 13
6.500560
 23
4.407920
  0
POLYLINE
  8
0
  6
CONTINUOUS
 66
     1
 40
0.000000
 41
0.000000
  0
VERTEX
  8
0
  6
CONTINUOUS
 10
5.887200
 20
4.768280
  0
VERTEX
  8
0
  6
CONTINUOUS
 10
6.512440
 20
4.409240
  0
VERTEX
  8
0
  6
CONTINUOUS
 10
6.500560
 20
4.407920
  0
VERTEX
  8
0
  6
CONTINUOUS
 10
5.875320
 20
4.766960
  0
VERTEX
  8
0
  6
CONTINUOUS
 10
5.887200
 20
4.768280
  0
SEQEND
  8
0
  0
SOLID
  8
0
 62
    15
 10
5.875320
 20
4.766960
 11
6.500560
 21
4.407920
 12
5.903920
 22
4.659600
 13
6.529160
 23
4.300560
  0
POLYLINE
  8
0
  6
CONTINUOUS
 66
     1
 40
0.000000
 41
0.000000
  0
VERTEX
  8
0
  6
CONTINUOUS
 10
5.875320
 20
4.766960
  0
VERTEX
  8
0
  6
CONTINUOUS
 10
6.500560
 20
4.407920
  0
VERTEX
  8
0
  6
CONTINUOUS
 10
6.529160
 20
4.300560
  0
VERTEX
  8
0
  6
CONTINUOUS
 10
5.903920
 20
4.659600
  0
VERTEX
  8
0
  6
CONTINUOUS
 10
5.875320
 20
4.766960
  0
SEQEND
  8
0
  0
SOLID
  8
0
 62
    15
 10
5.903920
 20
4.659600
 11
6.529160
 21
4.300560
 12
5.862120
 22
4.631000
 13
6.487360
 23
4.272400
  0
POLYLINE
  8
0
  6
CONTINUOUS
 66
     1
 40
0.000000
 41
0.000000
  0
VERTEX
  8
0
  6
CONTINUOUS
 10
5.903920
 20
4.659600
  0
VERTEX
  8
0
  6
CONTINUOUS
 10
6.529160
 20
4.300560
  0
VERTEX
  8
0
  6
CONTINUOUS
 10
6.487360
 20
4.272400
  0
VERTEX
  8
0
  6
CONTINUOUS
 10
5.862120
 20
4.631000
  0
VERTEX
  8
0
  6
CONTINUOUS
 10
5.903920
 20
4.659600
  0
SEQEND
  8
0
  0
SOLID
  8
0
 62
    15
 10
5.862120
 20
4.631000
 11
6.487360
 21
4.272400
 12
5.893360
 22
4.573800
 13
6.518600
 23
4.214760
  0
POLYLINE
  8
0
  6
CONTINUOUS
 66
     1
 40
0.000000
 41
0.000000
  0
VERTEX
  8
0
  6
CONTINUOUS
 10
5.862120
 20
4.631000
  0
VERTEX
  8
0
  6
CONTINUOUS
 10
6.487360
 20
4.272400
  0
VERTEX
  8
0
  6
CONTINUOUS
 10
6.518600
 20
4.214760
  0
VERTEX
  8
0
  6
CONTINUOUS
 10
5.893360
 20
4.573800
  0
VERTEX
  8
0
  6
CONTINUOUS
 10
5.862120
 20
4.631000
  0
SEQEND
  8
0
  0
SOLID
  8
0
 62
    15
 10
5.893360
 20
4.573800
 11
6.518600
 21
4.214760
 12
5.907880
 22
4.517040
 13
6.533120
 23
4.158000
  0
POLYLINE
  8
0
  6
CONTINUOUS
 66
     1
 40
0.000000
 41
0.000000
  0
VERTEX
  8
0
  6
CONTINUOUS
 10
5.893360
 20
4.573800
  0
VERTEX
  8
0
  6
CONTINUOUS
 10
6.518600
 20
4.214760
  0
VERTEX
  8
0
  6
CONTINUOUS
 10
6.533120
 20
4.158000
  0
VERTEX
  8
0
  6
CONTINUOUS
 10
5.907880
 20
4.517040
  0
VERTEX
  8
0
  6
CONTINUOUS
 10
5.893360
 20
4.573800
  0
SEQEND
  8
0
  0
SOLID
  8
0
 62
    15
 10
5.907880
 20
4.517040
 11
6.533120
 21
4.158000
 12
5.907000
 22
4.463800
 13
6.532240
 23
4.104760
  0
POLYLINE
  8
0
  6
CONTINUOUS
 66
     1
 40
0.000000
 41
0.000000
  0
VERTEX
  8
0
  6
CONTINUOUS
 10
5.907880
 20
4.517040
  0
VERTEX
  8
0
  6
CONTINUOUS
 10
6.533120
 20
4.158000
  0
VERTEX
  8
0
  6
CONTINUOUS
 10
6.532240
 20
4.104760
  0
VERTEX
  8
0
  6
CONTINUOUS
 10
5.907000
 20
4.463800
  0
VERTEX
  8
0
  6
CONTINUOUS
 10
5.907880
 20
4.517040
  0
SEQEND
  8
0
  0
SOLID
  8
0
 62
    15
 10
5.907000
 20
4.463800
 11
6.532240
 21
4.104760
 12
5.891160
 22
4.415840
 13
6.516400
 23
4.056800
  0
POLYLINE
  8
0
  6
CONTINUOUS
 66
     1
 40
0.000000
 41
0.000000
  0
VERTEX
  8
0
  6
CONTINUOUS
 10
5.907000
 20
4.463800
  0
VERTEX
  8
0
  6
CONTINUOUS
 10
6.532240
 20
4.104760
  0
VERTEX
  8
0
  6
CONTINUOUS
 10
6.516400
 20
4.056800
  0
VERTEX
  8
0
  6
CONTINUOUS
 10
5.891160
 20
4.415840
  0
VERTEX
  8
0
  6
CONTINUOUS
 10
5.907000
 20
4.463800
  0
SEQEND
  8
0
  0
SOLID
  8
0
 62
    15
 10
5.891160
 20
4.415840
 11
6.516400
 21
4.056800
 12
5.861680
 22
4.375360
 13
6.486920
 23
4.016320
  0
POLYLINE
  8
0
  6
CONTINUOUS
 66
     1
 40
0.000000
 41
0.000000
  0
VERTEX
  8
0
  6
CONTINUOUS
 10
5.891160
 20
4.415840
  0
VERTEX
  8
0
  6
CONTINUOUS
 10
6.516400
 20
4.056800
  0
VERTEX
  8
0
  6
CONTINUOUS
 10
6.486920
 20
4.016320
  0
VERTEX
  8
0
  6
CONTINUOUS
 10
5.861680
 20
4.375360
  0
VERTEX
  8
0
  6
CONTINUOUS
 10
5.891160
 20
4.415840
  0
SEQEND
  8
0
  0
SOLID
  8
0
 62
    15
 10
5.861680
 20
4.375360
 11
6.486920
 21
4.016320
 12
5.819000
 22
4.345000
 13
6.444240
 23
3.985960
  0
POLYLINE
  8
0
  6
CONTINUOUS
 66
     1
 40
0.000000
 41
0.000000
  0
VERTEX
  8
0
  6
CONTINUOUS
 10
5.861680
 20
4.375360
  0
VERTEX
  8
0
  6
CONTINUOUS
 10
6.486920
 20
4.016320
  0
VERTEX
  8
0
  6
CONTINUOUS
 10
6.444240
 20
3.985960
  0
VERTEX
  8
0
  6
CONTINUOUS
 10
5.819000
 20
4.345000
  0
VERTEX
  8
0
  6
CONTINUOUS
 10
5.861680
 20
4.375360
  0
SEQEND
  8
0
  0
SOLID
  8
0
 62
    15
 10
5.819000
 20
4.345000
 11
6.444240
 21
3.985960
 12
5.764000
 22
4.326520
 13
6.389240
 23
3.967480
  0
POLYLINE
  8
0
  6
CONTINUOUS
 66
     1
 40
0.000000
 41
0.000000
  0
VERTEX
  8
0
  6
CONTINUOUS
 10
5.819000
 20
4.345000
  0
VERTEX
  8
0
  6
CONTINUOUS
 10
6.444240
 20
3.985960
  0
VERTEX
  8
0
  6
CONTINUOUS
 10
6.389240
 20
3.967480
  0
VERTEX
  8
0
  6
CONTINUOUS
 10
5.764000
 20
4.326520
  0
VERTEX
  8
0
  6
CONTINUOUS
 10
5.819000
 20
4.345000
  0
SEQEND
  8
0
  0
SOLID
  8
0
 62
    15
 10
5.764000
 20
4.326520
 11
6.389240
 21
3.967480
 12
5.697560
 22
4.322560
 13
6.322800
 23
3.963520
  0
POLYLINE
  8
0
  6
CONTINUOUS
 66
     1
 40
0.000000
 41
0.000000
  0
VERTEX
  8
0
  6
CONTINUOUS
 10
5.764000
 20
4.326520
  0
VERTEX
  8
0
  6
CONTINUOUS
 10
6.389240
 20
3.967480
  0
VERTEX
  8
0
  6
CONTINUOUS
 10
6.322800
 20
3.963520
  0
VERTEX
  8
0
  6
CONTINUOUS
 10
5.697560
 20
4.322560
  0
VERTEX
  8
0
  6
CONTINUOUS
 10
5.764000
 20
4.326520
  0
SEQEND
  8
0
  0
SOLID
  8
0
 62
    15
 10
5.697560
 20
4.322560
 11
6.322800
 21
3.963520
 12
5.695800
 22
4.045360
 13
6.321040
 23
3.686760
  0
POLYLINE
  8
0
  6
CONTINUOUS
 66
     1
 40
0.000000
 41
0.000000
  0
VERTEX
  8
0
  6
CONTINUOUS
 10
5.697560
 20
4.322560
  0
VERTEX
  8
0
  6
CONTINUOUS
 10
6.322800
 20
3.963520
  0
VERTEX
  8
0
  6
CONTINUOUS
 10
6.321040
 20
3.686760
  0
VERTEX
  8
0
  6
CONTINUOUS
 10
5.695800
 20
4.045360
  0
VERTEX
  8
0
  6
CONTINUOUS
 10
5.697560
 20
4.322560
  0
SEQEND
  8
0
  0
SOLID
  8
0
 62
    15
 10
5.695800
 20
4.045360
 11
6.321040
 21
3.686760
 12
5.413320
 22
4.045360
 13
6.038560
 23
3.686760
  0
POLYLINE
  8
0
  6
CONTINUOUS
 66
     1
 40
0.000000
 41
0.000000
  0
VERTEX
  8
0
  6
CONTINUOUS
 10
5.695800
 20
4.045360
  0
VERTEX
  8
0
  6
CONTINUOUS
 10
6.321040
 20
3.686760
  0
VERTEX
  8
0
  6
CONTINUOUS
 10
6.038560
 20
3.686760
  0
VERTEX
  8
0
  6
CONTINUOUS
 10
5.413320
 20
4.045360
  0
VERTEX
  8
0
  6
CONTINUOUS
 10
5.695800
 20
4.045360
  0
SEQEND
  8
0
  0
SOLID
  8
0
 62
    15
 10
5.413320
 20
6.084320
 11
6.038560
 21
5.725280
 12
5.413320
 22
6.083880
 13
6.038560
 23
5.724840
  0
POLYLINE
  8
0
  6
CONTINUOUS
 66
     1
 40
0.000000
 41
0.000000
  0
VERTEX
  8
0
  6
CONTINUOUS
 10
5.413320
 20
6.084320
  0
VERTEX
  8
0
  6
CONTINUOUS
 10
6.038560
 20
5.725280
  0
VERTEX
  8
0
  6
CONTINUOUS
 10
6.038560
 20
5.724840
  0
VERTEX
  8
0
  6
CONTINUOUS
 10
5.413320
 20
6.083880
  0
VERTEX
  8
0
  6
CONTINUOUS
 10
5.413320
 20
6.084320
  0
SEQEND
  8
0
  0
POLYLINE
  8
0
  6
CONTINUOUS
 66
     1
 40
0.000000
 41
0.000000
  0
VERTEX
  8
0
  6
CONTINUOUS
 10
5.413320
 20
6.083880
  0
VERTEX
  8
0
  6
CONTINUOUS
 10
6.793160
 20
6.083880
  0
VERTEX
  8
0
  6
CONTINUOUS
 10
6.793160
 20
5.746400
  0
VERTEX
  8
0
  6
CONTINUOUS
 10
6.691960
 20
5.731440
  0
VERTEX
  8
0
  6
CONTINUOUS
 10
6.605280
 20
5.703280
  0
VERTEX
  8
0
  6
CONTINUOUS
 10
6.530920
 20
5.662800
  0
VERTEX
  8
0
  6
CONTINUOUS
 10
6.468440
 20
5.610880
  0
VERTEX
  8
0
  6
CONTINUOUS
 10
6.416080
 20
5.549280
  0
VERTEX
  8
0
  6
CONTINUOUS
 10
6.373400
 20
5.478000
  0
VERTEX
  8
0
  6
CONTINUOUS
 10
6.339080
 20
5.398800
  0
VERTEX
  8
0
  6
CONTINUOUS
 10
6.311360
 20
5.312120
  0
VERTEX
  8
0
  6
CONTINUOUS
 10
6.258120
 20
5.128640
  0
VERTEX
  8
0
  6
CONTINUOUS
 10
6.223800
 20
5.039760
  0
VERTEX
  8
0
  6
CONTINUOUS
 10
6.181560
 20
4.957480
  0
VERTEX
  8
0
  6
CONTINUOUS
 10
6.129200
 20
4.885760
  0
VERTEX
  8
0
  6
CONTINUOUS
 10
6.064080
 20
4.828120
  0
VERTEX
  8
0
  6
CONTINUOUS
 10
5.984000
 20
4.787640
  0
VERTEX
  8
0
  6
CONTINUOUS
 10
5.937800
 20
4.774880
  0
VERTEX
  8
0
  6
CONTINUOUS
 10
5.887200
 20
4.768280
  0
VERTEX
  8
0
  6
CONTINUOUS
 10
5.875320
 20
4.766960
  0
VERTEX
  8
0
  6
CONTINUOUS
 10
5.903920
 20
4.659600
  0
VERTEX
  8
0
  6
CONTINUOUS
 10
5.862120
 20
4.631000
  0
VERTEX
  8
0
  6
CONTINUOUS
 10
5.893360
 20
4.573800
  0
VERTEX
  8
0
  6
CONTINUOUS
 10
5.907880
 20
4.517040
  0
VERTEX
  8
0
  6
CONTINUOUS
 10
5.907000
 20
4.463800
  0
VERTEX
  8
0
  6
CONTINUOUS
 10
5.891160
 20
4.415840
  0
VERTEX
  8
0
  6
CONTINUOUS
 10
5.861680
 20
4.375360
  0
VERTEX
  8
0
  6
CONTINUOUS
 10
5.819000
 20
4.345000
  0
VERTEX
  8
0
  6
CONTINUOUS
 10
5.764000
 20
4.326520
  0
VERTEX
  8
0
  6
CONTINUOUS
 10
5.697560
 20
4.322560
  0
VERTEX
  8
0
  6
CONTINUOUS
 10
5.695800
 20
4.045360
  0
VERTEX
  8
0
  6
CONTINUOUS
 10
5.413320
 20
4.045360
  0
VERTEX
  8
0
  6
CONTINUOUS
 10
5.413320
 20
6.084320
  0
VERTEX
  8
0
  6
CONTINUOUS
 10
5.413320
 20
6.083880
  0
SEQEND
  8
0
  0
TEXT
  8
0
 10
7.035160
 20
3.903680
 40
0.138096
  1
BA  1242
 41
1.000000
  7
SN0
 71
     0
 72
     5
 11
7.716253
 21
3.903680
  0
TEXT
  8
0
 10
6.805920
 20
3.711840
 40
0.138096
  1
1-3/8" x 2-1/16"
 41
1.000000
  7
SN0
 71
     0
 72
     5
 11
7.944582
 21
3.711840
  0
SOLID
  8
0
 62
    15
 10
2.460920
 20
4.506040
 11
3.105520
 21
4.138200
 12
2.344760
 22
4.529360
 13
2.988920
 23
4.161960
  0
POLYLINE
  8
0
  6
CONTINUOUS
 66
     1
 40
0.000000
 41
0.000000
  0
VERTEX
  8
0
  6
CONTINUOUS
 10
2.460920
 20
4.506040
  0
VERTEX
  8
0
  6
CONTINUOUS
 10
3.105520
 20
4.138200
  0
VERTEX
  8
0
  6
CONTINUOUS
 10
2.988920
 20
4.161960
  0
VERTEX
  8
0
  6
CONTINUOUS
 10
2.344760
 20
4.529360
  0
VERTEX
  8
0
  6
CONTINUOUS
 10
2.460920
 20
4.506040
  0
SEQEND
  8
0
  0
SOLID
  8
0
 62
    15
 10
4.502960
 20
5.842320
 11
5.147120
 21
5.474480
 12
4.363040
 22
5.825600
 13
5.007200
 23
5.457760
  0
POLYLINE
  8
0
  6
CONTINUOUS
 66
     1
 40
0.000000
 41
0.000000
  0
VERTEX
  8
0
  6
CONTINUOUS
 10
4.502960
 20
5.842320
  0
VERTEX
  8
0
  6
CONTINUOUS
 10
5.147120
 20
5.474480
  0
VERTEX
  8
0
  6
CONTINUOUS
 10
5.007200
 20
5.457760
  0
VERTEX
  8
0
  6
CONTINUOUS
 10
4.363040
 20
5.825600
  0
VERTEX
  8
0
  6
CONTINUOUS
 10
4.502960
 20
5.842320
  0
SEQEND
  8
0
  0
SOLID
  8
0
 62
    15
 10
4.363040
 20
5.825600
 11
5.007200
 21
5.457760
 12
4.249520
 22
5.789520
 13
4.894120
 23
5.422120
  0
POLYLINE
  8
0
  6
CONTINUOUS
 66
     1
 40
0.000000
 41
0.000000
  0
VERTEX
  8
0
  6
CONTINUOUS
 10
4.363040
 20
5.825600
  0
VERTEX
  8
0
  6
CONTINUOUS
 10
5.007200
 20
5.457760
  0
VERTEX
  8
0
  6
CONTINUOUS
 10
4.894120
 20
5.422120
  0
VERTEX
  8
0
  6
CONTINUOUS
 10
4.249520
 20
5.789520
  0
VERTEX
  8
0
  6
CONTINUOUS
 10
4.363040
 20
5.825600
  0
SEQEND
  8
0
  0
SOLID
  8
0
 62
    15
 10
4.249520
 20
5.789520
 11
4.894120
 21
5.422120
 12
4.159760
 22
5.738480
 13
4.803920
 23
5.371080
  0
POLYLINE
  8
0
  6
CONTINUOUS
 66
     1
 40
0.000000
 41
0.000000
  0
VERTEX
  8
0
  6
CONTINUOUS
 10
4.249520
 20
5.789520
  0
VERTEX
  8
0
  6
CONTINUOUS
 10
4.894120
 20
5.422120
  0
VERTEX
  8
0
  6
CONTINUOUS
 10
4.803920
 20
5.371080
  0
VERTEX
  8
0
  6
CONTINUOUS
 10
4.159760
 20
5.738480
  0
VERTEX
  8
0
  6
CONTINUOUS
 10
4.249520
 20
5.789520
  0
SEQEND
  8
0
  0
SOLID
  8
0
 62
    15
 10
4.159760
 20
5.738480
 11
4.803920
 21
5.371080
 12
4.089360
 22
5.676000
 13
4.733520
 23
5.308600
  0
POLYLINE
  8
0
  6
CONTINUOUS
 66
     1
 40
0.000000
 41
0.000000
  0
VERTEX
  8
0
  6
CONTINUOUS
 10
4.159760
 20
5.738480
  0
VERTEX
  8
0
  6
CONTINUOUS
 10
4.803920
 20
5.371080
  0
VERTEX
  8
0
  6
CONTINUOUS
 10
4.733520
 20
5.308600
  0
VERTEX
  8
0
  6
CONTINUOUS
 10
4.089360
 20
5.676000
  0
VERTEX
  8
0
  6
CONTINUOUS
 10
4.159760
 20
5.738480
  0
SEQEND
  8
0
  0
SOLID
  8
0
 62
    15
 10
4.089360
 20
5.676000
 11
4.733520
 21
5.308600
 12
3.993880
 22
5.533880
 13
4.638480
 23
5.166480
  0
POLYLINE
  8
0
  6
CONTINUOUS
 66
     1
 40
0.000000
 41
0.000000
  0
VERTEX
  8
0
  6
CONTINUOUS
 10
4.089360
 20
5.676000
  0
VERTEX
  8
0
  6
CONTINUOUS
 10
4.733520
 20
5.308600
  0
VERTEX
  8
0
  6
CONTINUOUS
 10
4.638480
 20
5.166480
  0
VERTEX
  8
0
  6
CONTINUOUS
 10
3.993880
 20
5.533880
  0
VERTEX
  8
0
  6
CONTINUOUS
 10
4.089360
 20
5.676000
  0
SEQEND
  8
0
  0
SOLID
  8
0
 62
    15
 10
3.993880
 20
5.533880
 11
4.638480
 21
5.166480
 12
3.935360
 22
5.394400
 13
4.579960
 23
5.027000
  0
POLYLINE
  8
0
  6
CONTINUOUS
 66
     1
 40
0.000000
 41
0.000000
  0
VERTEX
  8
0
  6
CONTINUOUS
 10
3.993880
 20
5.533880
  0
VERTEX
  8
0
  6
CONTINUOUS
 10
4.638480
 20
5.166480
  0
VERTEX
  8
0
  6
CONTINUOUS
 10
4.579960
 20
5.027000
  0
VERTEX
  8
0
  6
CONTINUOUS
 10
3.935360
 20
5.394400
  0
VERTEX
  8
0
  6
CONTINUOUS
 10
3.993880
 20
5.533880
  0
SEQEND
  8
0
  0
SOLID
  8
0
 62
    15
 10
3.935360
 20
5.394400
 11
4.579960
 21
5.027000
 12
3.875520
 22
5.261520
 13
4.520120
 23
4.894120
  0
POLYLINE
  8
0
  6
CONTINUOUS
 66
     1
 40
0.000000
 41
0.000000
  0
VERTEX
  8
0
  6
CONTINUOUS
 10
3.935360
 20
5.394400
  0
VERTEX
  8
0
  6
CONTINUOUS
 10
4.579960
 20
5.027000
  0
VERTEX
  8
0
  6
CONTINUOUS
 10
4.520120
 20
4.894120
  0
VERTEX
  8
0
  6
CONTINUOUS
 10
3.875520
 20
5.261520
  0
VERTEX
  8
0
  6
CONTINUOUS
 10
3.935360
 20
5.394400
  0
SEQEND
  8
0
  0
SOLID
  8
0
 62
    15
 10
3.875520
 20
5.261520
 11
4.520120
 21
4.894120
 12
3.785320
 22
5.133480
 13
4.429480
 23
4.766080
  0
POLYLINE
  8
0
  6
CONTINUOUS
 66
     1
 40
0.000000
 41
0.000000
  0
VERTEX
  8
0
  6
CONTINUOUS
 10
3.875520
 20
5.261520
  0
VERTEX
  8
0
  6
CONTINUOUS
 10
4.520120
 20
4.894120
  0
VERTEX
  8
0
  6
CONTINUOUS
 10
4.429480
 20
4.766080
  0
VERTEX
  8
0
  6
CONTINUOUS
 10
3.785320
 20
5.133480
  0
VERTEX
  8
0
  6
CONTINUOUS
 10
3.875520
 20
5.261520
  0
SEQEND
  8
0
  0
SOLID
  8
0
 62
    15
 10
3.785320
 20
5.133480
 11
4.429480
 21
4.766080
 12
3.650240
 22
5.034920
 13
4.294840
 23
4.667520
  0
POLYLINE
  8
0
  6
CONTINUOUS
 66
     1
 40
0.000000
 41
0.000000
  0
VERTEX
  8
0
  6
CONTINUOUS
 10
3.785320
 20
5.133480
  0
VERTEX
  8
0
  6
CONTINUOUS
 10
4.429480
 20
4.766080
  0
VERTEX
  8
0
  6
CONTINUOUS
 10
4.294840
 20
4.667520
  0
VERTEX
  8
0
  6
CONTINUOUS
 10
3.650240
 20
5.034920
  0
VERTEX
  8
0
  6
CONTINUOUS
 10
3.785320
 20
5.133480
  0
SEQEND
  8
0
  0
SOLID
  8
0
 62
    15
 10
3.650240
 20
5.034920
 11
4.294840
 21
4.667520
 12
3.561800
 22
5.004560
 13
4.205960
 23
4.636720
  0
POLYLINE
  8
0
  6
CONTINUOUS
 66
     1
 40
0.000000
 41
0.000000
  0
VERTEX
  8
0
  6
CONTINUOUS
 10
3.650240
 20
5.034920
  0
VERTEX
  8
0
  6
CONTINUOUS
 10
4.294840
 20
4.667520
  0
VERTEX
  8
0
  6
CONTINUOUS
 10
4.205960
 20
4.636720
  0
VERTEX
  8
0
  6
CONTINUOUS
 10
3.561800
 20
5.004560
  0
VERTEX
  8
0
  6
CONTINUOUS
 10
3.650240
 20
5.034920
  0
SEQEND
  8
0
  0
SOLID
  8
0
 62
    15
 10
3.561800
 20
5.004560
 11
4.205960
 21
4.636720
 12
3.456640
 22
4.990040
 13
4.100800
 23
4.622640
  0
POLYLINE
  8
0
  6
CONTINUOUS
 66
     1
 40
0.000000
 41
0.000000
  0
VERTEX
  8
0
  6
CONTINUOUS
 10
3.561800
 20
5.004560
  0
VERTEX
  8
0
  6
CONTINUOUS
 10
4.205960
 20
4.636720
  0
VERTEX
  8
0
  6
CONTINUOUS
 10
4.100800
 20
4.622640
  0
VERTEX
  8
0
  6
CONTINUOUS
 10
3.456640
 20
4.990040
  0
VERTEX
  8
0
  6
CONTINUOUS
 10
3.561800
 20
5.004560
  0
SEQEND
  8
0
  0
SOLID
  8
0
 62
    15
 10
3.456640
 20
4.990040
 11
4.100800
 21
4.622640
 12
3.458400
 22
4.882680
 13
4.102560
 23
4.515280
  0
POLYLINE
  8
0
  6
CONTINUOUS
 66
     1
 40
0.000000
 41
0.000000
  0
VERTEX
  8
0
  6
CONTINUOUS
 10
3.456640
 20
4.990040
  0
VERTEX
  8
0
  6
CONTINUOUS
 10
4.100800
 20
4.622640
  0
VERTEX
  8
0
  6
CONTINUOUS
 10
4.102560
 20
4.515280
  0
VERTEX
  8
0
  6
CONTINUOUS
 10
3.458400
 20
4.882680
  0
VERTEX
  8
0
  6
CONTINUOUS
 10
3.456640
 20
4.990040
  0
SEQEND
  8
0
  0
SOLID
  8
0
 62
    15
 10
3.458400
 20
4.882680
 11
4.102560
 21
4.515280
 12
3.416160
 22
4.863320
 13
4.060760
 23
4.495920
  0
POLYLINE
  8
0
  6
CONTINUOUS
 66
     1
 40
0.000000
 41
0.000000
  0
VERTEX
  8
0
  6
CONTINUOUS
 10
3.458400
 20
4.882680
  0
VERTEX
  8
0
  6
CONTINUOUS
 10
4.102560
 20
4.515280
  0
VERTEX
  8
0
  6
CONTINUOUS
 10
4.060760
 20
4.495920
  0
VERTEX
  8
0
  6
CONTINUOUS
 10
3.416160
 20
4.863320
  0
VERTEX
  8
0
  6
CONTINUOUS
 10
3.458400
 20
4.882680
  0
SEQEND
  8
0
  0
SOLID
  8
0
 62
    15
 10
3.416160
 20
4.863320
 11
4.060760
 21
4.495920
 12
3.427600
 22
4.837360
 13
4.072200
 23
4.469520
  0
POLYLINE
  8
0
  6
CONTINUOUS
 66
     1
 40
0.000000
 41
0.000000
  0
VERTEX
  8
0
  6
CONTINUOUS
 10
3.416160
 20
4.863320
  0
VERTEX
  8
0
  6
CONTINUOUS
 10
4.060760
 20
4.495920
  0
VERTEX
  8
0
  6
CONTINUOUS
 10
4.072200
 20
4.469520
  0
VERTEX
  8
0
  6
CONTINUOUS
 10
3.427600
 20
4.837360
  0
VERTEX
  8
0
  6
CONTINUOUS
 10
3.416160
 20
4.863320
  0
SEQEND
  8
0
  0
SOLID
  8
0
 62
    15
 10
3.427600
 20
4.837360
 11
4.072200
 21
4.469520
 12
3.446960
 22
4.775760
 13
4.091120
 23
4.408360
  0
POLYLINE
  8
0
  6
CONTINUOUS
 66
     1
 40
0.000000
 41
0.000000
  0
VERTEX
  8
0
  6
CONTINUOUS
 10
3.427600
 20
4.837360
  0
VERTEX
  8
0
  6
CONTINUOUS
 10
4.072200
 20
4.469520
  0
VERTEX
  8
0
  6
CONTINUOUS
 10
4.091120
 20
4.408360
  0
VERTEX
  8
0
  6
CONTINUOUS
 10
3.446960
 20
4.775760
  0
VERTEX
  8
0
  6
CONTINUOUS
 10
3.427600
 20
4.837360
  0
SEQEND
  8
0
  0
SOLID
  8
0
 62
    15
 10
3.446960
 20
4.775760
 11
4.091120
 21
4.408360
 12
3.450040
 22
4.720760
 13
4.094640
 23
4.353360
  0
POLYLINE
  8
0
  6
CONTINUOUS
 66
     1
 40
0.000000
 41
0.000000
  0
VERTEX
  8
0
  6
CONTINUOUS
 10
3.446960
 20
4.775760
  0
VERTEX
  8
0
  6
CONTINUOUS
 10
4.091120
 20
4.408360
  0
VERTEX
  8
0
  6
CONTINUOUS
 10
4.094640
 20
4.353360
  0
VERTEX
  8
0
  6
CONTINUOUS
 10
3.450040
 20
4.720760
  0
VERTEX
  8
0
  6
CONTINUOUS
 10
3.446960
 20
4.775760
  0
SEQEND
  8
0
  0
SOLID
  8
0
 62
    15
 10
3.450040
 20
4.720760
 11
4.094640
 21
4.353360
 12
3.413080
 22
4.632760
 13
4.057240
 23
4.265360
  0
POLYLINE
  8
0
  6
CONTINUOUS
 66
     1
 40
0.000000
 41
0.000000
  0
VERTEX
  8
0
  6
CONTINUOUS
 10
3.450040
 20
4.720760
  0
VERTEX
  8
0
  6
CONTINUOUS
 10
4.094640
 20
4.353360
  0
VERTEX
  8
0
  6
CONTINUOUS
 10
4.057240
 20
4.265360
  0
VERTEX
  8
0
  6
CONTINUOUS
 10
3.413080
 20
4.632760
  0
VERTEX
  8
0
  6
CONTINUOUS
 10
3.450040
 20
4.720760
  0
SEQEND
  8
0
  0
SOLID
  8
0
 62
    15
 10
3.413080
 20
4.632760
 11
4.057240
 21
4.265360
 12
3.327280
 22
4.580840
 13
3.971880
 23
4.213000
  0
POLYLINE
  8
0
  6
CONTINUOUS
 66
     1
 40
0.000000
 41
0.000000
  0
VERTEX
  8
0
  6
CONTINUOUS
 10
3.413080
 20
4.632760
  0
VERTEX
  8
0
  6
CONTINUOUS
 10
4.057240
 20
4.265360
  0
VERTEX
  8
0
  6
CONTINUOUS
 10
3.971880
 20
4.213000
  0
VERTEX
  8
0
  6
CONTINUOUS
 10
3.327280
 20
4.580840
  0
VERTEX
  8
0
  6
CONTINUOUS
 10
3.413080
 20
4.632760
  0
SEQEND
  8
0
  0
SOLID
  8
0
 62
    15
 10
3.327280
 20
4.580840
 11
3.971880
 21
4.213000
 12
3.203640
 22
4.572040
 13
3.848240
 23
4.204200
  0
POLYLINE
  8
0
  6
CONTINUOUS
 66
     1
 40
0.000000
 41
0.000000
  0
VERTEX
  8
0
  6
CONTINUOUS
 10
3.327280
 20
4.580840
  0
VERTEX
  8
0
  6
CONTINUOUS
 10
3.971880
 20
4.213000
  0
VERTEX
  8
0
  6
CONTINUOUS
 10
3.848240
 20
4.204200
  0
VERTEX
  8
0
  6
CONTINUOUS
 10
3.203640
 20
4.572040
  0
VERTEX
  8
0
  6
CONTINUOUS
 10
3.327280
 20
4.580840
  0
SEQEND
  8
0
  0
SOLID
  8
0
 62
    15
 10
3.203640
 20
4.572040
 11
3.848240
 21
4.204200
 12
3.174600
 22
4.277680
 13
3.818760
 23
3.910280
  0
POLYLINE
  8
0
  6
CONTINUOUS
 66
     1
 40
0.000000
 41
0.000000
  0
VERTEX
  8
0
  6
CONTINUOUS
 10
3.203640
 20
4.572040
  0
VERTEX
  8
0
  6
CONTINUOUS
 10
3.848240
 20
4.204200
  0
VERTEX
  8
0
  6
CONTINUOUS
 10
3.818760
 20
3.910280
  0
VERTEX
  8
0
  6
CONTINUOUS
 10
3.174600
 20
4.277680
  0
VERTEX
  8
0
  6
CONTINUOUS
 10
3.203640
 20
4.572040
  0
SEQEND
  8
0
  0
SOLID
  8
0
 62
    15
 10
2.565640
 20
4.458080
 11
3.209800
 21
4.090680
 12
2.460920
 22
4.506040
 13
3.105520
 23
4.138200
  0
POLYLINE
  8
0
  6
CONTINUOUS
 66
     1
 40
0.000000
 41
0.000000
  0
VERTEX
  8
0
  6
CONTINUOUS
 10
2.565640
 20
4.458080
  0
VERTEX
  8
0
  6
CONTINUOUS
 10
3.209800
 20
4.090680
  0
VERTEX
  8
0
  6
CONTINUOUS
 10
3.105520
 20
4.138200
  0
VERTEX
  8
0
  6
CONTINUOUS
 10
2.460920
 20
4.506040
  0
VERTEX
  8
0
  6
CONTINUOUS
 10
2.565640
 20
4.458080
  0
SEQEND
  8
0
  0
SOLID
  8
0
 62
    15
 10
2.344760
 20
4.529360
 11
2.988920
 21
4.161960
 12
2.219360
 22
4.530240
 13
2.863520
 23
4.162400
  0
POLYLINE
  8
0
  6
CONTINUOUS
 66
     1
 40
0.000000
 41
0.000000
  0
VERTEX
  8
0
  6
CONTINUOUS
 10
2.344760
 20
4.529360
  0
VERTEX
  8
0
  6
CONTINUOUS
 10
2.988920
 20
4.161960
  0
VERTEX
  8
0
  6
CONTINUOUS
 10
2.863520
 20
4.162400
  0
VERTEX
  8
0
  6
CONTINUOUS
 10
2.219360
 20
4.530240
  0
VERTEX
  8
0
  6
CONTINUOUS
 10
2.344760
 20
4.529360
  0
SEQEND
  8
0
  0
SOLID
  8
0
 62
    15
 10
4.533320
 20
6.167920
 11
5.177480
 21
5.800520
 12
4.502960
 22
5.842320
 13
5.147120
 23
5.474480
  0
POLYLINE
  8
0
  6
CONTINUOUS
 66
     1
 40
0.000000
 41
0.000000
  0
VERTEX
  8
0
  6
CONTINUOUS
 10
4.533320
 20
6.167920
  0
VERTEX
  8
0
  6
CONTINUOUS
 10
5.177480
 20
5.800520
  0
VERTEX
  8
0
  6
CONTINUOUS
 10
5.147120
 20
5.474480
  0
VERTEX
  8
0
  6
CONTINUOUS
 10
4.502960
 20
5.842320
  0
VERTEX
  8
0
  6
CONTINUOUS
 10
4.533320
 20
6.167920
  0
SEQEND
  8
0
  0
SOLID
  8
0
 62
    15
 10
3.174600
 20
4.277680
 11
3.818760
 21
3.910280
 12
2.726240
 22
4.285160
 13
3.370400
 23
3.917760
  0
POLYLINE
  8
0
  6
CONTINUOUS
 66
     1
 40
0.000000
 41
0.000000
  0
VERTEX
  8
0
  6
CONTINUOUS
 10
3.174600
 20
4.277680
  0
VERTEX
  8
0
  6
CONTINUOUS
 10
3.818760
 20
3.910280
  0
VERTEX
  8
0
  6
CONTINUOUS
 10
3.370400
 20
3.917760
  0
VERTEX
  8
0
  6
CONTINUOUS
 10
2.726240
 20
4.285160
  0
VERTEX
  8
0
  6
CONTINUOUS
 10
3.174600
 20
4.277680
  0
SEQEND
  8
0
  0
SOLID
  8
0
 62
    15
 10
2.219360
 20
4.530240
 11
2.863520
 21
4.162400
 12
2.087800
 22
4.509120
 13
2.731960
 23
4.141720
  0
POLYLINE
  8
0
  6
CONTINUOUS
 66
     1
 40
0.000000
 41
0.000000
  0
VERTEX
  8
0
  6
CONTINUOUS
 10
2.219360
 20
4.530240
  0
VERTEX
  8
0
  6
CONTINUOUS
 10
2.863520
 20
4.162400
  0
VERTEX
  8
0
  6
CONTINUOUS
 10
2.731960
 20
4.141720
  0
VERTEX
  8
0
  6
CONTINUOUS
 10
2.087800
 20
4.509120
  0
VERTEX
  8
0
  6
CONTINUOUS
 10
2.219360
 20
4.530240
  0
SEQEND
  8
0
  0
SOLID
  8
0
 62
    15
 10
2.087800
 20
4.509120
 11
2.731960
 21
4.141720
 12
1.953160
 22
4.468200
 13
2.597320
 23
4.100360
  0
POLYLINE
  8
0
  6
CONTINUOUS
 66
     1
 40
0.000000
 41
0.000000
  0
VERTEX
  8
0
  6
CONTINUOUS
 10
2.087800
 20
4.509120
  0
VERTEX
  8
0
  6
CONTINUOUS
 10
2.731960
 20
4.141720
  0
VERTEX
  8
0
  6
CONTINUOUS
 10
2.597320
 20
4.100360
  0
VERTEX
  8
0
  6
CONTINUOUS
 10
1.953160
 20
4.468200
  0
VERTEX
  8
0
  6
CONTINUOUS
 10
2.087800
 20
4.509120
  0
SEQEND
  8
0
  0
SOLID
  8
0
 62
    15
 10
1.953160
 20
4.468200
 11
2.597320
 21
4.100360
 12
1.818520
 22
4.407920
 13
2.462680
 23
4.040520
  0
POLYLINE
  8
0
  6
CONTINUOUS
 66
     1
 40
0.000000
 41
0.000000
  0
VERTEX
  8
0
  6
CONTINUOUS
 10
1.953160
 20
4.468200
  0
VERTEX
  8
0
  6
CONTINUOUS
 10
2.597320
 20
4.100360
  0
VERTEX
  8
0
  6
CONTINUOUS
 10
2.462680
 20
4.040520
  0
VERTEX
  8
0
  6
CONTINUOUS
 10
1.818520
 20
4.407920
  0
VERTEX
  8
0
  6
CONTINUOUS
 10
1.953160
 20
4.468200
  0
SEQEND
  8
0
  0
SOLID
  8
0
 62
    15
 10
1.818520
 20
4.407920
 11
2.462680
 21
4.040520
 12
1.686520
 22
4.330040
 13
2.330680
 23
3.962640
  0
POLYLINE
  8
0
  6
CONTINUOUS
 66
     1
 40
0.000000
 41
0.000000
  0
VERTEX
  8
0
  6
CONTINUOUS
 10
1.818520
 20
4.407920
  0
VERTEX
  8
0
  6
CONTINUOUS
 10
2.462680
 20
4.040520
  0
VERTEX
  8
0
  6
CONTINUOUS
 10
2.330680
 20
3.962640
  0
VERTEX
  8
0
  6
CONTINUOUS
 10
1.686520
 20
4.330040
  0
VERTEX
  8
0
  6
CONTINUOUS
 10
1.818520
 20
4.407920
  0
SEQEND
  8
0
  0
SOLID
  8
0
 62
    15
 10
1.686520
 20
4.330040
 11
2.330680
 21
3.962640
 12
1.560240
 22
4.235880
 13
2.204840
 23
3.868040
  0
POLYLINE
  8
0
  6
CONTINUOUS
 66
     1
 40
0.000000
 41
0.000000
  0
VERTEX
  8
0
  6
CONTINUOUS
 10
1.686520
 20
4.330040
  0
VERTEX
  8
0
  6
CONTINUOUS
 10
2.330680
 20
3.962640
  0
VERTEX
  8
0
  6
CONTINUOUS
 10
2.204840
 20
3.868040
  0
VERTEX
  8
0
  6
CONTINUOUS
 10
1.560240
 20
4.235880
  0
VERTEX
  8
0
  6
CONTINUOUS
 10
1.686520
 20
4.330040
  0
SEQEND
  8
0
  0
SOLID
  8
0
 62
    15
 10
1.560240
 20
4.235880
 11
2.204840
 21
3.868040
 12
1.443200
 22
4.126320
 13
2.087360
 23
3.758480
  0
POLYLINE
  8
0
  6
CONTINUOUS
 66
     1
 40
0.000000
 41
0.000000
  0
VERTEX
  8
0
  6
CONTINUOUS
 10
1.560240
 20
4.235880
  0
VERTEX
  8
0
  6
CONTINUOUS
 10
2.204840
 20
3.868040
  0
VERTEX
  8
0
  6
CONTINUOUS
 10
2.087360
 20
3.758480
  0
VERTEX
  8
0
  6
CONTINUOUS
 10
1.443200
 20
4.126320
  0
VERTEX
  8
0
  6
CONTINUOUS
 10
1.560240
 20
4.235880
  0
SEQEND
  8
0
  0
SOLID
  8
0
 62
    15
 10
1.443200
 20
4.126320
 11
2.087360
 21
3.758480
 12
1.337600
 22
4.002680
 13
1.981760
 23
3.635280
  0
POLYLINE
  8
0
  6
CONTINUOUS
 66
     1
 40
0.000000
 41
0.000000
  0
VERTEX
  8
0
  6
CONTINUOUS
 10
1.443200
 20
4.126320
  0
VERTEX
  8
0
  6
CONTINUOUS
 10
2.087360
 20
3.758480
  0
VERTEX
  8
0
  6
CONTINUOUS
 10
1.981760
 20
3.635280
  0
VERTEX
  8
0
  6
CONTINUOUS
 10
1.337600
 20
4.002680
  0
VERTEX
  8
0
  6
CONTINUOUS
 10
1.443200
 20
4.126320
  0
SEQEND
  8
0
  0
SOLID
  8
0
 62
    15
 10
1.337600
 20
4.002680
 11
1.981760
 21
3.635280
 12
1.246520
 22
3.866720
 13
1.890680
 23
3.499320
  0
POLYLINE
  8
0
  6
CONTINUOUS
 66
     1
 40
0.000000
 41
0.000000
  0
VERTEX
  8
0
  6
CONTINUOUS
 10
1.337600
 20
4.002680
  0
VERTEX
  8
0
  6
CONTINUOUS
 10
1.981760
 20
3.635280
  0
VERTEX
  8
0
  6
CONTINUOUS
 10
1.890680
 20
3.499320
  0
VERTEX
  8
0
  6
CONTINUOUS
 10
1.246520
 20
3.866720
  0
VERTEX
  8
0
  6
CONTINUOUS
 10
1.337600
 20
4.002680
  0
SEQEND
  8
0
  0
SOLID
  8
0
 62
    15
 10
1.246520
 20
3.866720
 11
1.890680
 21
3.499320
 12
1.173480
 22
3.719320
 13
1.817640
 23
3.351920
  0
POLYLINE
  8
0
  6
CONTINUOUS
 66
     1
 40
0.000000
 41
0.000000
  0
VERTEX
  8
0
  6
CONTINUOUS
 10
1.246520
 20
3.866720
  0
VERTEX
  8
0
  6
CONTINUOUS
 10
1.890680
 20
3.499320
  0
VERTEX
  8
0
  6
CONTINUOUS
 10
1.817640
 20
3.351920
  0
VERTEX
  8
0
  6
CONTINUOUS
 10
1.173480
 20
3.719320
  0
VERTEX
  8
0
  6
CONTINUOUS
 10
1.246520
 20
3.866720
  0
SEQEND
  8
0
  0
SOLID
  8
0
 62
    15
 10
1.173480
 20
3.719320
 11
1.817640
 21
3.351920
 12
1.121120
 22
3.561800
 13
1.765280
 23
3.194400
  0
POLYLINE
  8
0
  6
CONTINUOUS
 66
     1
 40
0.000000
 41
0.000000
  0
VERTEX
  8
0
  6
CONTINUOUS
 10
1.173480
 20
3.719320
  0
VERTEX
  8
0
  6
CONTINUOUS
 10
1.817640
 20
3.351920
  0
VERTEX
  8
0
  6
CONTINUOUS
 10
1.765280
 20
3.194400
  0
VERTEX
  8
0
  6
CONTINUOUS
 10
1.121120
 20
3.561800
  0
VERTEX
  8
0
  6
CONTINUOUS
 10
1.173480
 20
3.719320
  0
SEQEND
  8
0
  0
SOLID
  8
0
 62
    15
 10
1.121120
 20
3.561800
 11
1.765280
 21
3.194400
 12
1.092080
 22
3.395480
 13
1.736240
 23
3.028080
  0
POLYLINE
  8
0
  6
CONTINUOUS
 66
     1
 40
0.000000
 41
0.000000
  0
VERTEX
  8
0
  6
CONTINUOUS
 10
1.121120
 20
3.561800
  0
VERTEX
  8
0
  6
CONTINUOUS
 10
1.765280
 20
3.194400
  0
VERTEX
  8
0
  6
CONTINUOUS
 10
1.736240
 20
3.028080
  0
VERTEX
  8
0
  6
CONTINUOUS
 10
1.092080
 20
3.395480
  0
VERTEX
  8
0
  6
CONTINUOUS
 10
1.121120
 20
3.561800
  0
SEQEND
  8
0
  0
SOLID
  8
0
 62
    15
 10
1.092080
 20
3.395480
 11
1.736240
 21
3.028080
 12
1.073600
 22
3.235760
 13
1.717760
 23
2.867920
  0
POLYLINE
  8
0
  6
CONTINUOUS
 66
     1
 40
0.000000
 41
0.000000
  0
VERTEX
  8
0
  6
CONTINUOUS
 10
1.092080
 20
3.395480
  0
VERTEX
  8
0
  6
CONTINUOUS
 10
1.736240
 20
3.028080
  0
VERTEX
  8
0
  6
CONTINUOUS
 10
1.717760
 20
2.867920
  0
VERTEX
  8
0
  6
CONTINUOUS
 10
1.073600
 20
3.235760
  0
VERTEX
  8
0
  6
CONTINUOUS
 10
1.092080
 20
3.395480
  0
SEQEND
  8
0
  0
SOLID
  8
0
 62
    15
 10
1.073600
 20
3.235760
 11
1.717760
 21
2.867920
 12
1.049840
 22
3.095400
 13
1.694000
 23
2.728000
  0
POLYLINE
  8
0
  6
CONTINUOUS
 66
     1
 40
0.000000
 41
0.000000
  0
VERTEX
  8
0
  6
CONTINUOUS
 10
1.073600
 20
3.235760
  0
VERTEX
  8
0
  6
CONTINUOUS
 10
1.717760
 20
2.867920
  0
VERTEX
  8
0
  6
CONTINUOUS
 10
1.694000
 20
2.728000
  0
VERTEX
  8
0
  6
CONTINUOUS
 10
1.049840
 20
3.095400
  0
VERTEX
  8
0
  6
CONTINUOUS
 10
1.073600
 20
3.235760
  0
SEQEND
  8
0
  0
SOLID
  8
0
 62
    15
 10
1.049840
 20
3.095400
 11
1.694000
 21
2.728000
 12
1.022120
 22
2.973520
 13
1.666280
 23
2.606120
  0
POLYLINE
  8
0
  6
CONTINUOUS
 66
     1
 40
0.000000
 41
0.000000
  0
VERTEX
  8
0
  6
CONTINUOUS
 10
1.049840
 20
3.095400
  0
VERTEX
  8
0
  6
CONTINUOUS
 10
1.694000
 20
2.728000
  0
VERTEX
  8
0
  6
CONTINUOUS
 10
1.666280
 20
2.606120
  0
VERTEX
  8
0
  6
CONTINUOUS
 10
1.022120
 20
2.973520
  0
VERTEX
  8
0
  6
CONTINUOUS
 10
1.049840
 20
3.095400
  0
SEQEND
  8
0
  0
SOLID
  8
0
 62
    15
 10
1.022120
 20
2.973520
 11
1.666280
 21
2.606120
 12
0.990880
 22
2.868800
 13
1.635040
 23
2.501400
  0
POLYLINE
  8
0
  6
CONTINUOUS
 66
     1
 40
0.000000
 41
0.000000
  0
VERTEX
  8
0
  6
CONTINUOUS
 10
1.022120
 20
2.973520
  0
VERTEX
  8
0
  6
CONTINUOUS
 10
1.666280
 20
2.606120
  0
VERTEX
  8
0
  6
CONTINUOUS
 10
1.635040
 20
2.501400
  0
VERTEX
  8
0
  6
CONTINUOUS
 10
0.990880
 20
2.868800
  0
VERTEX
  8
0
  6
CONTINUOUS
 10
1.022120
 20
2.973520
  0
SEQEND
  8
0
  0
SOLID
  8
0
 62
    15
 10
0.990880
 20
2.868800
 11
1.635040
 21
2.501400
 12
0.920040
 22
2.705560
 13
1.564200
 23
2.338160
  0
POLYLINE
  8
0
  6
CONTINUOUS
 66
     1
 40
0.000000
 41
0.000000
  0
VERTEX
  8
0
  6
CONTINUOUS
 10
0.990880
 20
2.868800
  0
VERTEX
  8
0
  6
CONTINUOUS
 10
1.635040
 20
2.501400
  0
VERTEX
  8
0
  6
CONTINUOUS
 10
1.564200
 20
2.338160
  0
VERTEX
  8
0
  6
CONTINUOUS
 10
0.920040
 20
2.705560
  0
VERTEX
  8
0
  6
CONTINUOUS
 10
0.990880
 20
2.868800
  0
SEQEND
  8
0
  0
SOLID
  8
0
 62
    15
 10
0.920040
 20
2.705560
 11
1.564200
 21
2.338160
 12
0.841720
 22
2.596000
 13
1.486320
 23
2.228600
  0
POLYLINE
  8
0
  6
CONTINUOUS
 66
     1
 40
0.000000
 41
0.000000
  0
VERTEX
  8
0
  6
CONTINUOUS
 10
0.920040
 20
2.705560
  0
VERTEX
  8
0
  6
CONTINUOUS
 10
1.564200
 20
2.338160
  0
VERTEX
  8
0
  6
CONTINUOUS
 10
1.486320
 20
2.228600
  0
VERTEX
  8
0
  6
CONTINUOUS
 10
0.841720
 20
2.596000
  0
VERTEX
  8
0
  6
CONTINUOUS
 10
0.920040
 20
2.705560
  0
SEQEND
  8
0
  0
SOLID
  8
0
 62
    15
 10
0.841720
 20
2.596000
 11
1.486320
 21
2.228600
 12
0.761200
 22
2.529560
 13
1.405800
 23
2.162160
  0
POLYLINE
  8
0
  6
CONTINUOUS
 66
     1
 40
0.000000
 41
0.000000
  0
VERTEX
  8
0
  6
CONTINUOUS
 10
0.841720
 20
2.596000
  0
VERTEX
  8
0
  6
CONTINUOUS
 10
1.486320
 20
2.228600
  0
VERTEX
  8
0
  6
CONTINUOUS
 10
1.405800
 20
2.162160
  0
VERTEX
  8
0
  6
CONTINUOUS
 10
0.761200
 20
2.529560
  0
VERTEX
  8
0
  6
CONTINUOUS
 10
0.841720
 20
2.596000
  0
SEQEND
  8
0
  0
SOLID
  8
0
 62
    15
 10
0.761200
 20
2.529560
 11
1.405800
 21
2.162160
 12
0.683320
 22
2.496560
 13
1.327920
 23
2.129160
  0
POLYLINE
  8
0
  6
CONTINUOUS
 66
     1
 40
0.000000
 41
0.000000
  0
VERTEX
  8
0
  6
CONTINUOUS
 10
0.761200
 20
2.529560
  0
VERTEX
  8
0
  6
CONTINUOUS
 10
1.405800
 20
2.162160
  0
VERTEX
  8
0
  6
CONTINUOUS
 10
1.327920
 20
2.129160
  0
VERTEX
  8
0
  6
CONTINUOUS
 10
0.683320
 20
2.496560
  0
VERTEX
  8
0
  6
CONTINUOUS
 10
0.761200
 20
2.529560
  0
SEQEND
  8
0
  0
SOLID
  8
0
 62
    15
 10
0.683320
 20
2.496560
 11
1.327920
 21
2.129160
 12
0.612920
 22
2.486880
 13
1.257080
 23
2.119480
  0
POLYLINE
  8
0
  6
CONTINUOUS
 66
     1
 40
0.000000
 41
0.000000
  0
VERTEX
  8
0
  6
CONTINUOUS
 10
0.683320
 20
2.496560
  0
VERTEX
  8
0
  6
CONTINUOUS
 10
1.327920
 20
2.129160
  0
VERTEX
  8
0
  6
CONTINUOUS
 10
1.257080
 20
2.119480
  0
VERTEX
  8
0
  6
CONTINUOUS
 10
0.612920
 20
2.486880
  0
VERTEX
  8
0
  6
CONTINUOUS
 10
0.683320
 20
2.496560
  0
SEQEND
  8
0
  0
SOLID
  8
0
 62
    15
 10
0.612920
 20
2.486880
 11
1.257080
 21
2.119480
 12
0.554840
 22
2.489960
 13
1.199000
 23
2.122560
  0
POLYLINE
  8
0
  6
CONTINUOUS
 66
     1
 40
0.000000
 41
0.000000
  0
VERTEX
  8
0
  6
CONTINUOUS
 10
0.612920
 20
2.486880
  0
VERTEX
  8
0
  6
CONTINUOUS
 10
1.257080
 20
2.119480
  0
VERTEX
  8
0
  6
CONTINUOUS
 10
1.199000
 20
2.122560
  0
VERTEX
  8
0
  6
CONTINUOUS
 10
0.554840
 20
2.489960
  0
VERTEX
  8
0
  6
CONTINUOUS
 10
0.612920
 20
2.486880
  0
SEQEND
  8
0
  0
POLYLINE
  8
0
  6
CONTINUOUS
 66
     1
 40
0.000000
 41
0.000000
  0
VERTEX
  8
0
  6
CONTINUOUS
 10
4.533320
 20
6.167920
  0
VERTEX
  8
0
  6
CONTINUOUS
 10
4.502960
 20
5.842320
  0
VERTEX
  8
0
  6
CONTINUOUS
 10
4.363040
 20
5.825600
  0
VERTEX
  8
0
  6
CONTINUOUS
 10
4.249520
 20
5.789520
  0
VERTEX
  8
0
  6
CONTINUOUS
 10
4.159760
 20
5.738480
  0
VERTEX
  8
0
  6
CONTINUOUS
 10
4.089360
 20
5.676000
  0
VERTEX
  8
0
  6
CONTINUOUS
 10
3.993880
 20
5.533880
  0
VERTEX
  8
0
  6
CONTINUOUS
 10
3.935360
 20
5.394400
  0
VERTEX
  8
0
  6
CONTINUOUS
 10
3.875520
 20
5.261520
  0
VERTEX
  8
0
  6
CONTINUOUS
 10
3.785320
 20
5.133480
  0
VERTEX
  8
0
  6
CONTINUOUS
 10
3.650240
 20
5.034920
  0
VERTEX
  8
0
  6
CONTINUOUS
 10
3.561800
 20
5.004560
  0
VERTEX
  8
0
  6
CONTINUOUS
 10
3.456640
 20
4.990040
  0
VERTEX
  8
0
  6
CONTINUOUS
 10
3.458400
 20
4.882680
  0
VERTEX
  8
0
  6
CONTINUOUS
 10
3.416160
 20
4.863320
  0
VERTEX
  8
0
  6
CONTINUOUS
 10
3.427600
 20
4.837360
  0
VERTEX
  8
0
  6
CONTINUOUS
 10
3.446960
 20
4.775760
  0
VERTEX
  8
0
  6
CONTINUOUS
 10
3.450040
 20
4.720760
  0
VERTEX
  8
0
  6
CONTINUOUS
 10
3.413080
 20
4.632760
  0
VERTEX
  8
0
  6
CONTINUOUS
 10
3.327280
 20
4.580840
  0
VERTEX
  8
0
  6
CONTINUOUS
 10
3.203640
 20
4.572040
  0
VERTEX
  8
0
  6
CONTINUOUS
 10
3.174600
 20
4.277680
  0
VERTEX
  8
0
  6
CONTINUOUS
 10
2.726240
 20
4.285160
  0
VERTEX
  8
0
  6
CONTINUOUS
 10
2.654960
 20
4.385040
  0
VERTEX
  8
0
  6
CONTINUOUS
 10
2.565640
 20
4.458080
  0
VERTEX
  8
0
  6
CONTINUOUS
 10
2.460920
 20
4.506040
  0
VERTEX
  8
0
  6
CONTINUOUS
 10
2.344760
 20
4.529360
  0
VERTEX
  8
0
  6
CONTINUOUS
 10
2.219360
 20
4.530240
  0
VERTEX
  8
0
  6
CONTINUOUS
 10
2.087800
 20
4.509120
  0
VERTEX
  8
0
  6
CONTINUOUS
 10
1.953160
 20
4.468200
  0
VERTEX
  8
0
  6
CONTINUOUS
 10
1.818520
 20
4.407920
  0
VERTEX
  8
0
  6
CONTINUOUS
 10
1.686520
 20
4.330040
  0
VERTEX
  8
0
  6
CONTINUOUS
 10
1.560240
 20
4.235880
  0
VERTEX
  8
0
  6
CONTINUOUS
 10
1.443200
 20
4.126320
  0
VERTEX
  8
0
  6
CONTINUOUS
 10
1.337600
 20
4.002680
  0
VERTEX
  8
0
  6
CONTINUOUS
 10
1.246520
 20
3.866720
  0
VERTEX
  8
0
  6
CONTINUOUS
 10
1.173480
 20
3.719320
  0
VERTEX
  8
0
  6
CONTINUOUS
 10
1.121120
 20
3.561800
  0
VERTEX
  8
0
  6
CONTINUOUS
 10
1.092080
 20
3.395480
  0
VERTEX
  8
0
  6
CONTINUOUS
 10
1.073600
 20
3.235760
  0
VERTEX
  8
0
  6
CONTINUOUS
 10
1.049840
 20
3.095400
  0
VERTEX
  8
0
  6
CONTINUOUS
 10
1.022120
 20
2.973520
  0
VERTEX
  8
0
  6
CONTINUOUS
 10
0.990880
 20
2.868800
  0
VERTEX
  8
0
  6
CONTINUOUS
 10
0.920040
 20
2.705560
  0
VERTEX
  8
0
  6
CONTINUOUS
 10
0.841720
 20
2.596000
  0
VERTEX
  8
0
  6
CONTINUOUS
 10
0.761200
 20
2.529560
  0
VERTEX
  8
0
  6
CONTINUOUS
 10
0.683320
 20
2.496560
  0
VERTEX
  8
0
  6
CONTINUOUS
 10
0.612920
 20
2.486880
  0
VERTEX
  8
0
  6
CONTINUOUS
 10
0.554840
 20
2.489960
  0
VERTEX
  8
0
  6
CONTINUOUS
 10
0.573760
 20
4.202440
  0
VERTEX
  8
0
  6
CONTINUOUS
 10
3.232240
 20
6.176720
  0
VERTEX
  8
0
  6
CONTINUOUS
 10
4.533320
 20
6.167920
  0
SEQEND
  8
0
  0
TEXT
  8
0
 10
2.280520
 20
2.328480
 40
0.138096
  1
BA  1241
 41
1.000000
  7
SN0
 71
     0
 72
     5
 11
2.961613
 21
2.328480
  0
TEXT
  8
0
 10
2.050840
 20
2.136640
 40
0.138096
  1
1-1/2" x 5-7/16"
 41
1.000000
  7
SN0
 71
     0
 72
     5
 11
3.189502
 21
2.136640
  0
ENDSEC
  0
EOF
